ISO-10303-21;
HEADER;
/* Generated by software containing ST-Developer
 * from STEP Tools, Inc. (www.steptools.com) 
 */

FILE_DESCRIPTION(
/* description */ (''),
/* implementation_level */ '2;1');

FILE_NAME(
/* name */ 
'R:\\Disegni3D_Area_Manager\\Inoxpres.step\\183_003INOXPRES\\183015003
_Inoxpres.stp',
/* time_stamp */ '2022-10-11T11:56:17+02:00',
/* author */ ('Vault'),
/* organization */ ('Raccorderie metalliche s.p.a. '),
/* preprocessor_version */ 'ST-DEVELOPER v18.1',
/* originating_system */ 'Autodesk Inventor 2020',
/* authorisation */ 'Raccorderie metalliche s.p.a. ');

FILE_SCHEMA (('AUTOMOTIVE_DESIGN { 1 0 10303 214 3 1 1 }'));
ENDSEC;

DATA;
#10=MECHANICAL_DESIGN_GEOMETRIC_PRESENTATION_REPRESENTATION('',(#17,#18,
#19,#20,#21,#22,#23,#24,#25,#26),#451);
#11=SHAPE_REPRESENTATION_RELATIONSHIP('SRR','None',#458,#12);
#12=ADVANCED_BREP_SHAPE_REPRESENTATION('',(#13),#450);
#13=MANIFOLD_SOLID_BREP('Solido2',#232);
#14=CONICAL_SURFACE('',#278,8.65,0.785398163397448);
#15=PLANE('',#274);
#16=PLANE('',#283);
#17=STYLED_ITEM('',(#467),#223);
#18=STYLED_ITEM('',(#467),#224);
#19=STYLED_ITEM('',(#467),#225);
#20=STYLED_ITEM('',(#467),#226);
#21=STYLED_ITEM('',(#467),#227);
#22=STYLED_ITEM('',(#467),#228);
#23=STYLED_ITEM('',(#467),#229);
#24=STYLED_ITEM('',(#467),#230);
#25=STYLED_ITEM('',(#467),#231);
#26=STYLED_ITEM('',(#467),#13);
#27=LINE('',#405,#32);
#28=LINE('',#421,#33);
#29=LINE('',#431,#34);
#30=LINE('',#437,#35);
#31=LINE('',#442,#36);
#32=VECTOR('',#324,7.85);
#33=VECTOR('',#343,7.65);
#34=VECTOR('',#354,8.65);
#35=VECTOR('',#363,9.15);
#36=VECTOR('',#370,7.85);
#37=CYLINDRICAL_SURFACE('',#264,7.85);
#38=CYLINDRICAL_SURFACE('',#275,7.65);
#39=CYLINDRICAL_SURFACE('',#284,9.15);
#40=CYLINDRICAL_SURFACE('',#287,7.85);
#41=FACE_OUTER_BOUND('',#53,.T.);
#42=FACE_OUTER_BOUND('',#54,.T.);
#43=FACE_OUTER_BOUND('',#55,.T.);
#44=FACE_OUTER_BOUND('',#56,.T.);
#45=FACE_OUTER_BOUND('',#57,.T.);
#46=FACE_OUTER_BOUND('',#58,.T.);
#47=FACE_OUTER_BOUND('',#59,.T.);
#48=FACE_OUTER_BOUND('',#60,.T.);
#49=FACE_OUTER_BOUND('',#61,.T.);
#50=FACE_OUTER_BOUND('',#62,.T.);
#51=FACE_OUTER_BOUND('',#63,.T.);
#52=FACE_OUTER_BOUND('',#64,.T.);
#53=EDGE_LOOP('',(#149,#150,#151,#152,#153,#154));
#54=EDGE_LOOP('',(#155,#156,#157,#158,#159,#160));
#55=EDGE_LOOP('',(#161,#162,#163,#164,#165,#166));
#56=EDGE_LOOP('',(#167,#168,#169,#170,#171,#172,#173));
#57=EDGE_LOOP('',(#174,#175));
#58=EDGE_LOOP('',(#176,#177,#178,#179,#180,#181,#182));
#59=EDGE_LOOP('',(#183,#184,#185,#186,#187,#188));
#60=EDGE_LOOP('',(#189,#190));
#61=EDGE_LOOP('',(#191,#192,#193,#194,#195,#196));
#62=EDGE_LOOP('',(#197,#198,#199,#200,#201,#202));
#63=EDGE_LOOP('',(#203,#204,#205,#206,#207,#208));
#64=EDGE_LOOP('',(#209,#210,#211,#212,#213,#214));
#65=CIRCLE('',#253,9.15);
#66=CIRCLE('',#254,9.15);
#67=CIRCLE('',#255,3.33016050251763);
#68=CIRCLE('',#256,8.54341017096803);
#69=CIRCLE('',#257,8.54341017096803);
#70=CIRCLE('',#259,7.85);
#71=CIRCLE('',#260,7.85);
#72=CIRCLE('',#261,1.);
#73=CIRCLE('',#262,7.85);
#74=CIRCLE('',#263,7.85);
#75=CIRCLE('',#265,7.85);
#76=CIRCLE('',#266,7.85);
#77=CIRCLE('',#268,7.65);
#78=CIRCLE('',#269,7.65);
#79=CIRCLE('',#270,0.8);
#80=CIRCLE('',#271,6.85);
#81=CIRCLE('',#272,6.85);
#82=CIRCLE('',#273,7.65);
#83=CIRCLE('',#276,7.65);
#84=CIRCLE('',#277,7.65);
#85=CIRCLE('',#279,8.15);
#86=CIRCLE('',#280,8.15);
#87=CIRCLE('',#281,9.15);
#88=CIRCLE('',#282,9.15);
#89=CIRCLE('',#286,2.);
#90=CIRCLE('',#288,7.85);
#91=CIRCLE('',#289,7.85);
#92=CIRCLE('',#291,0.6);
#93=VERTEX_POINT('',#381);
#94=VERTEX_POINT('',#382);
#95=VERTEX_POINT('',#385);
#96=VERTEX_POINT('',#387);
#97=VERTEX_POINT('',#391);
#98=VERTEX_POINT('',#392);
#99=VERTEX_POINT('',#395);
#100=VERTEX_POINT('',#397);
#101=VERTEX_POINT('',#401);
#102=VERTEX_POINT('',#402);
#103=VERTEX_POINT('',#407);
#104=VERTEX_POINT('',#408);
#105=VERTEX_POINT('',#410);
#106=VERTEX_POINT('',#412);
#107=VERTEX_POINT('',#414);
#108=VERTEX_POINT('',#420);
#109=VERTEX_POINT('',#422);
#110=VERTEX_POINT('',#426);
#111=VERTEX_POINT('',#427);
#112=VERTEX_POINT('',#430);
#113=VERTEX_POINT('',#432);
#114=VERTEX_POINT('',#441);
#115=VERTEX_POINT('',#443);
#116=EDGE_CURVE('',#93,#94,#65,.T.);
#117=EDGE_CURVE('',#94,#93,#66,.T.);
#118=EDGE_CURVE('',#94,#95,#67,.T.);
#119=EDGE_CURVE('',#95,#96,#68,.T.);
#120=EDGE_CURVE('',#96,#95,#69,.T.);
#121=EDGE_CURVE('',#97,#98,#70,.T.);
#122=EDGE_CURVE('',#98,#97,#71,.T.);
#123=EDGE_CURVE('',#98,#99,#72,.T.);
#124=EDGE_CURVE('',#99,#100,#73,.T.);
#125=EDGE_CURVE('',#100,#99,#74,.T.);
#126=EDGE_CURVE('',#101,#102,#75,.T.);
#127=EDGE_CURVE('',#102,#101,#76,.T.);
#128=EDGE_CURVE('',#102,#99,#27,.T.);
#129=EDGE_CURVE('',#103,#104,#77,.T.);
#130=EDGE_CURVE('',#104,#105,#78,.T.);
#131=EDGE_CURVE('',#105,#106,#79,.T.);
#132=EDGE_CURVE('',#106,#107,#80,.T.);
#133=EDGE_CURVE('',#107,#106,#81,.T.);
#134=EDGE_CURVE('',#105,#103,#82,.T.);
#135=EDGE_CURVE('',#104,#108,#28,.T.);
#136=EDGE_CURVE('',#109,#108,#83,.T.);
#137=EDGE_CURVE('',#108,#109,#84,.T.);
#138=EDGE_CURVE('',#110,#111,#85,.T.);
#139=EDGE_CURVE('',#111,#110,#86,.T.);
#140=EDGE_CURVE('',#111,#112,#29,.T.);
#141=EDGE_CURVE('',#112,#113,#87,.T.);
#142=EDGE_CURVE('',#113,#112,#88,.T.);
#143=EDGE_CURVE('',#112,#94,#30,.T.);
#144=EDGE_CURVE('',#102,#108,#89,.T.);
#145=EDGE_CURVE('',#98,#114,#31,.T.);
#146=EDGE_CURVE('',#115,#114,#90,.T.);
#147=EDGE_CURVE('',#114,#115,#91,.T.);
#148=EDGE_CURVE('',#95,#114,#92,.T.);
#149=ORIENTED_EDGE('',*,*,#116,.F.);
#150=ORIENTED_EDGE('',*,*,#117,.F.);
#151=ORIENTED_EDGE('',*,*,#118,.T.);
#152=ORIENTED_EDGE('',*,*,#119,.T.);
#153=ORIENTED_EDGE('',*,*,#120,.T.);
#154=ORIENTED_EDGE('',*,*,#118,.F.);
#155=ORIENTED_EDGE('',*,*,#121,.F.);
#156=ORIENTED_EDGE('',*,*,#122,.F.);
#157=ORIENTED_EDGE('',*,*,#123,.T.);
#158=ORIENTED_EDGE('',*,*,#124,.T.);
#159=ORIENTED_EDGE('',*,*,#125,.T.);
#160=ORIENTED_EDGE('',*,*,#123,.F.);
#161=ORIENTED_EDGE('',*,*,#126,.F.);
#162=ORIENTED_EDGE('',*,*,#127,.F.);
#163=ORIENTED_EDGE('',*,*,#128,.T.);
#164=ORIENTED_EDGE('',*,*,#125,.F.);
#165=ORIENTED_EDGE('',*,*,#124,.F.);
#166=ORIENTED_EDGE('',*,*,#128,.F.);
#167=ORIENTED_EDGE('',*,*,#129,.T.);
#168=ORIENTED_EDGE('',*,*,#130,.T.);
#169=ORIENTED_EDGE('',*,*,#131,.T.);
#170=ORIENTED_EDGE('',*,*,#132,.T.);
#171=ORIENTED_EDGE('',*,*,#133,.T.);
#172=ORIENTED_EDGE('',*,*,#131,.F.);
#173=ORIENTED_EDGE('',*,*,#134,.T.);
#174=ORIENTED_EDGE('',*,*,#133,.F.);
#175=ORIENTED_EDGE('',*,*,#132,.F.);
#176=ORIENTED_EDGE('',*,*,#129,.F.);
#177=ORIENTED_EDGE('',*,*,#134,.F.);
#178=ORIENTED_EDGE('',*,*,#130,.F.);
#179=ORIENTED_EDGE('',*,*,#135,.T.);
#180=ORIENTED_EDGE('',*,*,#136,.F.);
#181=ORIENTED_EDGE('',*,*,#137,.F.);
#182=ORIENTED_EDGE('',*,*,#135,.F.);
#183=ORIENTED_EDGE('',*,*,#138,.F.);
#184=ORIENTED_EDGE('',*,*,#139,.F.);
#185=ORIENTED_EDGE('',*,*,#140,.T.);
#186=ORIENTED_EDGE('',*,*,#141,.T.);
#187=ORIENTED_EDGE('',*,*,#142,.T.);
#188=ORIENTED_EDGE('',*,*,#140,.F.);
#189=ORIENTED_EDGE('',*,*,#138,.T.);
#190=ORIENTED_EDGE('',*,*,#139,.T.);
#191=ORIENTED_EDGE('',*,*,#142,.F.);
#192=ORIENTED_EDGE('',*,*,#141,.F.);
#193=ORIENTED_EDGE('',*,*,#143,.T.);
#194=ORIENTED_EDGE('',*,*,#117,.T.);
#195=ORIENTED_EDGE('',*,*,#116,.T.);
#196=ORIENTED_EDGE('',*,*,#143,.F.);
#197=ORIENTED_EDGE('',*,*,#126,.T.);
#198=ORIENTED_EDGE('',*,*,#144,.T.);
#199=ORIENTED_EDGE('',*,*,#137,.T.);
#200=ORIENTED_EDGE('',*,*,#136,.T.);
#201=ORIENTED_EDGE('',*,*,#144,.F.);
#202=ORIENTED_EDGE('',*,*,#127,.T.);
#203=ORIENTED_EDGE('',*,*,#121,.T.);
#204=ORIENTED_EDGE('',*,*,#145,.T.);
#205=ORIENTED_EDGE('',*,*,#146,.F.);
#206=ORIENTED_EDGE('',*,*,#147,.F.);
#207=ORIENTED_EDGE('',*,*,#145,.F.);
#208=ORIENTED_EDGE('',*,*,#122,.T.);
#209=ORIENTED_EDGE('',*,*,#120,.F.);
#210=ORIENTED_EDGE('',*,*,#119,.F.);
#211=ORIENTED_EDGE('',*,*,#148,.T.);
#212=ORIENTED_EDGE('',*,*,#147,.T.);
#213=ORIENTED_EDGE('',*,*,#146,.T.);
#214=ORIENTED_EDGE('',*,*,#148,.F.);
#215=TOROIDAL_SURFACE('',#252,8.02495873448277,3.33016050251763);
#216=TOROIDAL_SURFACE('',#258,8.5,1.);
#217=TOROIDAL_SURFACE('',#267,6.85,0.8);
#218=TOROIDAL_SURFACE('',#285,9.65,2.);
#219=TOROIDAL_SURFACE('',#290,8.45,0.6);
#220=ADVANCED_FACE('',(#41),#215,.T.);
#221=ADVANCED_FACE('',(#42),#216,.T.);
#222=ADVANCED_FACE('',(#43),#37,.F.);
#223=ADVANCED_FACE('',(#44),#217,.F.);
#224=ADVANCED_FACE('',(#45),#15,.T.);
#225=ADVANCED_FACE('',(#46),#38,.F.);
#226=ADVANCED_FACE('',(#47),#14,.T.);
#227=ADVANCED_FACE('',(#48),#16,.T.);
#228=ADVANCED_FACE('',(#49),#39,.T.);
#229=ADVANCED_FACE('',(#50),#218,.T.);
#230=ADVANCED_FACE('',(#51),#40,.F.);
#231=ADVANCED_FACE('',(#52),#219,.T.);
#232=CLOSED_SHELL('',(#220,#221,#222,#223,#224,#225,#226,#227,#228,#229,
#230,#231));
#233=DERIVED_UNIT_ELEMENT(#235,1.);
#234=DERIVED_UNIT_ELEMENT(#453,3.);
#235=(
MASS_UNIT()
NAMED_UNIT(*)
SI_UNIT($,.GRAM.)
);
#236=DERIVED_UNIT((#233,#234));
#237=MEASURE_REPRESENTATION_ITEM('density measure',
POSITIVE_RATIO_MEASURE(0.001),#236);
#238=PROPERTY_DEFINITION_REPRESENTATION(#243,#240);
#239=PROPERTY_DEFINITION_REPRESENTATION(#244,#241);
#240=REPRESENTATION('material name',(#242),#450);
#241=REPRESENTATION('density',(#237),#450);
#242=DESCRIPTIVE_REPRESENTATION_ITEM('_','_');
#243=PROPERTY_DEFINITION('material property','material name',#460);
#244=PROPERTY_DEFINITION('material property','density of part',#460);
#245=DATE_TIME_ROLE('creation_date');
#246=APPLIED_DATE_AND_TIME_ASSIGNMENT(#247,#245,(#460));
#247=DATE_AND_TIME(#248,#249);
#248=CALENDAR_DATE(2021,18,5);
#249=LOCAL_TIME(9,30,24.,#250);
#250=COORDINATED_UNIVERSAL_TIME_OFFSET(0,0,.BEHIND.);
#251=AXIS2_PLACEMENT_3D('placement',#379,#292,#293);
#252=AXIS2_PLACEMENT_3D('',#380,#294,#295);
#253=AXIS2_PLACEMENT_3D('',#383,#296,#297);
#254=AXIS2_PLACEMENT_3D('',#384,#298,#299);
#255=AXIS2_PLACEMENT_3D('',#386,#300,#301);
#256=AXIS2_PLACEMENT_3D('',#388,#302,#303);
#257=AXIS2_PLACEMENT_3D('',#389,#304,#305);
#258=AXIS2_PLACEMENT_3D('',#390,#306,#307);
#259=AXIS2_PLACEMENT_3D('',#393,#308,#309);
#260=AXIS2_PLACEMENT_3D('',#394,#310,#311);
#261=AXIS2_PLACEMENT_3D('',#396,#312,#313);
#262=AXIS2_PLACEMENT_3D('',#398,#314,#315);
#263=AXIS2_PLACEMENT_3D('',#399,#316,#317);
#264=AXIS2_PLACEMENT_3D('',#400,#318,#319);
#265=AXIS2_PLACEMENT_3D('',#403,#320,#321);
#266=AXIS2_PLACEMENT_3D('',#404,#322,#323);
#267=AXIS2_PLACEMENT_3D('',#406,#325,#326);
#268=AXIS2_PLACEMENT_3D('',#409,#327,#328);
#269=AXIS2_PLACEMENT_3D('',#411,#329,#330);
#270=AXIS2_PLACEMENT_3D('',#413,#331,#332);
#271=AXIS2_PLACEMENT_3D('',#415,#333,#334);
#272=AXIS2_PLACEMENT_3D('',#416,#335,#336);
#273=AXIS2_PLACEMENT_3D('',#417,#337,#338);
#274=AXIS2_PLACEMENT_3D('',#418,#339,#340);
#275=AXIS2_PLACEMENT_3D('',#419,#341,#342);
#276=AXIS2_PLACEMENT_3D('',#423,#344,#345);
#277=AXIS2_PLACEMENT_3D('',#424,#346,#347);
#278=AXIS2_PLACEMENT_3D('',#425,#348,#349);
#279=AXIS2_PLACEMENT_3D('',#428,#350,#351);
#280=AXIS2_PLACEMENT_3D('',#429,#352,#353);
#281=AXIS2_PLACEMENT_3D('',#433,#355,#356);
#282=AXIS2_PLACEMENT_3D('',#434,#357,#358);
#283=AXIS2_PLACEMENT_3D('',#435,#359,#360);
#284=AXIS2_PLACEMENT_3D('',#436,#361,#362);
#285=AXIS2_PLACEMENT_3D('',#438,#364,#365);
#286=AXIS2_PLACEMENT_3D('',#439,#366,#367);
#287=AXIS2_PLACEMENT_3D('',#440,#368,#369);
#288=AXIS2_PLACEMENT_3D('',#444,#371,#372);
#289=AXIS2_PLACEMENT_3D('',#445,#373,#374);
#290=AXIS2_PLACEMENT_3D('',#446,#375,#376);
#291=AXIS2_PLACEMENT_3D('',#447,#377,#378);
#292=DIRECTION('axis',(0.,0.,1.));
#293=DIRECTION('refdir',(1.,0.,0.));
#294=DIRECTION('center_axis',(0.,1.,0.));
#295=DIRECTION('ref_axis',(0.,0.,1.));
#296=DIRECTION('center_axis',(0.,1.,0.));
#297=DIRECTION('ref_axis',(0.,0.,1.));
#298=DIRECTION('center_axis',(0.,1.,0.));
#299=DIRECTION('ref_axis',(0.,0.,1.));
#300=DIRECTION('center_axis',(-1.,0.,1.22464679914735E-16));
#301=DIRECTION('ref_axis',(-1.22464679914735E-16,0.,-1.));
#302=DIRECTION('center_axis',(0.,1.,0.));
#303=DIRECTION('ref_axis',(0.,-3.00765045499331E-17,1.));
#304=DIRECTION('center_axis',(0.,1.,0.));
#305=DIRECTION('ref_axis',(0.,-3.00765045499331E-17,1.));
#306=DIRECTION('center_axis',(0.,1.,0.));
#307=DIRECTION('ref_axis',(0.,0.,1.));
#308=DIRECTION('center_axis',(0.,1.,0.));
#309=DIRECTION('ref_axis',(1.,0.,0.));
#310=DIRECTION('center_axis',(0.,1.,0.));
#311=DIRECTION('ref_axis',(1.,0.,0.));
#312=DIRECTION('center_axis',(-1.,0.,1.22464679914735E-16));
#313=DIRECTION('ref_axis',(-1.22464679914735E-16,0.,-1.));
#314=DIRECTION('center_axis',(0.,1.,0.));
#315=DIRECTION('ref_axis',(1.,0.,0.));
#316=DIRECTION('center_axis',(0.,1.,0.));
#317=DIRECTION('ref_axis',(1.,0.,0.));
#318=DIRECTION('center_axis',(0.,1.,0.));
#319=DIRECTION('ref_axis',(0.,0.,1.));
#320=DIRECTION('center_axis',(0.,-1.,0.));
#321=DIRECTION('ref_axis',(0.,0.,1.));
#322=DIRECTION('center_axis',(0.,-1.,0.));
#323=DIRECTION('ref_axis',(0.,0.,1.));
#324=DIRECTION('',(0.,-1.,0.));
#325=DIRECTION('center_axis',(0.,-1.,0.));
#326=DIRECTION('ref_axis',(0.,0.,-1.));
#327=DIRECTION('center_axis',(0.,-1.,0.));
#328=DIRECTION('ref_axis',(1.,0.,0.));
#329=DIRECTION('center_axis',(0.,-1.,0.));
#330=DIRECTION('ref_axis',(1.,0.,0.));
#331=DIRECTION('center_axis',(-1.,0.,-1.22464679914735E-16));
#332=DIRECTION('ref_axis',(-1.22464679914735E-16,0.,1.));
#333=DIRECTION('center_axis',(0.,1.,0.));
#334=DIRECTION('ref_axis',(1.,0.,0.));
#335=DIRECTION('center_axis',(0.,1.,0.));
#336=DIRECTION('ref_axis',(1.,0.,0.));
#337=DIRECTION('center_axis',(0.,-1.,0.));
#338=DIRECTION('ref_axis',(1.,0.,0.));
#339=DIRECTION('center_axis',(0.,-1.,0.));
#340=DIRECTION('ref_axis',(0.,0.,-1.));
#341=DIRECTION('center_axis',(0.,1.,0.));
#342=DIRECTION('ref_axis',(0.,0.,1.));
#343=DIRECTION('',(0.,-1.,0.));
#344=DIRECTION('center_axis',(0.,1.,0.));
#345=DIRECTION('ref_axis',(0.,0.,1.));
#346=DIRECTION('center_axis',(0.,1.,0.));
#347=DIRECTION('ref_axis',(0.,0.,1.));
#348=DIRECTION('center_axis',(0.,-1.,0.));
#349=DIRECTION('ref_axis',(0.,0.,1.));
#350=DIRECTION('center_axis',(0.,1.,0.));
#351=DIRECTION('ref_axis',(1.,0.,0.));
#352=DIRECTION('center_axis',(0.,1.,0.));
#353=DIRECTION('ref_axis',(1.,0.,0.));
#354=DIRECTION('',(-8.65956056235493E-17,-0.707106781186548,-0.707106781186547));
#355=DIRECTION('center_axis',(0.,1.,0.));
#356=DIRECTION('ref_axis',(1.,0.,0.));
#357=DIRECTION('center_axis',(0.,1.,0.));
#358=DIRECTION('ref_axis',(1.,0.,0.));
#359=DIRECTION('center_axis',(0.,1.,0.));
#360=DIRECTION('ref_axis',(0.,0.,1.));
#361=DIRECTION('center_axis',(0.,1.,0.));
#362=DIRECTION('ref_axis',(0.,0.,1.));
#363=DIRECTION('',(0.,-1.,0.));
#364=DIRECTION('center_axis',(0.,1.,0.));
#365=DIRECTION('ref_axis',(0.,0.,1.));
#366=DIRECTION('center_axis',(-1.,0.,1.22464679914735E-16));
#367=DIRECTION('ref_axis',(-1.22464679914735E-16,0.,-1.));
#368=DIRECTION('center_axis',(0.,1.,0.));
#369=DIRECTION('ref_axis',(0.,0.,1.));
#370=DIRECTION('',(0.,-1.,0.));
#371=DIRECTION('center_axis',(0.,1.,0.));
#372=DIRECTION('ref_axis',(0.,0.,1.));
#373=DIRECTION('center_axis',(0.,1.,0.));
#374=DIRECTION('ref_axis',(0.,0.,1.));
#375=DIRECTION('center_axis',(0.,1.,0.));
#376=DIRECTION('ref_axis',(0.,0.,1.));
#377=DIRECTION('center_axis',(-1.,0.,1.22464679914735E-16));
#378=DIRECTION('ref_axis',(-1.22464679914735E-16,0.,-1.));
#379=CARTESIAN_POINT('',(0.,0.,0.));
#380=CARTESIAN_POINT('Origin',(0.,3.2968715750133,0.));
#381=CARTESIAN_POINT('',(0.,6.43123771881522,9.15));
#382=CARTESIAN_POINT('',(-1.12055182121983E-15,6.43123771881522,-9.15));
#383=CARTESIAN_POINT('Origin',(0.,6.43123771881522,0.));
#384=CARTESIAN_POINT('Origin',(0.,6.43123771881522,0.));
#385=CARTESIAN_POINT('',(-1.04626599196789E-15,0.00731581769061573,-8.54341017096803));
#386=CARTESIAN_POINT('Origin',(-9.82774002747391E-16,3.2968715750133,-8.02495873448277));
#387=CARTESIAN_POINT('',(0.,0.00731581769061518,8.54341017096804));
#388=CARTESIAN_POINT('Origin',(0.,0.00731581769061573,0.));
#389=CARTESIAN_POINT('Origin',(0.,0.00731581769061573,0.));
#390=CARTESIAN_POINT('Origin',(0.,3.2269437248128,0.));
#391=CARTESIAN_POINT('',(0.,2.46700951713426,7.85));
#392=CARTESIAN_POINT('',(-9.61347737330672E-16,2.46700951713426,-7.85));
#393=CARTESIAN_POINT('Origin',(0.,2.46700951713426,0.));
#394=CARTESIAN_POINT('Origin',(0.,2.46700951713426,0.));
#395=CARTESIAN_POINT('',(-9.61347737330672E-16,3.98687793249133,-7.85));
#396=CARTESIAN_POINT('Origin',(-1.04094977927525E-15,3.2269437248128,-8.5));
#397=CARTESIAN_POINT('',(0.,3.98687793249133,7.85));
#398=CARTESIAN_POINT('Origin',(0.,3.98687793249133,0.));
#399=CARTESIAN_POINT('Origin',(0.,3.98687793249133,0.));
#400=CARTESIAN_POINT('Origin',(0.,4.83090295821817,0.));
#401=CARTESIAN_POINT('',(0.,5.67492798394501,7.85));
#402=CARTESIAN_POINT('',(-9.61347737330672E-16,5.67492798394501,-7.85));
#403=CARTESIAN_POINT('Origin',(0.,5.67492798394501,0.));
#404=CARTESIAN_POINT('Origin',(0.,5.67492798394501,0.));
#405=CARTESIAN_POINT('',(-9.61347737330672E-16,4.83090295821817,-7.85));
#406=CARTESIAN_POINT('Origin',(0.,20.2,0.));
#407=CARTESIAN_POINT('',(-7.65,20.2,-9.36854801347725E-16));
#408=CARTESIAN_POINT('',(-9.36854801347725E-16,20.2,-7.65));
#409=CARTESIAN_POINT('Origin',(0.,20.2,0.));
#410=CARTESIAN_POINT('',(-9.36854801347725E-16,20.2,7.65));
#411=CARTESIAN_POINT('Origin',(0.,20.2,0.));
#412=CARTESIAN_POINT('',(-8.38883057415937E-16,21.,6.85));
#413=CARTESIAN_POINT('Origin',(-8.38883057415937E-16,20.2,6.85));
#414=CARTESIAN_POINT('',(-6.85,21.,8.38883057415937E-16));
#415=CARTESIAN_POINT('Origin',(0.,21.,0.));
#416=CARTESIAN_POINT('Origin',(0.,21.,0.));
#417=CARTESIAN_POINT('Origin',(0.,20.2,0.));
#418=CARTESIAN_POINT('Origin',(0.,21.,9.15));
#419=CARTESIAN_POINT('Origin',(0.,13.2733538863266,0.));
#420=CARTESIAN_POINT('',(-9.36854801347725E-16,6.54670777265315,-7.65));
#421=CARTESIAN_POINT('',(-9.36854801347725E-16,13.2733538863266,-7.65));
#422=CARTESIAN_POINT('',(0.,6.54670777265315,7.65));
#423=CARTESIAN_POINT('Origin',(0.,6.54670777265315,0.));
#424=CARTESIAN_POINT('Origin',(0.,6.54670777265315,0.));
#425=CARTESIAN_POINT('Origin',(0.,25.5,0.));
#426=CARTESIAN_POINT('',(0.,26.,8.15));
#427=CARTESIAN_POINT('',(-9.98087141305093E-16,26.,-8.15));
#428=CARTESIAN_POINT('Origin',(0.,26.,0.));
#429=CARTESIAN_POINT('Origin',(0.,26.,0.));
#430=CARTESIAN_POINT('',(-1.12055182121983E-15,25.,-9.15));
#431=CARTESIAN_POINT('',(-1.05931948126246E-15,25.5,-8.65));
#432=CARTESIAN_POINT('',(0.,25.,9.15));
#433=CARTESIAN_POINT('Origin',(0.,25.,0.));
#434=CARTESIAN_POINT('Origin',(0.,25.,0.));
#435=CARTESIAN_POINT('Origin',(0.,26.,0.));
#436=CARTESIAN_POINT('Origin',(0.,13.2156188594076,0.));
#437=CARTESIAN_POINT('',(-1.12055182121983E-15,13.2156188594076,-9.15));
#438=CARTESIAN_POINT('Origin',(0.,6.54670777265315,0.));
#439=CARTESIAN_POINT('Origin',(-1.1817841611772E-15,6.54670777265315,-9.65));
#440=CARTESIAN_POINT('Origin',(0.,0.888675134594814,0.));
#441=CARTESIAN_POINT('',(-9.61347737330672E-16,0.6,-7.85));
#442=CARTESIAN_POINT('',(-9.61347737330672E-16,0.888675134594814,-7.85));
#443=CARTESIAN_POINT('',(0.,0.6,7.85));
#444=CARTESIAN_POINT('Origin',(0.,0.6,0.));
#445=CARTESIAN_POINT('Origin',(0.,0.6,0.));
#446=CARTESIAN_POINT('Origin',(0.,0.6,0.));
#447=CARTESIAN_POINT('Origin',(-1.03482654527951E-15,0.6,-8.45));
#448=UNCERTAINTY_MEASURE_WITH_UNIT(LENGTH_MEASURE(0.01),#452,
'DISTANCE_ACCURACY_VALUE',
'Maximum model space distance between geometric entities at asserted c
onnectivities');
#449=UNCERTAINTY_MEASURE_WITH_UNIT(LENGTH_MEASURE(0.01),#452,
'DISTANCE_ACCURACY_VALUE',
'Maximum model space distance between geometric entities at asserted c
onnectivities');
#450=(
GEOMETRIC_REPRESENTATION_CONTEXT(3)
GLOBAL_UNCERTAINTY_ASSIGNED_CONTEXT((#448))
GLOBAL_UNIT_ASSIGNED_CONTEXT((#452,#454,#455))
REPRESENTATION_CONTEXT('','3D')
);
#451=(
GEOMETRIC_REPRESENTATION_CONTEXT(3)
GLOBAL_UNCERTAINTY_ASSIGNED_CONTEXT((#449))
GLOBAL_UNIT_ASSIGNED_CONTEXT((#452,#454,#455))
REPRESENTATION_CONTEXT('','3D')
);
#452=(
LENGTH_UNIT()
NAMED_UNIT(*)
SI_UNIT(.MILLI.,.METRE.)
);
#453=(
LENGTH_UNIT()
NAMED_UNIT(*)
SI_UNIT(.CENTI.,.METRE.)
);
#454=(
NAMED_UNIT(*)
PLANE_ANGLE_UNIT()
SI_UNIT($,.RADIAN.)
);
#455=(
NAMED_UNIT(*)
SI_UNIT($,.STERADIAN.)
SOLID_ANGLE_UNIT()
);
#456=SHAPE_DEFINITION_REPRESENTATION(#457,#458);
#457=PRODUCT_DEFINITION_SHAPE('',$,#460);
#458=SHAPE_REPRESENTATION('',(#251),#450);
#459=PRODUCT_DEFINITION_CONTEXT('part definition',#464,'design');
#460=PRODUCT_DEFINITION('183015003_Inoxpres','183015003_Inoxpres',#461,
#459);
#461=PRODUCT_DEFINITION_FORMATION('0',$,#466);
#462=PRODUCT_RELATED_PRODUCT_CATEGORY('183015003_Inoxpres',
'183015003_Inoxpres',(#466));
#463=APPLICATION_PROTOCOL_DEFINITION('international standard',
'automotive_design',2009,#464);
#464=APPLICATION_CONTEXT(
'Core Data for Automotive Mechanical Design Process');
#465=PRODUCT_CONTEXT('part definition',#464,'mechanical');
#466=PRODUCT('183015003_Inoxpres','183015003_Inoxpres',$,(#465));
#467=PRESENTATION_STYLE_ASSIGNMENT((#468));
#468=SURFACE_STYLE_USAGE(.BOTH.,#471);
#469=SURFACE_STYLE_RENDERING_WITH_PROPERTIES($,#475,(#470));
#470=SURFACE_STYLE_TRANSPARENT(0.);
#471=SURFACE_SIDE_STYLE('',(#472,#469));
#472=SURFACE_STYLE_FILL_AREA(#473);
#473=FILL_AREA_STYLE('',(#474));
#474=FILL_AREA_STYLE_COLOUR('',#475);
#475=COLOUR_RGB('',0.83921568627451,0.886274509803922,0.854901960784314);
ENDSEC;
END-ISO-10303-21;
