ISO-10303-21;
HEADER;
/* Generated by software containing ST-Developer
 * from STEP Tools, Inc. (www.steptools.com) 
 */

FILE_DESCRIPTION(
/* description */ (''),
/* implementation_level */ '2;1');

FILE_NAME(
/* name */ 
'C:\\Users\\cad\\Desktop\\Zeichnungen neu von Ralph\\3D_Kupplung_R666-
G\\3D_R666-G-DN40-DN65_17113560.stp',
/* time_stamp */ '2021-06-21T16:19:56+02:00',
/* author */ ('cad'),
/* organization */ (''),
/* preprocessor_version */ 'ST-DEVELOPER v18.1',
/* originating_system */ 'Autodesk Inventor 2022',
/* authorisation */ '');

FILE_SCHEMA (('AUTOMOTIVE_DESIGN { 1 0 10303 214 3 1 1 }'));
ENDSEC;

DATA;
#10=MECHANICAL_DESIGN_GEOMETRIC_PRESENTATION_REPRESENTATION('',(#13),#571);
#11=SHAPE_REPRESENTATION_RELATIONSHIP('SRR','None',#578,#12);
#12=ADVANCED_BREP_SHAPE_REPRESENTATION('',(#14),#570);
#13=STYLED_ITEM('',(#587),#14);
#14=MANIFOLD_SOLID_BREP('Volumenk\X\F6rper1',#308);
#15=TOROIDAL_SURFACE('',#354,29.5,0.5);
#16=FACE_BOUND('',#58,.T.);
#17=FACE_BOUND('',#61,.T.);
#18=CONICAL_SURFACE('',#340,28.85,0.785398163397448);
#19=CONICAL_SURFACE('',#342,22.5725,0.785398163397441);
#20=CONICAL_SURFACE('',#350,28.85,0.785398163397448);
#21=CONICAL_SURFACE('',#358,32.275,1.14129692886986);
#22=CONICAL_SURFACE('',#361,23.4225,0.785398163397451);
#23=CONICAL_SURFACE('',#362,36.55,0.785398163397449);
#24=CONICAL_SURFACE('',#368,36.55,0.785398163397447);
#25=CYLINDRICAL_SURFACE('',#334,29.);
#26=CYLINDRICAL_SURFACE('',#345,22.4225);
#27=CYLINDRICAL_SURFACE('',#365,37.55);
#28=(
BOUNDED_CURVE()
B_SPLINE_CURVE(2,(#479,#480,#481),.UNSPECIFIED.,.F.,.F.)
B_SPLINE_CURVE_WITH_KNOTS((3,3),(0.,0.103811103704452),.UNSPECIFIED.)
CURVE()
GEOMETRIC_REPRESENTATION_ITEM()
RATIONAL_B_SPLINE_CURVE((1.,1.00014835578326,1.))
REPRESENTATION_ITEM('')
);
#29=(
BOUNDED_CURVE()
B_SPLINE_CURVE(2,(#485,#486,#487),.UNSPECIFIED.,.F.,.F.)
B_SPLINE_CURVE_WITH_KNOTS((3,3),(0.,0.103811103704452),.UNSPECIFIED.)
CURVE()
GEOMETRIC_REPRESENTATION_ITEM()
RATIONAL_B_SPLINE_CURVE((1.,1.00014835578333,1.))
REPRESENTATION_ITEM('')
);
#30=(
BOUNDED_CURVE()
B_SPLINE_CURVE(2,(#498,#499,#500),.UNSPECIFIED.,.F.,.F.)
B_SPLINE_CURVE_WITH_KNOTS((3,3),(0.,0.10381110370445),.UNSPECIFIED.)
CURVE()
GEOMETRIC_REPRESENTATION_ITEM()
RATIONAL_B_SPLINE_CURVE((1.,1.00014835578128,1.))
REPRESENTATION_ITEM('')
);
#31=(
BOUNDED_CURVE()
B_SPLINE_CURVE(2,(#504,#505,#506),.UNSPECIFIED.,.F.,.F.)
B_SPLINE_CURVE_WITH_KNOTS((3,3),(0.,0.10381110370445),.UNSPECIFIED.)
CURVE()
GEOMETRIC_REPRESENTATION_ITEM()
RATIONAL_B_SPLINE_CURVE((1.,1.00014835578128,1.))
REPRESENTATION_ITEM('')
);
#32=FACE_OUTER_BOUND('',#49,.T.);
#33=FACE_OUTER_BOUND('',#50,.T.);
#34=FACE_OUTER_BOUND('',#51,.T.);
#35=FACE_OUTER_BOUND('',#52,.T.);
#36=FACE_OUTER_BOUND('',#53,.T.);
#37=FACE_OUTER_BOUND('',#54,.T.);
#38=FACE_OUTER_BOUND('',#55,.T.);
#39=FACE_OUTER_BOUND('',#56,.T.);
#40=FACE_OUTER_BOUND('',#57,.T.);
#41=FACE_OUTER_BOUND('',#59,.T.);
#42=FACE_OUTER_BOUND('',#60,.T.);
#43=FACE_OUTER_BOUND('',#62,.T.);
#44=FACE_OUTER_BOUND('',#63,.T.);
#45=FACE_OUTER_BOUND('',#64,.T.);
#46=FACE_OUTER_BOUND('',#65,.T.);
#47=FACE_OUTER_BOUND('',#66,.T.);
#48=FACE_OUTER_BOUND('',#67,.T.);
#49=EDGE_LOOP('',(#197,#198));
#50=EDGE_LOOP('',(#199,#200,#201,#202,#203,#204));
#51=EDGE_LOOP('',(#205,#206));
#52=EDGE_LOOP('',(#207,#208,#209,#210,#211,#212));
#53=EDGE_LOOP('',(#213,#214,#215,#216,#217,#218,#219,#220,#221,#222,#223,
#224,#225));
#54=EDGE_LOOP('',(#226,#227,#228,#229,#230));
#55=EDGE_LOOP('',(#231,#232,#233,#234));
#56=EDGE_LOOP('',(#235,#236,#237,#238,#239));
#57=EDGE_LOOP('',(#240));
#58=EDGE_LOOP('',(#241));
#59=EDGE_LOOP('',(#242,#243,#244,#245));
#60=EDGE_LOOP('',(#246,#247,#248,#249));
#61=EDGE_LOOP('',(#250));
#62=EDGE_LOOP('',(#251,#252,#253,#254,#255,#256));
#63=EDGE_LOOP('',(#257,#258,#259,#260,#261,#262));
#64=EDGE_LOOP('',(#263,#264,#265,#266,#267));
#65=EDGE_LOOP('',(#268,#269,#270,#271,#272,#273));
#66=EDGE_LOOP('',(#274,#275,#276,#277,#278,#279));
#67=EDGE_LOOP('',(#280,#281,#282,#283,#284));
#68=LINE('',#474,#84);
#69=LINE('',#477,#85);
#70=LINE('',#483,#86);
#71=LINE('',#488,#87);
#72=LINE('',#493,#88);
#73=LINE('',#496,#89);
#74=LINE('',#502,#90);
#75=LINE('',#507,#91);
#76=LINE('',#513,#92);
#77=LINE('',#524,#93);
#78=LINE('',#531,#94);
#79=LINE('',#551,#95);
#80=LINE('',#553,#96);
#81=LINE('',#559,#97);
#82=LINE('',#565,#98);
#83=LINE('',#567,#99);
#84=VECTOR('',#375,10.);
#85=VECTOR('',#378,10.);
#86=VECTOR('',#379,10.);
#87=VECTOR('',#380,10.);
#88=VECTOR('',#385,10.);
#89=VECTOR('',#388,10.);
#90=VECTOR('',#389,10.);
#91=VECTOR('',#390,10.);
#92=VECTOR('',#395,29.);
#93=VECTOR('',#412,22.5725);
#94=VECTOR('',#421,22.4225);
#95=VECTOR('',#448,32.275);
#96=VECTOR('',#451,23.4225);
#97=VECTOR('',#458,36.55);
#98=VECTOR('',#465,37.55);
#99=VECTOR('',#468,36.55);
#100=CIRCLE('',#329,29.);
#101=CIRCLE('',#332,29.);
#102=CIRCLE('',#335,29.);
#103=CIRCLE('',#336,29.);
#104=CIRCLE('',#337,29.);
#105=CIRCLE('',#338,29.);
#106=CIRCLE('',#339,29.);
#107=CIRCLE('',#341,28.7);
#108=CIRCLE('',#343,22.7225);
#109=CIRCLE('',#344,22.4225);
#110=CIRCLE('',#346,22.4225);
#111=CIRCLE('',#347,22.4225);
#112=CIRCLE('',#349,35.55);
#113=CIRCLE('',#351,28.7);
#114=CIRCLE('',#353,24.4225);
#115=CIRCLE('',#355,0.5);
#116=CIRCLE('',#356,29.2917921399633);
#117=CIRCLE('',#357,29.2917921399633);
#118=CIRCLE('',#359,35.55);
#119=CIRCLE('',#360,35.55);
#120=CIRCLE('',#363,37.55);
#121=CIRCLE('',#364,37.55);
#122=CIRCLE('',#366,37.55);
#123=CIRCLE('',#367,37.55);
#124=VERTEX_POINT('',#471);
#125=VERTEX_POINT('',#472);
#126=VERTEX_POINT('',#476);
#127=VERTEX_POINT('',#478);
#128=VERTEX_POINT('',#482);
#129=VERTEX_POINT('',#484);
#130=VERTEX_POINT('',#490);
#131=VERTEX_POINT('',#491);
#132=VERTEX_POINT('',#495);
#133=VERTEX_POINT('',#497);
#134=VERTEX_POINT('',#501);
#135=VERTEX_POINT('',#503);
#136=VERTEX_POINT('',#509);
#137=VERTEX_POINT('',#510);
#138=VERTEX_POINT('',#512);
#139=VERTEX_POINT('',#521);
#140=VERTEX_POINT('',#523);
#141=VERTEX_POINT('',#527);
#142=VERTEX_POINT('',#528);
#143=VERTEX_POINT('',#533);
#144=VERTEX_POINT('',#538);
#145=VERTEX_POINT('',#541);
#146=VERTEX_POINT('',#543);
#147=VERTEX_POINT('',#547);
#148=VERTEX_POINT('',#548);
#149=VERTEX_POINT('',#555);
#150=VERTEX_POINT('',#556);
#151=VERTEX_POINT('',#561);
#152=VERTEX_POINT('',#562);
#153=EDGE_CURVE('',#124,#125,#100,.T.);
#154=EDGE_CURVE('',#125,#124,#68,.T.);
#155=EDGE_CURVE('',#126,#124,#69,.T.);
#156=EDGE_CURVE('',#127,#126,#28,.T.);
#157=EDGE_CURVE('',#128,#127,#70,.T.);
#158=EDGE_CURVE('',#129,#128,#29,.T.);
#159=EDGE_CURVE('',#125,#129,#71,.T.);
#160=EDGE_CURVE('',#130,#131,#101,.T.);
#161=EDGE_CURVE('',#131,#130,#72,.T.);
#162=EDGE_CURVE('',#132,#130,#73,.T.);
#163=EDGE_CURVE('',#133,#132,#30,.T.);
#164=EDGE_CURVE('',#134,#133,#74,.T.);
#165=EDGE_CURVE('',#135,#134,#31,.T.);
#166=EDGE_CURVE('',#131,#135,#75,.T.);
#167=EDGE_CURVE('',#136,#137,#102,.T.);
#168=EDGE_CURVE('',#136,#138,#76,.T.);
#169=EDGE_CURVE('',#132,#138,#103,.T.);
#170=EDGE_CURVE('',#126,#135,#104,.T.);
#171=EDGE_CURVE('',#138,#129,#105,.T.);
#172=EDGE_CURVE('',#137,#136,#106,.T.);
#173=EDGE_CURVE('',#128,#133,#107,.T.);
#174=EDGE_CURVE('',#139,#139,#108,.T.);
#175=EDGE_CURVE('',#139,#140,#77,.T.);
#176=EDGE_CURVE('',#140,#140,#109,.T.);
#177=EDGE_CURVE('',#141,#142,#110,.T.);
#178=EDGE_CURVE('',#142,#141,#111,.T.);
#179=EDGE_CURVE('',#142,#140,#78,.T.);
#180=EDGE_CURVE('',#143,#143,#112,.T.);
#181=EDGE_CURVE('',#134,#127,#113,.T.);
#182=EDGE_CURVE('',#144,#144,#114,.T.);
#183=EDGE_CURVE('',#137,#145,#115,.T.);
#184=EDGE_CURVE('',#145,#146,#116,.T.);
#185=EDGE_CURVE('',#146,#145,#117,.T.);
#186=EDGE_CURVE('',#147,#148,#118,.T.);
#187=EDGE_CURVE('',#148,#147,#119,.T.);
#188=EDGE_CURVE('',#148,#146,#79,.T.);
#189=EDGE_CURVE('',#144,#141,#80,.T.);
#190=EDGE_CURVE('',#149,#150,#120,.T.);
#191=EDGE_CURVE('',#150,#149,#121,.T.);
#192=EDGE_CURVE('',#149,#147,#81,.T.);
#193=EDGE_CURVE('',#151,#152,#122,.T.);
#194=EDGE_CURVE('',#152,#151,#123,.T.);
#195=EDGE_CURVE('',#152,#150,#82,.T.);
#196=EDGE_CURVE('',#143,#151,#83,.T.);
#197=ORIENTED_EDGE('',*,*,#153,.F.);
#198=ORIENTED_EDGE('',*,*,#154,.F.);
#199=ORIENTED_EDGE('',*,*,#155,.F.);
#200=ORIENTED_EDGE('',*,*,#156,.F.);
#201=ORIENTED_EDGE('',*,*,#157,.F.);
#202=ORIENTED_EDGE('',*,*,#158,.F.);
#203=ORIENTED_EDGE('',*,*,#159,.F.);
#204=ORIENTED_EDGE('',*,*,#154,.T.);
#205=ORIENTED_EDGE('',*,*,#160,.F.);
#206=ORIENTED_EDGE('',*,*,#161,.F.);
#207=ORIENTED_EDGE('',*,*,#162,.F.);
#208=ORIENTED_EDGE('',*,*,#163,.F.);
#209=ORIENTED_EDGE('',*,*,#164,.F.);
#210=ORIENTED_EDGE('',*,*,#165,.F.);
#211=ORIENTED_EDGE('',*,*,#166,.F.);
#212=ORIENTED_EDGE('',*,*,#161,.T.);
#213=ORIENTED_EDGE('',*,*,#167,.F.);
#214=ORIENTED_EDGE('',*,*,#168,.T.);
#215=ORIENTED_EDGE('',*,*,#169,.F.);
#216=ORIENTED_EDGE('',*,*,#162,.T.);
#217=ORIENTED_EDGE('',*,*,#160,.T.);
#218=ORIENTED_EDGE('',*,*,#166,.T.);
#219=ORIENTED_EDGE('',*,*,#170,.F.);
#220=ORIENTED_EDGE('',*,*,#155,.T.);
#221=ORIENTED_EDGE('',*,*,#153,.T.);
#222=ORIENTED_EDGE('',*,*,#159,.T.);
#223=ORIENTED_EDGE('',*,*,#171,.F.);
#224=ORIENTED_EDGE('',*,*,#168,.F.);
#225=ORIENTED_EDGE('',*,*,#172,.F.);
#226=ORIENTED_EDGE('',*,*,#158,.T.);
#227=ORIENTED_EDGE('',*,*,#173,.T.);
#228=ORIENTED_EDGE('',*,*,#163,.T.);
#229=ORIENTED_EDGE('',*,*,#169,.T.);
#230=ORIENTED_EDGE('',*,*,#171,.T.);
#231=ORIENTED_EDGE('',*,*,#174,.T.);
#232=ORIENTED_EDGE('',*,*,#175,.T.);
#233=ORIENTED_EDGE('',*,*,#176,.T.);
#234=ORIENTED_EDGE('',*,*,#175,.F.);
#235=ORIENTED_EDGE('',*,*,#177,.F.);
#236=ORIENTED_EDGE('',*,*,#178,.F.);
#237=ORIENTED_EDGE('',*,*,#179,.T.);
#238=ORIENTED_EDGE('',*,*,#176,.F.);
#239=ORIENTED_EDGE('',*,*,#179,.F.);
#240=ORIENTED_EDGE('',*,*,#180,.F.);
#241=ORIENTED_EDGE('',*,*,#174,.F.);
#242=ORIENTED_EDGE('',*,*,#156,.T.);
#243=ORIENTED_EDGE('',*,*,#170,.T.);
#244=ORIENTED_EDGE('',*,*,#165,.T.);
#245=ORIENTED_EDGE('',*,*,#181,.T.);
#246=ORIENTED_EDGE('',*,*,#157,.T.);
#247=ORIENTED_EDGE('',*,*,#181,.F.);
#248=ORIENTED_EDGE('',*,*,#164,.T.);
#249=ORIENTED_EDGE('',*,*,#173,.F.);
#250=ORIENTED_EDGE('',*,*,#182,.F.);
#251=ORIENTED_EDGE('',*,*,#167,.T.);
#252=ORIENTED_EDGE('',*,*,#183,.T.);
#253=ORIENTED_EDGE('',*,*,#184,.T.);
#254=ORIENTED_EDGE('',*,*,#185,.T.);
#255=ORIENTED_EDGE('',*,*,#183,.F.);
#256=ORIENTED_EDGE('',*,*,#172,.T.);
#257=ORIENTED_EDGE('',*,*,#186,.F.);
#258=ORIENTED_EDGE('',*,*,#187,.F.);
#259=ORIENTED_EDGE('',*,*,#188,.T.);
#260=ORIENTED_EDGE('',*,*,#184,.F.);
#261=ORIENTED_EDGE('',*,*,#185,.F.);
#262=ORIENTED_EDGE('',*,*,#188,.F.);
#263=ORIENTED_EDGE('',*,*,#182,.T.);
#264=ORIENTED_EDGE('',*,*,#189,.T.);
#265=ORIENTED_EDGE('',*,*,#177,.T.);
#266=ORIENTED_EDGE('',*,*,#178,.T.);
#267=ORIENTED_EDGE('',*,*,#189,.F.);
#268=ORIENTED_EDGE('',*,*,#190,.T.);
#269=ORIENTED_EDGE('',*,*,#191,.T.);
#270=ORIENTED_EDGE('',*,*,#192,.T.);
#271=ORIENTED_EDGE('',*,*,#186,.T.);
#272=ORIENTED_EDGE('',*,*,#187,.T.);
#273=ORIENTED_EDGE('',*,*,#192,.F.);
#274=ORIENTED_EDGE('',*,*,#193,.F.);
#275=ORIENTED_EDGE('',*,*,#194,.F.);
#276=ORIENTED_EDGE('',*,*,#195,.T.);
#277=ORIENTED_EDGE('',*,*,#190,.F.);
#278=ORIENTED_EDGE('',*,*,#191,.F.);
#279=ORIENTED_EDGE('',*,*,#195,.F.);
#280=ORIENTED_EDGE('',*,*,#180,.T.);
#281=ORIENTED_EDGE('',*,*,#196,.T.);
#282=ORIENTED_EDGE('',*,*,#193,.T.);
#283=ORIENTED_EDGE('',*,*,#194,.T.);
#284=ORIENTED_EDGE('',*,*,#196,.F.);
#285=PLANE('',#328);
#286=PLANE('',#330);
#287=PLANE('',#331);
#288=PLANE('',#333);
#289=PLANE('',#348);
#290=PLANE('',#352);
#291=ADVANCED_FACE('',(#32),#285,.F.);
#292=ADVANCED_FACE('',(#33),#286,.F.);
#293=ADVANCED_FACE('',(#34),#287,.F.);
#294=ADVANCED_FACE('',(#35),#288,.F.);
#295=ADVANCED_FACE('',(#36),#25,.T.);
#296=ADVANCED_FACE('',(#37),#18,.T.);
#297=ADVANCED_FACE('',(#38),#19,.F.);
#298=ADVANCED_FACE('',(#39),#26,.F.);
#299=ADVANCED_FACE('',(#40,#16),#289,.T.);
#300=ADVANCED_FACE('',(#41),#20,.T.);
#301=ADVANCED_FACE('',(#42,#17),#290,.T.);
#302=ADVANCED_FACE('',(#43),#15,.F.);
#303=ADVANCED_FACE('',(#44),#21,.T.);
#304=ADVANCED_FACE('',(#45),#22,.F.);
#305=ADVANCED_FACE('',(#46),#23,.T.);
#306=ADVANCED_FACE('',(#47),#27,.T.);
#307=ADVANCED_FACE('',(#48),#24,.T.);
#308=CLOSED_SHELL('',(#291,#292,#293,#294,#295,#296,#297,#298,#299,#300,
#301,#302,#303,#304,#305,#306,#307));
#309=DERIVED_UNIT_ELEMENT(#311,1.);
#310=DERIVED_UNIT_ELEMENT(#573,-3.);
#311=(
MASS_UNIT()
NAMED_UNIT(*)
SI_UNIT($,.GRAM.)
);
#312=DERIVED_UNIT((#309,#310));
#313=MEASURE_REPRESENTATION_ITEM('density measure',
POSITIVE_RATIO_MEASURE(1.),#312);
#314=PROPERTY_DEFINITION_REPRESENTATION(#319,#316);
#315=PROPERTY_DEFINITION_REPRESENTATION(#320,#317);
#316=REPRESENTATION('material name',(#318),#570);
#317=REPRESENTATION('density',(#313),#570);
#318=DESCRIPTIVE_REPRESENTATION_ITEM('Generisch','Generisch');
#319=PROPERTY_DEFINITION('material property','material name',#580);
#320=PROPERTY_DEFINITION('material property','density of part',#580);
#321=DATE_TIME_ROLE('creation_date');
#322=APPLIED_DATE_AND_TIME_ASSIGNMENT(#323,#321,(#580));
#323=DATE_AND_TIME(#324,#325);
#324=CALENDAR_DATE(2021,21,6);
#325=LOCAL_TIME(0,0,0.,#326);
#326=COORDINATED_UNIVERSAL_TIME_OFFSET(0,0,.BEHIND.);
#327=AXIS2_PLACEMENT_3D('placement',#469,#369,#370);
#328=AXIS2_PLACEMENT_3D('',#470,#371,#372);
#329=AXIS2_PLACEMENT_3D('',#473,#373,#374);
#330=AXIS2_PLACEMENT_3D('',#475,#376,#377);
#331=AXIS2_PLACEMENT_3D('',#489,#381,#382);
#332=AXIS2_PLACEMENT_3D('',#492,#383,#384);
#333=AXIS2_PLACEMENT_3D('',#494,#386,#387);
#334=AXIS2_PLACEMENT_3D('',#508,#391,#392);
#335=AXIS2_PLACEMENT_3D('',#511,#393,#394);
#336=AXIS2_PLACEMENT_3D('',#514,#396,#397);
#337=AXIS2_PLACEMENT_3D('',#515,#398,#399);
#338=AXIS2_PLACEMENT_3D('',#516,#400,#401);
#339=AXIS2_PLACEMENT_3D('',#517,#402,#403);
#340=AXIS2_PLACEMENT_3D('',#518,#404,#405);
#341=AXIS2_PLACEMENT_3D('',#519,#406,#407);
#342=AXIS2_PLACEMENT_3D('',#520,#408,#409);
#343=AXIS2_PLACEMENT_3D('',#522,#410,#411);
#344=AXIS2_PLACEMENT_3D('',#525,#413,#414);
#345=AXIS2_PLACEMENT_3D('',#526,#415,#416);
#346=AXIS2_PLACEMENT_3D('',#529,#417,#418);
#347=AXIS2_PLACEMENT_3D('',#530,#419,#420);
#348=AXIS2_PLACEMENT_3D('',#532,#422,#423);
#349=AXIS2_PLACEMENT_3D('',#534,#424,#425);
#350=AXIS2_PLACEMENT_3D('',#535,#426,#427);
#351=AXIS2_PLACEMENT_3D('',#536,#428,#429);
#352=AXIS2_PLACEMENT_3D('',#537,#430,#431);
#353=AXIS2_PLACEMENT_3D('',#539,#432,#433);
#354=AXIS2_PLACEMENT_3D('',#540,#434,#435);
#355=AXIS2_PLACEMENT_3D('',#542,#436,#437);
#356=AXIS2_PLACEMENT_3D('',#544,#438,#439);
#357=AXIS2_PLACEMENT_3D('',#545,#440,#441);
#358=AXIS2_PLACEMENT_3D('',#546,#442,#443);
#359=AXIS2_PLACEMENT_3D('',#549,#444,#445);
#360=AXIS2_PLACEMENT_3D('',#550,#446,#447);
#361=AXIS2_PLACEMENT_3D('',#552,#449,#450);
#362=AXIS2_PLACEMENT_3D('',#554,#452,#453);
#363=AXIS2_PLACEMENT_3D('',#557,#454,#455);
#364=AXIS2_PLACEMENT_3D('',#558,#456,#457);
#365=AXIS2_PLACEMENT_3D('',#560,#459,#460);
#366=AXIS2_PLACEMENT_3D('',#563,#461,#462);
#367=AXIS2_PLACEMENT_3D('',#564,#463,#464);
#368=AXIS2_PLACEMENT_3D('',#566,#466,#467);
#369=DIRECTION('axis',(0.,0.,1.));
#370=DIRECTION('refdir',(1.,0.,0.));
#371=DIRECTION('center_axis',(1.,0.,0.));
#372=DIRECTION('ref_axis',(0.,0.,-1.));
#373=DIRECTION('center_axis',(1.,0.,0.));
#374=DIRECTION('ref_axis',(0.,1.,0.));
#375=DIRECTION('',(0.,1.,1.00883173746337E-16));
#376=DIRECTION('center_axis',(0.,1.00883173746337E-16,-1.));
#377=DIRECTION('ref_axis',(0.,1.,1.00883173746337E-16));
#378=DIRECTION('',(1.,0.,0.));
#379=DIRECTION('',(0.,1.,1.00883173746337E-16));
#380=DIRECTION('',(-1.,0.,0.));
#381=DIRECTION('center_axis',(1.,0.,0.));
#382=DIRECTION('ref_axis',(0.,0.,-1.));
#383=DIRECTION('center_axis',(1.,0.,0.));
#384=DIRECTION('ref_axis',(0.,1.,0.));
#385=DIRECTION('',(0.,-1.,0.));
#386=DIRECTION('center_axis',(0.,0.,1.));
#387=DIRECTION('ref_axis',(0.,-1.,0.));
#388=DIRECTION('',(1.,0.,0.));
#389=DIRECTION('',(0.,-1.,0.));
#390=DIRECTION('',(-1.,0.,0.));
#391=DIRECTION('center_axis',(1.,0.,0.));
#392=DIRECTION('ref_axis',(0.,1.,0.));
#393=DIRECTION('center_axis',(1.,0.,0.));
#394=DIRECTION('ref_axis',(0.,-1.,1.83697019872103E-16));
#395=DIRECTION('',(-1.,0.,0.));
#396=DIRECTION('center_axis',(-1.,0.,0.));
#397=DIRECTION('ref_axis',(0.,-1.,0.));
#398=DIRECTION('center_axis',(-1.,0.,0.));
#399=DIRECTION('ref_axis',(0.,-1.,0.));
#400=DIRECTION('center_axis',(-1.,0.,0.));
#401=DIRECTION('ref_axis',(0.,-1.,0.));
#402=DIRECTION('center_axis',(1.,0.,0.));
#403=DIRECTION('ref_axis',(0.,-1.,1.83697019872103E-16));
#404=DIRECTION('center_axis',(1.,0.,0.));
#405=DIRECTION('ref_axis',(0.,-1.,0.));
#406=DIRECTION('center_axis',(1.,0.,0.));
#407=DIRECTION('ref_axis',(0.,-1.,0.));
#408=DIRECTION('center_axis',(1.,0.,0.));
#409=DIRECTION('ref_axis',(0.,0.,1.));
#410=DIRECTION('center_axis',(1.,0.,0.));
#411=DIRECTION('ref_axis',(0.,0.,1.));
#412=DIRECTION('',(-0.707106781186553,-8.65956056235487E-17,0.707106781186542));
#413=DIRECTION('center_axis',(-1.,0.,0.));
#414=DIRECTION('ref_axis',(0.,0.,1.));
#415=DIRECTION('center_axis',(-1.,0.,0.));
#416=DIRECTION('ref_axis',(0.,0.,1.));
#417=DIRECTION('center_axis',(1.,0.,0.));
#418=DIRECTION('ref_axis',(0.,0.,-1.));
#419=DIRECTION('center_axis',(1.,0.,0.));
#420=DIRECTION('ref_axis',(0.,0.,-1.));
#421=DIRECTION('',(1.,0.,0.));
#422=DIRECTION('center_axis',(1.,0.,0.));
#423=DIRECTION('ref_axis',(0.,0.,-1.));
#424=DIRECTION('center_axis',(-1.,0.,0.));
#425=DIRECTION('ref_axis',(0.,-1.,0.));
#426=DIRECTION('center_axis',(1.,0.,0.));
#427=DIRECTION('ref_axis',(0.,1.,1.22464679914735E-16));
#428=DIRECTION('center_axis',(1.,0.,0.));
#429=DIRECTION('ref_axis',(0.,-1.,0.));
#430=DIRECTION('center_axis',(-1.,0.,0.));
#431=DIRECTION('ref_axis',(0.,0.,1.));
#432=DIRECTION('center_axis',(-1.,0.,0.));
#433=DIRECTION('ref_axis',(0.,0.,-1.));
#434=DIRECTION('center_axis',(1.,0.,0.));
#435=DIRECTION('ref_axis',(0.,0.,-1.));
#436=DIRECTION('center_axis',(0.,-1.,-1.22464679914735E-16));
#437=DIRECTION('ref_axis',(0.,-1.22464679914735E-16,1.));
#438=DIRECTION('center_axis',(-1.,0.,0.));
#439=DIRECTION('ref_axis',(0.,-1.,3.06161699786838E-17));
#440=DIRECTION('center_axis',(-1.,0.,0.));
#441=DIRECTION('ref_axis',(0.,-1.,3.06161699786838E-17));
#442=DIRECTION('center_axis',(1.,0.,0.));
#443=DIRECTION('ref_axis',(0.,1.,0.));
#444=DIRECTION('center_axis',(1.,0.,0.));
#445=DIRECTION('ref_axis',(0.,0.,-1.));
#446=DIRECTION('center_axis',(1.,0.,0.));
#447=DIRECTION('ref_axis',(0.,0.,-1.));
#448=DIRECTION('',(-0.416415720073441,0.909174322160342,1.11341742350063E-16));
#449=DIRECTION('center_axis',(-1.,0.,0.));
#450=DIRECTION('ref_axis',(0.,0.,-1.));
#451=DIRECTION('',(0.707106781186546,-8.65956056235495E-17,-0.707106781186549));
#452=DIRECTION('center_axis',(1.,0.,0.));
#453=DIRECTION('ref_axis',(0.,-1.,0.));
#454=DIRECTION('center_axis',(-1.,0.,0.));
#455=DIRECTION('ref_axis',(0.,-1.,0.));
#456=DIRECTION('center_axis',(-1.,0.,0.));
#457=DIRECTION('ref_axis',(0.,-1.,0.));
#458=DIRECTION('',(-0.707106781186547,-0.707106781186548,-8.65956056235494E-17));
#459=DIRECTION('center_axis',(1.,0.,0.));
#460=DIRECTION('ref_axis',(0.,1.,0.));
#461=DIRECTION('center_axis',(1.,0.,0.));
#462=DIRECTION('ref_axis',(0.,-1.,0.));
#463=DIRECTION('center_axis',(1.,0.,0.));
#464=DIRECTION('ref_axis',(0.,-1.,0.));
#465=DIRECTION('',(-1.,0.,0.));
#466=DIRECTION('center_axis',(-1.,0.,0.));
#467=DIRECTION('ref_axis',(0.,-1.,0.));
#468=DIRECTION('',(-0.707106781186548,0.707106781186547,8.65956056235493E-17));
#469=CARTESIAN_POINT('',(0.,0.,0.));
#470=CARTESIAN_POINT('Origin',(-25.,0.436507937369921,36.0622710622711));
#471=CARTESIAN_POINT('',(-25.,9.20597631976092,27.5));
#472=CARTESIAN_POINT('',(-25.,-9.20597631976093,27.5));
#473=CARTESIAN_POINT('Origin',(-25.,0.,0.));
#474=CARTESIAN_POINT('',(-25.,44.4566545444437,27.5));
#475=CARTESIAN_POINT('Origin',(-39.,-43.5836386697038,27.5));
#476=CARTESIAN_POINT('',(-38.7,9.20597631976093,27.5));
#477=CARTESIAN_POINT('',(-30.,9.20597631976093,27.5));
#478=CARTESIAN_POINT('',(-39.,8.21218606705909,27.5));
#479=CARTESIAN_POINT('Ctrl Pts',(-39.,8.21218606705909,27.5));
#480=CARTESIAN_POINT('Ctrl Pts',(-38.8585582241453,8.70649768322101,27.5));
#481=CARTESIAN_POINT('Ctrl Pts',(-38.7,9.20597631976095,27.5));
#482=CARTESIAN_POINT('',(-39.,-8.2121860670591,27.5));
#483=CARTESIAN_POINT('',(-39.,-7.29181933485192,27.5));
#484=CARTESIAN_POINT('',(-38.7,-9.20597631976094,27.5));
#485=CARTESIAN_POINT('Ctrl Pts',(-38.7,-9.20597631976096,27.5));
#486=CARTESIAN_POINT('Ctrl Pts',(-38.8585582241453,-8.706497683221,27.5));
#487=CARTESIAN_POINT('Ctrl Pts',(-39.,-8.2121860670591,27.5));
#488=CARTESIAN_POINT('',(-30.,-9.20597631976094,27.5));
#489=CARTESIAN_POINT('Origin',(-25.,0.436507937369912,-39.3864468864469));
#490=CARTESIAN_POINT('',(-25.,-9.20597631976094,-27.5));
#491=CARTESIAN_POINT('',(-25.,9.20597631976094,-27.5));
#492=CARTESIAN_POINT('Origin',(-25.,0.,0.));
#493=CARTESIAN_POINT('',(-25.,-43.5836386697038,-27.5));
#494=CARTESIAN_POINT('Origin',(-39.,44.4566545444437,-27.5));
#495=CARTESIAN_POINT('',(-38.7,-9.20597631976094,-27.5));
#496=CARTESIAN_POINT('',(-30.,-9.20597631976094,-27.5));
#497=CARTESIAN_POINT('',(-39.,-8.21218606705909,-27.5));
#498=CARTESIAN_POINT('Ctrl Pts',(-39.,-8.21218606705909,-27.5));
#499=CARTESIAN_POINT('Ctrl Pts',(-38.8585582241452,-8.70649768322118,-27.5));
#500=CARTESIAN_POINT('Ctrl Pts',(-38.7,-9.20597631976094,-27.5));
#501=CARTESIAN_POINT('',(-39.,8.21218606705909,-27.5));
#502=CARTESIAN_POINT('',(-39.,36.7283272722218,-27.5));
#503=CARTESIAN_POINT('',(-38.7,9.20597631976094,-27.5));
#504=CARTESIAN_POINT('Ctrl Pts',(-38.7,9.20597631976094,-27.5));
#505=CARTESIAN_POINT('Ctrl Pts',(-38.8585582241452,8.70649768322118,-27.5));
#506=CARTESIAN_POINT('Ctrl Pts',(-39.,8.21218606705909,-27.5));
#507=CARTESIAN_POINT('',(-30.,9.20597631976094,-27.5));
#508=CARTESIAN_POINT('Origin',(-30.,0.,0.));
#509=CARTESIAN_POINT('',(-21.3209419061352,-29.,-3.55147571752732E-15));
#510=CARTESIAN_POINT('',(-21.3209419061352,-3.55147571752732E-15,29.));
#511=CARTESIAN_POINT('Origin',(-21.3209419061352,0.,0.));
#512=CARTESIAN_POINT('',(-38.7,-29.,-3.55147571752732E-15));
#513=CARTESIAN_POINT('',(-30.,-29.,-3.55147571752732E-15));
#514=CARTESIAN_POINT('Origin',(-38.7,0.,0.));
#515=CARTESIAN_POINT('Origin',(-38.7,0.,0.));
#516=CARTESIAN_POINT('Origin',(-38.7,0.,0.));
#517=CARTESIAN_POINT('Origin',(-21.3209419061352,0.,0.));
#518=CARTESIAN_POINT('Origin',(-38.85,0.,0.));
#519=CARTESIAN_POINT('Origin',(-39.,0.,0.));
#520=CARTESIAN_POINT('Origin',(-0.150000000000001,0.,0.));
#521=CARTESIAN_POINT('',(0.,2.78270368936257E-15,-22.7225));
#522=CARTESIAN_POINT('Origin',(0.,0.,0.));
#523=CARTESIAN_POINT('',(-0.300000000000002,-2.74596428538815E-15,-22.4225));
#524=CARTESIAN_POINT('',(-0.150000000000001,2.76433398737536E-15,-22.5725));
#525=CARTESIAN_POINT('Origin',(-0.300000000000002,0.,0.));
#526=CARTESIAN_POINT('Origin',(74.1415927057773,0.,0.));
#527=CARTESIAN_POINT('',(-37.,-2.74596428538815E-15,22.4225));
#528=CARTESIAN_POINT('',(-37.,-2.74596428538815E-15,-22.4225));
#529=CARTESIAN_POINT('Origin',(-37.,0.,0.));
#530=CARTESIAN_POINT('Origin',(-37.,0.,0.));
#531=CARTESIAN_POINT('',(74.1415927057773,-2.74596428538815E-15,-22.4225));
#532=CARTESIAN_POINT('Origin',(0.,0.,0.));
#533=CARTESIAN_POINT('',(0.,35.55,-4.35361937096884E-15));
#534=CARTESIAN_POINT('Origin',(0.,0.,0.));
#535=CARTESIAN_POINT('Origin',(-38.85,0.,0.));
#536=CARTESIAN_POINT('Origin',(-39.,0.,0.));
#537=CARTESIAN_POINT('Origin',(-39.,29.,0.));
#538=CARTESIAN_POINT('',(-39.,2.99089364521762E-15,24.4225));
#539=CARTESIAN_POINT('Origin',(-39.,0.,0.));
#540=CARTESIAN_POINT('Origin',(-21.3209419061352,0.,0.));
#541=CARTESIAN_POINT('',(-20.866354745055,-3.58720994854956E-15,29.2917921399633));
#542=CARTESIAN_POINT('Origin',(-21.3209419061352,-3.61270805748469E-15,
29.5));
#543=CARTESIAN_POINT('',(-20.866354745055,-29.2917921399633,-3.58720994854956E-15));
#544=CARTESIAN_POINT('Origin',(-20.866354745055,0.,-4.48401243568695E-15));
#545=CARTESIAN_POINT('Origin',(-20.866354745055,0.,-4.48401243568695E-15));
#546=CARTESIAN_POINT('Origin',(-19.5,0.,0.));
#547=CARTESIAN_POINT('',(-18.,35.55,0.));
#548=CARTESIAN_POINT('',(-18.,-35.55,-4.35361937096884E-15));
#549=CARTESIAN_POINT('Origin',(-18.,0.,0.));
#550=CARTESIAN_POINT('Origin',(-18.,0.,0.));
#551=CARTESIAN_POINT('',(-19.5,-32.275,-3.95254754424808E-15));
#552=CARTESIAN_POINT('Origin',(-38.,0.,0.));
#553=CARTESIAN_POINT('',(-38.,2.86842896530289E-15,23.4225));
#554=CARTESIAN_POINT('Origin',(-17.,0.,0.));
#555=CARTESIAN_POINT('',(-16.,37.55,-4.59854873079831E-15));
#556=CARTESIAN_POINT('',(-16.,-37.55,-4.59854873079831E-15));
#557=CARTESIAN_POINT('Origin',(-16.,0.,0.));
#558=CARTESIAN_POINT('Origin',(-16.,0.,0.));
#559=CARTESIAN_POINT('',(-17.,36.55,4.47608405088357E-15));
#560=CARTESIAN_POINT('Origin',(-9.,0.,0.));
#561=CARTESIAN_POINT('',(-2.,37.55,4.59854873079831E-15));
#562=CARTESIAN_POINT('',(-2.,-37.55,-4.59854873079831E-15));
#563=CARTESIAN_POINT('Origin',(-2.,0.,0.));
#564=CARTESIAN_POINT('Origin',(-2.,0.,0.));
#565=CARTESIAN_POINT('',(-9.,-37.55,-4.59854873079831E-15));
#566=CARTESIAN_POINT('Origin',(-1.,0.,0.));
#567=CARTESIAN_POINT('',(-1.,36.55,4.47608405088358E-15));
#568=UNCERTAINTY_MEASURE_WITH_UNIT(LENGTH_MEASURE(0.01),#572,
'DISTANCE_ACCURACY_VALUE',
'Maximum model space distance between geometric entities at asserted c
onnectivities');
#569=UNCERTAINTY_MEASURE_WITH_UNIT(LENGTH_MEASURE(0.01),#572,
'DISTANCE_ACCURACY_VALUE',
'Maximum model space distance between geometric entities at asserted c
onnectivities');
#570=(
GEOMETRIC_REPRESENTATION_CONTEXT(3)
GLOBAL_UNCERTAINTY_ASSIGNED_CONTEXT((#568))
GLOBAL_UNIT_ASSIGNED_CONTEXT((#572,#574,#575))
REPRESENTATION_CONTEXT('','3D')
);
#571=(
GEOMETRIC_REPRESENTATION_CONTEXT(3)
GLOBAL_UNCERTAINTY_ASSIGNED_CONTEXT((#569))
GLOBAL_UNIT_ASSIGNED_CONTEXT((#572,#574,#575))
REPRESENTATION_CONTEXT('','3D')
);
#572=(
LENGTH_UNIT()
NAMED_UNIT(*)
SI_UNIT(.MILLI.,.METRE.)
);
#573=(
LENGTH_UNIT()
NAMED_UNIT(*)
SI_UNIT(.CENTI.,.METRE.)
);
#574=(
NAMED_UNIT(*)
PLANE_ANGLE_UNIT()
SI_UNIT($,.RADIAN.)
);
#575=(
NAMED_UNIT(*)
SI_UNIT($,.STERADIAN.)
SOLID_ANGLE_UNIT()
);
#576=SHAPE_DEFINITION_REPRESENTATION(#577,#578);
#577=PRODUCT_DEFINITION_SHAPE('',$,#580);
#578=SHAPE_REPRESENTATION('',(#327),#570);
#579=PRODUCT_DEFINITION_CONTEXT('part definition',#584,'design');
#580=PRODUCT_DEFINITION('3D_R666-G-DN40-DN65_17113560',
'3D_R666-G-DN40-DN65_17113560',#581,#579);
#581=PRODUCT_DEFINITION_FORMATION('',$,#586);
#582=PRODUCT_RELATED_PRODUCT_CATEGORY('3D_R666-G-DN40-DN65_17113560',
'3D_R666-G-DN40-DN65_17113560',(#586));
#583=APPLICATION_PROTOCOL_DEFINITION('international standard',
'automotive_design',2009,#584);
#584=APPLICATION_CONTEXT(
'Core Data for Automotive Mechanical Design Process');
#585=PRODUCT_CONTEXT('part definition',#584,'mechanical');
#586=PRODUCT('3D_R666-G-DN40-DN65_17113560',
'3D_R666-G-DN40-DN65_17113560',$,(#585));
#587=PRESENTATION_STYLE_ASSIGNMENT((#588));
#588=SURFACE_STYLE_USAGE(.BOTH.,#591);
#589=SURFACE_STYLE_RENDERING_WITH_PROPERTIES($,#595,(#590));
#590=SURFACE_STYLE_TRANSPARENT(0.);
#591=SURFACE_SIDE_STYLE('',(#592,#589));
#592=SURFACE_STYLE_FILL_AREA(#593);
#593=FILL_AREA_STYLE('',(#594));
#594=FILL_AREA_STYLE_COLOUR('',#595);
#595=COLOUR_RGB('',0.749019607843137,0.749019607843137,0.749019607843137);
ENDSEC;
END-ISO-10303-21;
