ISO-10303-21;
HEADER;
FILE_DESCRIPTION (( 'STEP AP203' ),
    '1' );
FILE_NAME ('3D_R152_DN33.7_17305185.STEP',
    '2024-08-13T07:33:58',
    ( '' ),
    ( '' ),
    'SwSTEP 2.0',
    'SolidWorks 2024',
    '' );
FILE_SCHEMA (( 'CONFIG_CONTROL_DESIGN' ));
ENDSEC;

DATA;
#1 = FACE_OUTER_BOUND ( 'NONE', #243, .T. ) ;
#2 = CALENDAR_DATE ( 2024, 13, 8 ) ;
#3 =( LENGTH_UNIT ( ) NAMED_UNIT ( * ) SI_UNIT ( .MILLI., .METRE. ) );
#4 = CC_DESIGN_PERSON_AND_ORGANIZATION_ASSIGNMENT ( #47, #65, ( #99 ) ) ;
#5 = CARTESIAN_POINT ( 'NONE',  ( 0.000000000000000000, 6.000000000000000000, 0.000000000000000000 ) ) ;
#6 =( NAMED_UNIT ( * ) PLANE_ANGLE_UNIT ( ) SI_UNIT ( $, .RADIAN. ) );
#7 = EDGE_CURVE ( 'NONE', #152, #89, #70, .T. ) ;
#8 = APPROVAL_DATE_TIME ( #48, #149 ) ;
#9 = VERTEX_POINT ( 'NONE', #15 ) ;
#10 = AXIS2_PLACEMENT_3D ( 'NONE', #55, #40, #161 ) ;
#11 = PERSON_AND_ORGANIZATION_ROLE ( 'classification_officer' ) ;
#12 = VERTEX_POINT ( 'NONE', #179 ) ;
#13 = ORIENTED_EDGE ( 'NONE', *, *, #18, .F. ) ;
#14 = AXIS2_PLACEMENT_3D ( 'NONE', #164, #74, #178 ) ;
#15 = CARTESIAN_POINT ( 'NONE',  ( 0.000000000000000000, 6.000000000000000000, -68.20000000000001705 ) ) ;
#16 = CARTESIAN_POINT ( 'NONE',  ( 0.000000000000000000, 0.000000000000000000, -68.20000000000001705 ) ) ;
#17 = AXIS2_PLACEMENT_3D ( 'NONE', #160, #121, #174 ) ;
#18 = EDGE_CURVE ( 'NONE', #12, #9, #129, .T. ) ;
#19 = LINE ( 'NONE', #210, #56 ) ;
#20 = DIRECTION ( 'NONE',  ( 0.000000000000000000, 0.000000000000000000, 1.000000000000000000 ) ) ;
#21 = DIRECTION ( 'NONE',  ( 0.000000000000000000, 1.000000000000000000, 0.000000000000000000 ) ) ;
#22 = PRODUCT_DEFINITION_SHAPE ( 'NONE', 'NONE',  #45 ) ;
#23 = PERSON_AND_ORGANIZATION_ROLE ( 'creator' ) ;
#24 = DIRECTION ( 'NONE',  ( 0.000000000000000000, 1.000000000000000000, 0.000000000000000000 ) ) ;
#25 = CARTESIAN_POINT ( 'NONE',  ( 0.000000000000000000, 0.000000000000000000, -34.00000000000000000 ) ) ;
#26 = ADVANCED_FACE ( 'NONE', ( #1 ), #158, .F. ) ;
#27 = CYLINDRICAL_SURFACE ( 'NONE', #122, 34.00000000000000000 ) ;
#28 = EDGE_LOOP ( 'NONE', ( #177, #172 ) ) ;
#29 = UNCERTAINTY_MEASURE_WITH_UNIT (LENGTH_MEASURE( 1.000000000000000082E-05 ), #3, 'distance_accuracy_value', 'NONE');
#30 = PERSON_AND_ORGANIZATION_ROLE ( 'creator' ) ;
#31 = ORIENTED_EDGE ( 'NONE', *, *, #66, .T. ) ;
#32 = APPROVAL ( #100, 'UNSPECIFIED' ) ;
#33 = COORDINATED_UNIVERSAL_TIME_OFFSET ( 1, 0, .AHEAD. ) ;
#34 = CC_DESIGN_PERSON_AND_ORGANIZATION_ASSIGNMENT ( #167, #23, ( #45 ) ) ;
#35 = DIRECTION ( 'NONE',  ( -0.000000000000000000, -1.000000000000000000, -0.000000000000000000 ) ) ;
#36 = DIRECTION ( 'NONE',  ( -0.000000000000000000, -1.000000000000000000, -0.000000000000000000 ) ) ;
#37 = APPROVAL_PERSON_ORGANIZATION ( #221, #149, #189 ) ;
#38 = CC_DESIGN_PERSON_AND_ORGANIZATION_ASSIGNMENT ( #224, #11, ( #85 ) ) ;
#39 = DIRECTION ( 'NONE',  ( 0.000000000000000000, 0.000000000000000000, 1.000000000000000000 ) ) ;
#40 = DIRECTION ( 'NONE',  ( -0.000000000000000000, -1.000000000000000000, -0.000000000000000000 ) ) ;
#41 = CARTESIAN_POINT ( 'NONE',  ( 0.000000000000000000, 6.000000000000000000, 0.000000000000000000 ) ) ;
#42 = CALENDAR_DATE ( 2024, 13, 8 ) ;
#43 = ORGANIZATION ( 'UNSPECIFIED', 'UNSPECIFIED', '' ) ;
#44 = CARTESIAN_POINT ( 'NONE',  ( 4.163799117101000559E-15, 6.000000000000000000, 34.00000000000000000 ) ) ;
#45 = PRODUCT_DEFINITION ( 'UNKNOWN', '', #49, #222 ) ;
#46 = LINE ( 'NONE', #200, #247 ) ;
#47 = PERSON_AND_ORGANIZATION ( #128, #43 ) ;
#48 = DATE_AND_TIME ( #69, #138 ) ;
#49 = PRODUCT_DEFINITION_FORMATION_WITH_SPECIFIED_SOURCE ( 'ANY', '', #99, .NOT_KNOWN. ) ;
#50 = EDGE_LOOP ( 'NONE', ( #13, #80, #130, #176 ) ) ;
#51 = AXIS2_PLACEMENT_3D ( 'NONE', #104, #236, #63 ) ;
#52 = VERTEX_POINT ( 'NONE', #118 ) ;
#53 = SECURITY_CLASSIFICATION_LEVEL ( 'unclassified' ) ;
#54 = EDGE_LOOP ( 'NONE', ( #154, #108 ) ) ;
#55 = CARTESIAN_POINT ( 'NONE',  ( 0.000000000000000000, 6.000000000000000000, 0.000000000000000000 ) ) ;
#56 = VECTOR ( 'NONE', #35, 1000.000000000000000 ) ;
#57 = PLANE ( 'NONE',  #106 ) ;
#58 = CIRCLE ( 'NONE', #131, 68.20000000000001705 ) ;
#59 = CYLINDRICAL_SURFACE ( 'NONE', #223, 68.20000000000001705 ) ;
#60 = CYLINDRICAL_SURFACE ( 'NONE', #10, 68.20000000000001705 ) ;
#61 = CARTESIAN_POINT ( 'NONE',  ( 0.000000000000000000, 6.000000000000000000, 0.000000000000000000 ) ) ;
#62 = ADVANCED_FACE ( 'NONE', ( #229 ), #60, .T. ) ;
#63 = DIRECTION ( 'NONE',  ( 0.000000000000000000, 0.000000000000000000, 1.000000000000000000 ) ) ;
#64 = AXIS2_PLACEMENT_3D ( 'NONE', #124, #168, #169 ) ;
#65 = PERSON_AND_ORGANIZATION_ROLE ( 'design_owner' ) ;
#66 = EDGE_CURVE ( 'NONE', #88, #188, #19, .T. ) ;
#67 = COORDINATED_UNIVERSAL_TIME_OFFSET ( 1, 0, .AHEAD. ) ;
#68 = APPLICATION_PROTOCOL_DEFINITION ( 'international standard', 'config_control_design', 1994, #73 ) ;
#69 = CALENDAR_DATE ( 2024, 13, 8 ) ;
#70 = CIRCLE ( 'NONE', #151, 68.20000000000001705 ) ;
#71 = ORIENTED_EDGE ( 'NONE', *, *, #162, .F. ) ;
#72 = EDGE_LOOP ( 'NONE', ( #235, #92, #31, #71 ) ) ;
#73 = APPLICATION_CONTEXT ( 'configuration controlled 3d designs of mechanical parts and assemblies' ) ;
#74 = DIRECTION ( 'NONE',  ( 0.000000000000000000, 1.000000000000000000, 0.000000000000000000 ) ) ;
#75 = LOCAL_TIME ( 9, 33, 58.00000000000000000, #217 ) ;
#76 = APPROVAL_PERSON_ORGANIZATION ( #199, #214, #107 ) ;
#77 = FACE_OUTER_BOUND ( 'NONE', #54, .T. ) ;
#78 = ADVANCED_BREP_SHAPE_REPRESENTATION ( '3D_R152_DN33.7_17305185', ( #170, #64 ), #159 ) ;
#79 = ADVANCED_FACE ( 'NONE', ( #232 ), #59, .T. ) ;
#80 = ORIENTED_EDGE ( 'NONE', *, *, #185, .T. ) ;
#81 = DIRECTION ( 'NONE',  ( 0.000000000000000000, 1.000000000000000000, 0.000000000000000000 ) ) ;
#82 = DIRECTION ( 'NONE',  ( -0.000000000000000000, -1.000000000000000000, -0.000000000000000000 ) ) ;
#83 = EDGE_CURVE ( 'NONE', #9, #12, #187, .T. ) ;
#84 = DATE_AND_TIME ( #2, #94 ) ;
#85 = SECURITY_CLASSIFICATION ( '', '', #53 ) ;
#86 = APPROVAL_PERSON_ORGANIZATION ( #123, #32, #145 ) ;
#87 = DATE_TIME_ROLE ( 'classification_date' ) ;
#88 = VERTEX_POINT ( 'NONE', #246 ) ;
#89 = VERTEX_POINT ( 'NONE', #141 ) ;
#90 = AXIS2_PLACEMENT_3D ( 'NONE', #41, #140, #195 ) ;
#91 = ORIENTED_EDGE ( 'NONE', *, *, #239, .F. ) ;
#92 = ORIENTED_EDGE ( 'NONE', *, *, #194, .T. ) ;
#93 = DIRECTION ( 'NONE',  ( 0.000000000000000000, -0.000000000000000000, 1.000000000000000000 ) ) ;
#94 = LOCAL_TIME ( 9, 33, 58.00000000000000000, #67 ) ;
#95 = LINE ( 'NONE', #212, #117 ) ;
#96 = ORIENTED_EDGE ( 'NONE', *, *, #83, .F. ) ;
#97 = EDGE_LOOP ( 'NONE', ( #91, #111 ) ) ;
#98 = DIRECTION ( 'NONE',  ( 0.000000000000000000, 0.000000000000000000, 1.000000000000000000 ) ) ;
#99 = PRODUCT ( '3D_R152_DN33.7_17305185', '3D_R152_DN33.7_17305185', '', ( #166 ) ) ;
#100 = APPROVAL_STATUS ( 'not_yet_approved' ) ;
#101 = AXIS2_PLACEMENT_3D ( 'NONE', #234, #231, #192 ) ;
#102 = CARTESIAN_POINT ( 'NONE',  ( 0.000000000000000000, 6.000000000000000000, 0.000000000000000000 ) ) ;
#103 = ADVANCED_FACE ( 'NONE', ( #119, #191 ), #57, .T. ) ;
#104 = CARTESIAN_POINT ( 'NONE',  ( 0.000000000000000000, 0.000000000000000000, 0.000000000000000000 ) ) ;
#105 = FACE_OUTER_BOUND ( 'NONE', #72, .T. ) ;
#106 = AXIS2_PLACEMENT_3D ( 'NONE', #249, #81, #93 ) ;
#107 = APPROVAL_ROLE ( '' ) ;
#108 = ORIENTED_EDGE ( 'NONE', *, *, #112, .F. ) ;
#109 = AXIS2_PLACEMENT_3D ( 'NONE', #5, #24, #147 ) ;
#110 = DATE_AND_TIME ( #227, #143 ) ;
#111 = ORIENTED_EDGE ( 'NONE', *, *, #194, .F. ) ;
#112 = EDGE_CURVE ( 'NONE', #89, #152, #58, .T. ) ;
#113 = ORIENTED_EDGE ( 'NONE', *, *, #157, .T. ) ;
#114 = CARTESIAN_POINT ( 'NONE',  ( 0.000000000000000000, 0.000000000000000000, 0.000000000000000000 ) ) ;
#115 = CC_DESIGN_DATE_AND_TIME_ASSIGNMENT ( #110, #87, ( #85 ) ) ;
#116 = DIRECTION ( 'NONE',  ( 0.000000000000000000, 1.000000000000000000, 0.000000000000000000 ) ) ;
#117 = VECTOR ( 'NONE', #82, 1000.000000000000000 ) ;
#118 = CARTESIAN_POINT ( 'NONE',  ( 4.163799117101000559E-15, 0.000000000000000000, 34.00000000000000000 ) ) ;
#119 = FACE_OUTER_BOUND ( 'NONE', #132, .T. ) ;
#120 = APPLICATION_CONTEXT ( 'configuration controlled 3d designs of mechanical parts and assemblies' ) ;
#121 = DIRECTION ( 'NONE',  ( 0.000000000000000000, 1.000000000000000000, 0.000000000000000000 ) ) ;
#122 = AXIS2_PLACEMENT_3D ( 'NONE', #102, #218, #203 ) ;
#123 = PERSON_AND_ORGANIZATION ( #128, #43 ) ;
#124 = CARTESIAN_POINT ( 'NONE',  ( 0.000000000000000000, 0.000000000000000000, 0.000000000000000000 ) ) ;
#125 = ADVANCED_FACE ( 'NONE', ( #77, #215 ), #163, .F. ) ;
#126 = DATE_AND_TIME ( #42, #237 ) ;
#127 = DIRECTION ( 'NONE',  ( -0.000000000000000000, -1.000000000000000000, -0.000000000000000000 ) ) ;
#128 = PERSON ( 'UNSPECIFIED', 'UNSPECIFIED', 'UNSPECIFIED', ('UNSPECIFIED'), ('UNSPECIFIED'), ('UNSPECIFIED') ) ;
#129 = CIRCLE ( 'NONE', #14, 68.20000000000001705 ) ;
#130 = ORIENTED_EDGE ( 'NONE', *, *, #112, .T. ) ;
#131 = AXIS2_PLACEMENT_3D ( 'NONE', #248, #196, #20 ) ;
#132 = EDGE_LOOP ( 'NONE', ( #184, #134 ) ) ;
#133 = APPROVAL_STATUS ( 'not_yet_approved' ) ;
#134 = ORIENTED_EDGE ( 'NONE', *, *, #18, .T. ) ;
#135 = VERTEX_POINT ( 'NONE', #136 ) ;
#136 = CARTESIAN_POINT ( 'NONE',  ( 4.163799117101000559E-15, 6.000000000000000000, 34.00000000000000000 ) ) ;
#137 = DIRECTION ( 'NONE',  ( 0.000000000000000000, 0.000000000000000000, -1.000000000000000000 ) ) ;
#138 = LOCAL_TIME ( 9, 33, 58.00000000000000000, #245 ) ;
#139 = CC_DESIGN_PERSON_AND_ORGANIZATION_ASSIGNMENT ( #182, #30, ( #49 ) ) ;
#140 = DIRECTION ( 'NONE',  ( 0.000000000000000000, 1.000000000000000000, 0.000000000000000000 ) ) ;
#141 = CARTESIAN_POINT ( 'NONE',  ( 8.352091170184950988E-15, 0.000000000000000000, 68.20000000000001705 ) ) ;
#142 = CARTESIAN_POINT ( 'NONE',  ( 0.000000000000000000, 6.000000000000000000, 0.000000000000000000 ) ) ;
#143 = LOCAL_TIME ( 9, 33, 58.00000000000000000, #33 ) ;
#144 = CIRCLE ( 'NONE', #109, 34.00000000000000000 ) ;
#145 = APPROVAL_ROLE ( '' ) ;
#146 = CC_DESIGN_PERSON_AND_ORGANIZATION_ASSIGNMENT ( #242, #186, ( #49 ) ) ;
#147 = DIRECTION ( 'NONE',  ( 0.000000000000000000, 0.000000000000000000, 1.000000000000000000 ) ) ;
#148 = COORDINATED_UNIVERSAL_TIME_OFFSET ( 1, 0, .AHEAD. ) ;
#149 = APPROVAL ( #133, 'UNSPECIFIED' ) ;
#150 = SHAPE_DEFINITION_REPRESENTATION ( #22, #78 ) ;
#151 = AXIS2_PLACEMENT_3D ( 'NONE', #114, #116, #39 ) ;
#152 = VERTEX_POINT ( 'NONE', #16 ) ;
#153 = DATE_AND_TIME ( #225, #75 ) ;
#154 = ORIENTED_EDGE ( 'NONE', *, *, #7, .F. ) ;
#155 = ORIENTED_EDGE ( 'NONE', *, *, #185, .F. ) ;
#156 = ORIENTED_EDGE ( 'NONE', *, *, #205, .F. ) ;
#157 = EDGE_CURVE ( 'NONE', #9, #152, #95, .T. ) ;
#158 = CYLINDRICAL_SURFACE ( 'NONE', #101, 34.00000000000000000 ) ;
#159 =( GEOMETRIC_REPRESENTATION_CONTEXT ( 3 ) GLOBAL_UNCERTAINTY_ASSIGNED_CONTEXT ( ( #29 ) ) GLOBAL_UNIT_ASSIGNED_CONTEXT ( ( #3, #6, #180 ) ) REPRESENTATION_CONTEXT ( 'NONE', 'WORKASPACE' ) );
#160 = CARTESIAN_POINT ( 'NONE',  ( 0.000000000000000000, 0.000000000000000000, 0.000000000000000000 ) ) ;
#161 = DIRECTION ( 'NONE',  ( 0.000000000000000000, 0.000000000000000000, -1.000000000000000000 ) ) ;
#162 = EDGE_CURVE ( 'NONE', #52, #188, #183, .T. ) ;
#163 = PLANE ( 'NONE',  #17 ) ;
#164 = CARTESIAN_POINT ( 'NONE',  ( 0.000000000000000000, 6.000000000000000000, 0.000000000000000000 ) ) ;
#165 = APPROVAL_DATE_TIME ( #84, #214 ) ;
#166 = MECHANICAL_CONTEXT ( 'NONE', #73, 'mechanical' ) ;
#167 = PERSON_AND_ORGANIZATION ( #128, #43 ) ;
#168 = DIRECTION ( 'NONE',  ( 0.000000000000000000, 0.000000000000000000, 1.000000000000000000 ) ) ;
#169 = DIRECTION ( 'NONE',  ( 1.000000000000000000, 0.000000000000000000, 0.000000000000000000 ) ) ;
#170 = MANIFOLD_SOLID_BREP ( 'Aufsatz-Linear austragen1', #201 ) ;
#171 = CC_DESIGN_APPROVAL ( #214, ( #45 ) ) ;
#172 = ORIENTED_EDGE ( 'NONE', *, *, #162, .T. ) ;
#173 = PRODUCT_RELATED_PRODUCT_CATEGORY ( 'detail', '', ( #99 ) ) ;
#174 = DIRECTION ( 'NONE',  ( 0.000000000000000000, -0.000000000000000000, 1.000000000000000000 ) ) ;
#175 = CIRCLE ( 'NONE', #51, 34.00000000000000000 ) ;
#176 = ORIENTED_EDGE ( 'NONE', *, *, #157, .F. ) ;
#177 = ORIENTED_EDGE ( 'NONE', *, *, #205, .T. ) ;
#178 = DIRECTION ( 'NONE',  ( 0.000000000000000000, 0.000000000000000000, 1.000000000000000000 ) ) ;
#179 = CARTESIAN_POINT ( 'NONE',  ( 8.352091170184950988E-15, 6.000000000000000000, 68.20000000000001705 ) ) ;
#180 =( NAMED_UNIT ( * ) SI_UNIT ( $, .STERADIAN. ) SOLID_ANGLE_UNIT ( ) );
#181 = APPROVAL_STATUS ( 'not_yet_approved' ) ;
#182 = PERSON_AND_ORGANIZATION ( #128, #43 ) ;
#183 = CIRCLE ( 'NONE', #230, 34.00000000000000000 ) ;
#184 = ORIENTED_EDGE ( 'NONE', *, *, #83, .T. ) ;
#185 = EDGE_CURVE ( 'NONE', #12, #89, #46, .T. ) ;
#186 = PERSON_AND_ORGANIZATION_ROLE ( 'design_supplier' ) ;
#187 = CIRCLE ( 'NONE', #90, 68.20000000000001705 ) ;
#188 = VERTEX_POINT ( 'NONE', #25 ) ;
#189 = APPROVAL_ROLE ( '' ) ;
#190 = CC_DESIGN_DATE_AND_TIME_ASSIGNMENT ( #126, #219, ( #45 ) ) ;
#191 = FACE_BOUND ( 'NONE', #97, .T. ) ;
#192 = DIRECTION ( 'NONE',  ( 0.000000000000000000, 0.000000000000000000, -1.000000000000000000 ) ) ;
#193 = VECTOR ( 'NONE', #202, 1000.000000000000000 ) ;
#194 = EDGE_CURVE ( 'NONE', #135, #88, #144, .T. ) ;
#195 = DIRECTION ( 'NONE',  ( 0.000000000000000000, 0.000000000000000000, 1.000000000000000000 ) ) ;
#196 = DIRECTION ( 'NONE',  ( 0.000000000000000000, 1.000000000000000000, 0.000000000000000000 ) ) ;
#197 = CC_DESIGN_APPROVAL ( #32, ( #49 ) ) ;
#198 = CARTESIAN_POINT ( 'NONE',  ( 0.000000000000000000, 0.000000000000000000, 0.000000000000000000 ) ) ;
#199 = PERSON_AND_ORGANIZATION ( #128, #43 ) ;
#200 = CARTESIAN_POINT ( 'NONE',  ( 8.352091170184950988E-15, 6.000000000000000000, 68.20000000000001705 ) ) ;
#201 = CLOSED_SHELL ( 'NONE', ( #26, #62, #103, #125, #79, #241 ) ) ;
#202 = DIRECTION ( 'NONE',  ( -0.000000000000000000, -1.000000000000000000, -0.000000000000000000 ) ) ;
#203 = DIRECTION ( 'NONE',  ( 0.000000000000000000, 0.000000000000000000, -1.000000000000000000 ) ) ;
#204 = DIRECTION ( 'NONE',  ( 0.000000000000000000, 1.000000000000000000, 0.000000000000000000 ) ) ;
#205 = EDGE_CURVE ( 'NONE', #188, #52, #175, .T. ) ;
#206 = CC_DESIGN_SECURITY_CLASSIFICATION ( #85, ( #49 ) ) ;
#207 = ORIENTED_EDGE ( 'NONE', *, *, #7, .T. ) ;
#208 = EDGE_LOOP ( 'NONE', ( #155, #96, #113, #207 ) ) ;
#209 = EDGE_CURVE ( 'NONE', #135, #52, #240, .T. ) ;
#210 = CARTESIAN_POINT ( 'NONE',  ( 0.000000000000000000, 6.000000000000000000, -34.00000000000000000 ) ) ;
#211 = ORIENTED_EDGE ( 'NONE', *, *, #209, .T. ) ;
#212 = CARTESIAN_POINT ( 'NONE',  ( 0.000000000000000000, 6.000000000000000000, -68.20000000000001705 ) ) ;
#213 = ORIENTED_EDGE ( 'NONE', *, *, #66, .F. ) ;
#214 = APPROVAL ( #181, 'UNSPECIFIED' ) ;
#215 = FACE_BOUND ( 'NONE', #28, .T. ) ;
#216 = APPLICATION_PROTOCOL_DEFINITION ( 'international standard', 'config_control_design', 1994, #120 ) ;
#217 = COORDINATED_UNIVERSAL_TIME_OFFSET ( 1, 0, .AHEAD. ) ;
#218 = DIRECTION ( 'NONE',  ( -0.000000000000000000, -1.000000000000000000, -0.000000000000000000 ) ) ;
#219 = DATE_TIME_ROLE ( 'creation_date' ) ;
#220 = DIRECTION ( 'NONE',  ( 0.000000000000000000, 0.000000000000000000, 1.000000000000000000 ) ) ;
#221 = PERSON_AND_ORGANIZATION ( #128, #43 ) ;
#222 = DESIGN_CONTEXT ( 'detailed design', #120, 'design' ) ;
#223 = AXIS2_PLACEMENT_3D ( 'NONE', #61, #36, #137 ) ;
#224 = PERSON_AND_ORGANIZATION ( #128, #43 ) ;
#225 = CALENDAR_DATE ( 2024, 13, 8 ) ;
#226 = CIRCLE ( 'NONE', #238, 34.00000000000000000 ) ;
#227 = CALENDAR_DATE ( 2024, 13, 8 ) ;
#228 = ORIENTED_EDGE ( 'NONE', *, *, #239, .T. ) ;
#229 = FACE_OUTER_BOUND ( 'NONE', #50, .T. ) ;
#230 = AXIS2_PLACEMENT_3D ( 'NONE', #198, #21, #98 ) ;
#231 = DIRECTION ( 'NONE',  ( -0.000000000000000000, -1.000000000000000000, -0.000000000000000000 ) ) ;
#232 = FACE_OUTER_BOUND ( 'NONE', #208, .T. ) ;
#233 = CC_DESIGN_APPROVAL ( #149, ( #85 ) ) ;
#234 = CARTESIAN_POINT ( 'NONE',  ( 0.000000000000000000, 6.000000000000000000, 0.000000000000000000 ) ) ;
#235 = ORIENTED_EDGE ( 'NONE', *, *, #209, .F. ) ;
#236 = DIRECTION ( 'NONE',  ( 0.000000000000000000, 1.000000000000000000, 0.000000000000000000 ) ) ;
#237 = LOCAL_TIME ( 9, 33, 58.00000000000000000, #148 ) ;
#238 = AXIS2_PLACEMENT_3D ( 'NONE', #142, #204, #220 ) ;
#239 = EDGE_CURVE ( 'NONE', #88, #135, #226, .T. ) ;
#240 = LINE ( 'NONE', #44, #193 ) ;
#241 = ADVANCED_FACE ( 'NONE', ( #105 ), #27, .F. ) ;
#242 = PERSON_AND_ORGANIZATION ( #128, #43 ) ;
#243 = EDGE_LOOP ( 'NONE', ( #228, #211, #156, #213 ) ) ;
#244 = APPROVAL_DATE_TIME ( #153, #32 ) ;
#245 = COORDINATED_UNIVERSAL_TIME_OFFSET ( 1, 0, .AHEAD. ) ;
#246 = CARTESIAN_POINT ( 'NONE',  ( 0.000000000000000000, 6.000000000000000000, -34.00000000000000000 ) ) ;
#247 = VECTOR ( 'NONE', #127, 1000.000000000000000 ) ;
#248 = CARTESIAN_POINT ( 'NONE',  ( 0.000000000000000000, 0.000000000000000000, 0.000000000000000000 ) ) ;
#249 = CARTESIAN_POINT ( 'NONE',  ( 0.000000000000000000, 6.000000000000000000, 0.000000000000000000 ) ) ;
ENDSEC;
END-ISO-10303-21;
