ISO-10303-21;
HEADER;
FILE_DESCRIPTION (( 'STEP AP203' ),
    '1' );
FILE_NAME ('3D_R1650_21.3x2.6_17353130.STEP',
    '2024-08-03T07:37:57',
    ( '' ),
    ( '' ),
    'SwSTEP 2.0',
    'SolidWorks 2024',
    '' );
FILE_SCHEMA (( 'CONFIG_CONTROL_DESIGN' ));
ENDSEC;

DATA;
#1 = ORIENTED_EDGE ( 'NONE', *, *, #164, .T. ) ;
#2 = APPROVAL_STATUS ( 'not_yet_approved' ) ;
#3 = DIRECTION ( 'NONE',  ( -0.7071067811865442421, 0.000000000000000000, 0.7071067811865509034 ) ) ;
#4 = DIRECTION ( 'NONE',  ( 1.000000000000000000, 0.000000000000000000, 2.775557561562891351E-16 ) ) ;
#5 = AXIS2_PLACEMENT_3D ( 'NONE', #191, #242, #99 ) ;
#6 = CARTESIAN_POINT ( 'NONE',  ( -19.44543648263014290, 0.000000000000000000, -19.44543648262996172 ) ) ;
#7 = ADVANCED_FACE ( 'NONE', ( #158 ), #161, .T. ) ;
#8 = DIRECTION ( 'NONE',  ( 0.000000000000000000, 1.000000000000000000, 0.000000000000000000 ) ) ;
#9 = DATE_AND_TIME ( #218, #129 ) ;
#10 = EDGE_CURVE ( 'NONE', #91, #57, #90, .T. ) ;
#11 = CC_DESIGN_APPROVAL ( #33, ( #200 ) ) ;
#12 = ORIENTED_EDGE ( 'NONE', *, *, #49, .T. ) ;
#13 = VERTEX_POINT ( 'NONE', #194 ) ;
#14 = PRODUCT_DEFINITION ( 'UNKNOWN', '', #200, #128 ) ;
#15 = PERSON_AND_ORGANIZATION ( #107, #32 ) ;
#16 = DIRECTION ( 'NONE',  ( -2.220446049250313574E-16, 0.000000000000000000, 1.000000000000000000 ) ) ;
#17 = CARTESIAN_POINT ( 'NONE',  ( 0.000000000000000000, 0.000000000000000000, 0.000000000000000000 ) ) ;
#18 = AXIS2_PLACEMENT_3D ( 'NONE', #87, #136, #156 ) ;
#19 = DATE_AND_TIME ( #187, #60 ) ;
#20 = ORIENTED_EDGE ( 'NONE', *, *, #74, .F. ) ;
#21 =( NAMED_UNIT ( * ) SI_UNIT ( $, .STERADIAN. ) SOLID_ANGLE_UNIT ( ) );
#22 = DIRECTION ( 'NONE',  ( 0.7071067811865507924, 0.000000000000000000, 0.7071067811865443531 ) ) ;
#23 = DATE_AND_TIME ( #157, #123 ) ;
#24 = VERTEX_POINT ( 'NONE', #140 ) ;
#25 = LOCAL_TIME ( 9, 37, 57.00000000000000000, #92 ) ;
#26 = DIRECTION ( 'NONE',  ( 0.000000000000000000, 1.000000000000000000, 0.000000000000000000 ) ) ;
#27 = ORIENTED_EDGE ( 'NONE', *, *, #51, .F. ) ;
#28 = CC_DESIGN_DATE_AND_TIME_ASSIGNMENT ( #195, #199, ( #204 ) ) ;
#29 = COORDINATED_UNIVERSAL_TIME_OFFSET ( 1, 0, .AHEAD. ) ;
#30 = TOROIDAL_SURFACE ( 'NONE', #67, 27.49999999999999289, 8.049999999999998934 ) ;
#31 = CC_DESIGN_PERSON_AND_ORGANIZATION_ASSIGNMENT ( #248, #68, ( #200 ) ) ;
#32 = ORGANIZATION ( 'UNSPECIFIED', 'UNSPECIFIED', '' ) ;
#33 = APPROVAL ( #203, 'UNSPECIFIED' ) ;
#34 = AXIS2_PLACEMENT_3D ( 'NONE', #183, #16, #37 ) ;
#35 = ORIENTED_EDGE ( 'NONE', *, *, #71, .T. ) ;
#36 =( NAMED_UNIT ( * ) PLANE_ANGLE_UNIT ( ) SI_UNIT ( $, .RADIAN. ) );
#37 = DIRECTION ( 'NONE',  ( 1.000000000000000000, 0.000000000000000000, 2.775557561562891844E-16 ) ) ;
#38 = CARTESIAN_POINT ( 'NONE',  ( 0.000000000000000000, 0.000000000000000000, 0.000000000000000000 ) ) ;
#39 = EDGE_LOOP ( 'NONE', ( #125, #210 ) ) ;
#40 = APPROVAL_DATE_TIME ( #9, #93 ) ;
#41 = DIRECTION ( 'NONE',  ( 1.000000000000000000, 0.000000000000000000, 2.775557561562891844E-16 ) ) ;
#42 = DIRECTION ( 'NONE',  ( 0.000000000000000000, 1.000000000000000000, 0.000000000000000000 ) ) ;
#43 = PERSON_AND_ORGANIZATION ( #107, #32 ) ;
#44 = CARTESIAN_POINT ( 'NONE',  ( -19.44999999999999574, 0.000000000000000000, -4.318767565791859573E-15 ) ) ;
#45 = CIRCLE ( 'NONE', #34, 10.64999999999999680 ) ;
#46 = CARTESIAN_POINT ( 'NONE',  ( 0.000000000000000000, 0.000000000000000000, 0.000000000000000000 ) ) ;
#47 = SHAPE_DEFINITION_REPRESENTATION ( #81, #119 ) ;
#48 = AXIS2_PLACEMENT_3D ( 'NONE', #17, #55, #77 ) ;
#49 = EDGE_CURVE ( 'NONE', #143, #253, #145, .T. ) ;
#50 = AXIS2_PLACEMENT_3D ( 'NONE', #197, #66, #230 ) ;
#51 = EDGE_CURVE ( 'NONE', #202, #163, #251, .T. ) ;
#52 = ORIENTED_EDGE ( 'NONE', *, *, #71, .F. ) ;
#53 = PERSON_AND_ORGANIZATION_ROLE ( 'creator' ) ;
#54 = CIRCLE ( 'NONE', #142, 10.64999999999999858 ) ;
#55 = DIRECTION ( 'NONE',  ( 0.000000000000000000, 1.000000000000000000, 0.000000000000000000 ) ) ;
#56 = CALENDAR_DATE ( 2024, 3, 8 ) ;
#57 = VERTEX_POINT ( 'NONE', #120 ) ;
#58 = CARTESIAN_POINT ( 'NONE',  ( 0.000000000000000000, 0.000000000000000000, 0.000000000000000000 ) ) ;
#59 = FACE_OUTER_BOUND ( 'NONE', #39, .T. ) ;
#60 = LOCAL_TIME ( 9, 37, 57.00000000000000000, #232 ) ;
#61 = PERSON_AND_ORGANIZATION ( #107, #32 ) ;
#62 = APPROVAL ( #2, 'UNSPECIFIED' ) ;
#63 = DIRECTION ( 'NONE',  ( 0.000000000000000000, 0.000000000000000000, 1.000000000000000000 ) ) ;
#64 = FACE_BOUND ( 'NONE', #185, .T. ) ;
#65 = DIRECTION ( 'NONE',  ( -2.220446049250313574E-16, 0.000000000000000000, 1.000000000000000000 ) ) ;
#66 = DIRECTION ( 'NONE',  ( 0.000000000000000000, 1.000000000000000000, 0.000000000000000000 ) ) ;
#67 = AXIS2_PLACEMENT_3D ( 'NONE', #118, #42, #121 ) ;
#68 = PERSON_AND_ORGANIZATION_ROLE ( 'design_supplier' ) ;
#69 = CIRCLE ( 'NONE', #96, 8.049999999999998934 ) ;
#70 = CIRCLE ( 'NONE', #182, 8.049999999999998934 ) ;
#71 = EDGE_CURVE ( 'NONE', #24, #163, #180, .T. ) ;
#72 = UNCERTAINTY_MEASURE_WITH_UNIT (LENGTH_MEASURE( 1.000000000000000082E-05 ), #192, 'distance_accuracy_value', 'NONE');
#73 = ORIENTED_EDGE ( 'NONE', *, *, #10, .T. ) ;
#74 = EDGE_CURVE ( 'NONE', #253, #143, #69, .T. ) ;
#75 = ORIENTED_EDGE ( 'NONE', *, *, #10, .F. ) ;
#76 = DIRECTION ( 'NONE',  ( 0.000000000000000000, 0.000000000000000000, 1.000000000000000000 ) ) ;
#77 = DIRECTION ( 'NONE',  ( 0.000000000000000000, 0.000000000000000000, 1.000000000000000000 ) ) ;
#78 = CC_DESIGN_DATE_AND_TIME_ASSIGNMENT ( #167, #214, ( #14 ) ) ;
#79 = APPROVAL_ROLE ( '' ) ;
#80 = ORIENTED_EDGE ( 'NONE', *, *, #114, .F. ) ;
#81 = PRODUCT_DEFINITION_SHAPE ( 'NONE', 'NONE',  #14 ) ;
#82 = CARTESIAN_POINT ( 'NONE',  ( -16.84999999999999787, 0.000000000000000000, 1.221245327087671800E-15 ) ) ;
#83 = DIRECTION ( 'NONE',  ( -0.7071067811865442421, 0.000000000000000000, 0.7071067811865509034 ) ) ;
#84 = ADVANCED_FACE ( 'NONE', ( #64, #152 ), #141, .F. ) ;
#85 = CARTESIAN_POINT ( 'NONE',  ( -27.49999999999999289, 0.000000000000000000, -1.734723475976807094E-15 ) ) ;
#86 = CIRCLE ( 'NONE', #5, 19.44999999999999574 ) ;
#87 = CARTESIAN_POINT ( 'NONE',  ( -19.44543648263014646, 0.000000000000000000, -19.44543648262995816 ) ) ;
#88 = CARTESIAN_POINT ( 'NONE',  ( -19.44543648263014290, 0.000000000000000000, -19.44543648262996172 ) ) ;
#89 = PERSON_AND_ORGANIZATION ( #107, #32 ) ;
#90 = CIRCLE ( 'NONE', #127, 8.049999999999998934 ) ;
#91 = VERTEX_POINT ( 'NONE', #44 ) ;
#92 = COORDINATED_UNIVERSAL_TIME_OFFSET ( 1, 0, .AHEAD. ) ;
#93 = APPROVAL ( #174, 'UNSPECIFIED' ) ;
#94 = DIRECTION ( 'NONE',  ( 0.000000000000000000, 0.000000000000000000, 1.000000000000000000 ) ) ;
#95 = APPLICATION_PROTOCOL_DEFINITION ( 'international standard', 'config_control_design', 1994, #229 ) ;
#96 = AXIS2_PLACEMENT_3D ( 'NONE', #88, #3, #196 ) ;
#97 = PERSON_AND_ORGANIZATION ( #107, #32 ) ;
#98 = EDGE_CURVE ( 'NONE', #143, #57, #154, .T. ) ;
#99 = DIRECTION ( 'NONE',  ( 0.000000000000000000, 0.000000000000000000, 1.000000000000000000 ) ) ;
#100 = DIRECTION ( 'NONE',  ( -2.220446049250313574E-16, 0.000000000000000000, 1.000000000000000000 ) ) ;
#101 = CARTESIAN_POINT ( 'NONE',  ( -27.49999999999999289, 0.000000000000000000, -1.734723475976807094E-15 ) ) ;
#102 = APPROVAL_PERSON_ORGANIZATION ( #147, #62, #79 ) ;
#103 = ORIENTED_EDGE ( 'NONE', *, *, #164, .F. ) ;
#104 = DIRECTION ( 'NONE',  ( 0.7071067811865509034, 0.000000000000000000, 0.7071067811865441310 ) ) ;
#105 = ORIENTED_EDGE ( 'NONE', *, *, #249, .F. ) ;
#106 = CC_DESIGN_APPROVAL ( #62, ( #14 ) ) ;
#107 = PERSON ( 'UNSPECIFIED', 'UNSPECIFIED', 'UNSPECIFIED', ('UNSPECIFIED'), ('UNSPECIFIED'), ('UNSPECIFIED') ) ;
#108 = AXIS2_PLACEMENT_3D ( 'NONE', #46, #26, #63 ) ;
#109 = TOROIDAL_SURFACE ( 'NONE', #48, 27.49999999999999289, 8.049999999999998934 ) ;
#110 = EDGE_CURVE ( 'NONE', #253, #91, #86, .T. ) ;
#111 = EDGE_LOOP ( 'NONE', ( #75, #223 ) ) ;
#112 = CARTESIAN_POINT ( 'NONE',  ( -13.75322689407841281, -9.858406733136192443E-16, -13.75322689407828136 ) ) ;
#113 = APPLICATION_PROTOCOL_DEFINITION ( 'international standard', 'config_control_design', 1994, #211 ) ;
#114 = EDGE_CURVE ( 'NONE', #13, #24, #54, .T. ) ;
#115 = CC_DESIGN_APPROVAL ( #93, ( #204 ) ) ;
#116 = CARTESIAN_POINT ( 'NONE',  ( 0.000000000000000000, 0.000000000000000000, 0.000000000000000000 ) ) ;
#117 = EDGE_LOOP ( 'NONE', ( #52, #213, #1, #215 ) ) ;
#118 = CARTESIAN_POINT ( 'NONE',  ( 0.000000000000000000, 0.000000000000000000, 0.000000000000000000 ) ) ;
#119 = ADVANCED_BREP_SHAPE_REPRESENTATION ( '3D_R1650_21.3x2.6_17353130', ( #122, #222 ), #175 ) ;
#120 = CARTESIAN_POINT ( 'NONE',  ( -35.54999999999999005, 0.000000000000000000, -7.893685705084862371E-15 ) ) ;
#121 = DIRECTION ( 'NONE',  ( 0.000000000000000000, 0.000000000000000000, 1.000000000000000000 ) ) ;
#122 = MANIFOLD_SOLID_BREP ( 'Wandung1', #231 ) ;
#123 = LOCAL_TIME ( 9, 37, 57.00000000000000000, #29 ) ;
#124 = DIRECTION ( 'NONE',  ( 0.000000000000000000, 1.000000000000000000, 0.000000000000000000 ) ) ;
#125 = ORIENTED_EDGE ( 'NONE', *, *, #51, .T. ) ;
#126 = ADVANCED_FACE ( 'NONE', ( #240, #59 ), #138, .T. ) ;
#127 = AXIS2_PLACEMENT_3D ( 'NONE', #220, #219, #241 ) ;
#128 = DESIGN_CONTEXT ( 'detailed design', #229, 'design' ) ;
#129 = LOCAL_TIME ( 9, 37, 57.00000000000000000, #171 ) ;
#130 = ORIENTED_EDGE ( 'NONE', *, *, #114, .T. ) ;
#131 = CC_DESIGN_PERSON_AND_ORGANIZATION_ASSIGNMENT ( #15, #216, ( #198 ) ) ;
#132 = ORIENTED_EDGE ( 'NONE', *, *, #98, .F. ) ;
#133 = TOROIDAL_SURFACE ( 'NONE', #190, 27.49999999999999289, 10.64999999999999858 ) ;
#134 = FACE_OUTER_BOUND ( 'NONE', #155, .T. ) ;
#135 = MECHANICAL_CONTEXT ( 'NONE', #211, 'mechanical' ) ;
#136 = DIRECTION ( 'NONE',  ( -0.7071067811865442421, 0.000000000000000000, 0.7071067811865509034 ) ) ;
#137 = CIRCLE ( 'NONE', #165, 10.64999999999999858 ) ;
#138 = PLANE ( 'NONE',  #208 ) ;
#139 = APPROVAL_ROLE ( '' ) ;
#140 = CARTESIAN_POINT ( 'NONE',  ( -26.97612370226691070, 0.000000000000000000, -26.97612370226664780 ) ) ;
#141 = PLANE ( 'NONE',  #18 ) ;
#142 = AXIS2_PLACEMENT_3D ( 'NONE', #170, #83, #22 ) ;
#143 = VERTEX_POINT ( 'NONE', #247 ) ;
#144 = SECURITY_CLASSIFICATION_LEVEL ( 'unclassified' ) ;
#145 = CIRCLE ( 'NONE', #176, 8.049999999999998934 ) ;
#146 = CC_DESIGN_SECURITY_CLASSIFICATION ( #204, ( #200 ) ) ;
#147 = PERSON_AND_ORGANIZATION ( #107, #32 ) ;
#148 = DIRECTION ( 'NONE',  ( -0.7071067811865442421, 0.000000000000000000, 0.7071067811865509034 ) ) ;
#149 = AXIS2_PLACEMENT_3D ( 'NONE', #116, #124, #237 ) ;
#150 = DIRECTION ( 'NONE',  ( 0.7071067811865507924, 0.000000000000000000, 0.7071067811865443531 ) ) ;
#151 = APPROVAL_DATE_TIME ( #19, #62 ) ;
#152 = FACE_OUTER_BOUND ( 'NONE', #206, .T. ) ;
#153 = ORIENTED_EDGE ( 'NONE', *, *, #98, .T. ) ;
#154 = CIRCLE ( 'NONE', #149, 35.54999999999999005 ) ;
#155 = EDGE_LOOP ( 'NONE', ( #188, #153, #166, #177 ) ) ;
#156 = DIRECTION ( 'NONE',  ( 0.7071067811865507924, 0.000000000000000000, 0.7071067811865441310 ) ) ;
#157 = CALENDAR_DATE ( 2024, 3, 8 ) ;
#158 = FACE_OUTER_BOUND ( 'NONE', #117, .T. ) ;
#159 = CIRCLE ( 'NONE', #50, 16.84999999999999787 ) ;
#160 = APPROVAL_ROLE ( '' ) ;
#161 = TOROIDAL_SURFACE ( 'NONE', #108, 27.49999999999999289, 10.64999999999999858 ) ;
#162 = ADVANCED_FACE ( 'NONE', ( #181 ), #30, .F. ) ;
#163 = VERTEX_POINT ( 'NONE', #228 ) ;
#164 = EDGE_CURVE ( 'NONE', #13, #202, #159, .T. ) ;
#165 = AXIS2_PLACEMENT_3D ( 'NONE', #209, #148, #150 ) ;
#166 = ORIENTED_EDGE ( 'NONE', *, *, #205, .T. ) ;
#167 = DATE_AND_TIME ( #56, #25 ) ;
#168 = AXIS2_PLACEMENT_3D ( 'NONE', #38, #8, #201 ) ;
#169 = CARTESIAN_POINT ( 'NONE',  ( 0.000000000000000000, 0.000000000000000000, 0.000000000000000000 ) ) ;
#170 = CARTESIAN_POINT ( 'NONE',  ( -19.44543648263014646, 0.000000000000000000, -19.44543648262995816 ) ) ;
#171 = COORDINATED_UNIVERSAL_TIME_OFFSET ( 1, 0, .AHEAD. ) ;
#172 = DIRECTION ( 'NONE',  ( -2.775557561562891351E-16, 0.000000000000000000, 1.000000000000000000 ) ) ;
#173 = PRODUCT_RELATED_PRODUCT_CATEGORY ( 'detail', '', ( #198 ) ) ;
#174 = APPROVAL_STATUS ( 'not_yet_approved' ) ;
#175 =( GEOMETRIC_REPRESENTATION_CONTEXT ( 3 ) GLOBAL_UNCERTAINTY_ASSIGNED_CONTEXT ( ( #72 ) ) GLOBAL_UNIT_ASSIGNED_CONTEXT ( ( #192, #36, #21 ) ) REPRESENTATION_CONTEXT ( 'NONE', 'WORKASPACE' ) );
#176 = AXIS2_PLACEMENT_3D ( 'NONE', #6, #245, #104 ) ;
#177 = ORIENTED_EDGE ( 'NONE', *, *, #110, .F. ) ;
#178 = EDGE_LOOP ( 'NONE', ( #130, #35, #27, #103 ) ) ;
#179 = CALENDAR_DATE ( 2024, 3, 8 ) ;
#180 = CIRCLE ( 'NONE', #168, 38.14999999999999147 ) ;
#181 = FACE_OUTER_BOUND ( 'NONE', #233, .T. ) ;
#182 = AXIS2_PLACEMENT_3D ( 'NONE', #239, #100, #235 ) ;
#183 = CARTESIAN_POINT ( 'NONE',  ( -27.49999999999999289, 0.000000000000000000, -1.734723475976807094E-15 ) ) ;
#184 = CC_DESIGN_PERSON_AND_ORGANIZATION_ASSIGNMENT ( #236, #53, ( #14 ) ) ;
#185 = EDGE_LOOP ( 'NONE', ( #186, #12 ) ) ;
#186 = ORIENTED_EDGE ( 'NONE', *, *, #74, .T. ) ;
#187 = CALENDAR_DATE ( 2024, 3, 8 ) ;
#188 = ORIENTED_EDGE ( 'NONE', *, *, #49, .F. ) ;
#189 = DIRECTION ( 'NONE',  ( 1.000000000000000000, 0.000000000000000000, 0.000000000000000000 ) ) ;
#190 = AXIS2_PLACEMENT_3D ( 'NONE', #169, #212, #94 ) ;
#191 = CARTESIAN_POINT ( 'NONE',  ( 0.000000000000000000, -9.858406733136192443E-16, 0.000000000000000000 ) ) ;
#192 =( LENGTH_UNIT ( ) NAMED_UNIT ( * ) SI_UNIT ( .MILLI., .METRE. ) );
#193 = EDGE_CURVE ( 'NONE', #163, #202, #45, .T. ) ;
#194 = CARTESIAN_POINT ( 'NONE',  ( -11.91474926299338222, -1.304248841091930866E-15, -11.91474926299326142 ) ) ;
#195 = DATE_AND_TIME ( #179, #246 ) ;
#196 = DIRECTION ( 'NONE',  ( 0.7071067811865509034, 0.000000000000000000, 0.7071067811865441310 ) ) ;
#197 = CARTESIAN_POINT ( 'NONE',  ( 0.000000000000000000, -1.304248841091931063E-15, 0.000000000000000000 ) ) ;
#198 = PRODUCT ( '3D_R1650_21.3x2.6_17353130', '3D_R1650_21.3x2.6_17353130', '', ( #135 ) ) ;
#199 = DATE_TIME_ROLE ( 'classification_date' ) ;
#200 = PRODUCT_DEFINITION_FORMATION_WITH_SPECIFIED_SOURCE ( 'ANY', '', #198, .NOT_KNOWN. ) ;
#201 = DIRECTION ( 'NONE',  ( 0.000000000000000000, 0.000000000000000000, 1.000000000000000000 ) ) ;
#202 = VERTEX_POINT ( 'NONE', #82 ) ;
#203 = APPROVAL_STATUS ( 'not_yet_approved' ) ;
#204 = SECURITY_CLASSIFICATION ( '', '', #144 ) ;
#205 = EDGE_CURVE ( 'NONE', #57, #91, #70, .T. ) ;
#206 = EDGE_LOOP ( 'NONE', ( #80, #105 ) ) ;
#207 = FACE_OUTER_BOUND ( 'NONE', #178, .T. ) ;
#208 = AXIS2_PLACEMENT_3D ( 'NONE', #101, #172, #4 ) ;
#209 = CARTESIAN_POINT ( 'NONE',  ( -19.44543648263014646, 0.000000000000000000, -19.44543648262995816 ) ) ;
#210 = ORIENTED_EDGE ( 'NONE', *, *, #193, .T. ) ;
#211 = APPLICATION_CONTEXT ( 'configuration controlled 3d designs of mechanical parts and assemblies' ) ;
#212 = DIRECTION ( 'NONE',  ( 0.000000000000000000, 1.000000000000000000, 0.000000000000000000 ) ) ;
#213 = ORIENTED_EDGE ( 'NONE', *, *, #249, .T. ) ;
#214 = DATE_TIME_ROLE ( 'creation_date' ) ;
#215 = ORIENTED_EDGE ( 'NONE', *, *, #193, .F. ) ;
#216 = PERSON_AND_ORGANIZATION_ROLE ( 'design_owner' ) ;
#217 = ADVANCED_FACE ( 'NONE', ( #134 ), #109, .F. ) ;
#218 = CALENDAR_DATE ( 2024, 3, 8 ) ;
#219 = DIRECTION ( 'NONE',  ( -2.220446049250313574E-16, 0.000000000000000000, 1.000000000000000000 ) ) ;
#220 = CARTESIAN_POINT ( 'NONE',  ( -27.49999999999999289, 0.000000000000000000, -6.106226635438360972E-15 ) ) ;
#221 = APPROVAL_DATE_TIME ( #23, #33 ) ;
#222 = AXIS2_PLACEMENT_3D ( 'NONE', #58, #76, #189 ) ;
#223 = ORIENTED_EDGE ( 'NONE', *, *, #205, .F. ) ;
#224 = PERSON_AND_ORGANIZATION_ROLE ( 'creator' ) ;
#225 = COORDINATED_UNIVERSAL_TIME_OFFSET ( 1, 0, .AHEAD. ) ;
#226 = CC_DESIGN_PERSON_AND_ORGANIZATION_ASSIGNMENT ( #43, #224, ( #200 ) ) ;
#227 = APPROVAL_PERSON_ORGANIZATION ( #89, #93, #139 ) ;
#228 = CARTESIAN_POINT ( 'NONE',  ( -38.14999999999999147, 0.000000000000000000, -4.395095398734838297E-15 ) ) ;
#229 = APPLICATION_CONTEXT ( 'configuration controlled 3d designs of mechanical parts and assemblies' ) ;
#230 = DIRECTION ( 'NONE',  ( 0.000000000000000000, 0.000000000000000000, 1.000000000000000000 ) ) ;
#231 = CLOSED_SHELL ( 'NONE', ( #217, #238, #7, #126, #84, #162 ) ) ;
#232 = COORDINATED_UNIVERSAL_TIME_OFFSET ( 1, 0, .AHEAD. ) ;
#233 = EDGE_LOOP ( 'NONE', ( #132, #20, #252, #73 ) ) ;
#234 = APPROVAL_PERSON_ORGANIZATION ( #97, #33, #160 ) ;
#235 = DIRECTION ( 'NONE',  ( 1.000000000000000000, 0.000000000000000000, 2.220446049250313081E-16 ) ) ;
#236 = PERSON_AND_ORGANIZATION ( #107, #32 ) ;
#237 = DIRECTION ( 'NONE',  ( 0.000000000000000000, 0.000000000000000000, 1.000000000000000000 ) ) ;
#238 = ADVANCED_FACE ( 'NONE', ( #207 ), #133, .T. ) ;
#239 = CARTESIAN_POINT ( 'NONE',  ( -27.49999999999999289, 0.000000000000000000, -6.106226635438360972E-15 ) ) ;
#240 = FACE_BOUND ( 'NONE', #111, .T. ) ;
#241 = DIRECTION ( 'NONE',  ( 1.000000000000000000, 0.000000000000000000, 2.220446049250313081E-16 ) ) ;
#242 = DIRECTION ( 'NONE',  ( 0.000000000000000000, 1.000000000000000000, 0.000000000000000000 ) ) ;
#243 = PERSON_AND_ORGANIZATION_ROLE ( 'classification_officer' ) ;
#244 = CC_DESIGN_PERSON_AND_ORGANIZATION_ASSIGNMENT ( #61, #243, ( #204 ) ) ;
#245 = DIRECTION ( 'NONE',  ( -0.7071067811865442421, 0.000000000000000000, 0.7071067811865509034 ) ) ;
#246 = LOCAL_TIME ( 9, 37, 57.00000000000000000, #225 ) ;
#247 = CARTESIAN_POINT ( 'NONE',  ( -25.13764607118188010, 0.000000000000000000, -25.13764607118163852 ) ) ;
#248 = PERSON_AND_ORGANIZATION ( #107, #32 ) ;
#249 = EDGE_CURVE ( 'NONE', #24, #13, #137, .T. ) ;
#250 = AXIS2_PLACEMENT_3D ( 'NONE', #85, #65, #41 ) ;
#251 = CIRCLE ( 'NONE', #250, 10.64999999999999680 ) ;
#252 = ORIENTED_EDGE ( 'NONE', *, *, #110, .T. ) ;
#253 = VERTEX_POINT ( 'NONE', #112 ) ;
ENDSEC;
END-ISO-10303-21;
