ISO-10303-21;
HEADER;
/* Generated by software containing ST-Developer
 * from STEP Tools, Inc. (www.steptools.com) 
 */

FILE_DESCRIPTION(
/* description */ (''),
/* implementation_level */ '2;1');

FILE_NAME(
/* name */ 
'C:\\Users\\cad\\Desktop\\Zeichnungen neu von Ralph\\3D_Kupplung_R666-
E\\3D_R666-E-DN65-DN100_17113170.stp',
/* time_stamp */ '2021-06-17T10:27:05+02:00',
/* author */ ('cad'),
/* organization */ (''),
/* preprocessor_version */ 'ST-DEVELOPER v18.1',
/* originating_system */ 'Autodesk Inventor 2022',
/* authorisation */ '');

FILE_SCHEMA (('AUTOMOTIVE_DESIGN { 1 0 10303 214 3 1 1 }'));
ENDSEC;

DATA;
#10=MECHANICAL_DESIGN_GEOMETRIC_PRESENTATION_REPRESENTATION('',(#13),#546);
#11=SHAPE_REPRESENTATION_RELATIONSHIP('SRR','None',#553,#12);
#12=ADVANCED_BREP_SHAPE_REPRESENTATION('',(#14),#545);
#13=STYLED_ITEM('',(#562),#14);
#14=MANIFOLD_SOLID_BREP('Volumenk\X\F6rper1',#295);
#15=TOROIDAL_SURFACE('',#351,50.05,0.8);
#16=FACE_BOUND('',#57,.T.);
#17=FACE_BOUND('',#63,.T.);
#18=FACE_BOUND('',#66,.T.);
#19=CONICAL_SURFACE('',#327,49.,0.785398163397448);
#20=CONICAL_SURFACE('',#329,36.363,0.785398163397439);
#21=CONICAL_SURFACE('',#337,53.25,0.785398163397447);
#22=CONICAL_SURFACE('',#343,53.25,0.785398163397447);
#23=CONICAL_SURFACE('',#347,49.,0.785398163397448);
#24=CONICAL_SURFACE('',#353,37.113,0.785398163397453);
#25=CYLINDRICAL_SURFACE('',#321,49.25);
#26=CYLINDRICAL_SURFACE('',#334,36.113);
#27=CYLINDRICAL_SURFACE('',#340,53.5);
#28=(
BOUNDED_CURVE()
B_SPLINE_CURVE(2,(#459,#460,#461),.UNSPECIFIED.,.F.,.F.)
B_SPLINE_CURVE_WITH_KNOTS((3,3),(0.,0.210368411566885),.UNSPECIFIED.)
CURVE()
GEOMETRIC_REPRESENTATION_ITEM()
RATIONAL_B_SPLINE_CURVE((1.,1.00021743388855,1.))
REPRESENTATION_ITEM('')
);
#29=(
BOUNDED_CURVE()
B_SPLINE_CURVE(2,(#465,#466,#467),.UNSPECIFIED.,.F.,.F.)
B_SPLINE_CURVE_WITH_KNOTS((3,3),(0.,0.210368411566885),.UNSPECIFIED.)
CURVE()
GEOMETRIC_REPRESENTATION_ITEM()
RATIONAL_B_SPLINE_CURVE((1.,1.00021743388855,1.))
REPRESENTATION_ITEM('')
);
#30=(
BOUNDED_CURVE()
B_SPLINE_CURVE(2,(#478,#479,#480),.UNSPECIFIED.,.F.,.F.)
B_SPLINE_CURVE_WITH_KNOTS((3,3),(0.,0.210368411566885),.UNSPECIFIED.)
CURVE()
GEOMETRIC_REPRESENTATION_ITEM()
RATIONAL_B_SPLINE_CURVE((1.,1.00021743388855,1.))
REPRESENTATION_ITEM('')
);
#31=(
BOUNDED_CURVE()
B_SPLINE_CURVE(2,(#484,#485,#486),.UNSPECIFIED.,.F.,.F.)
B_SPLINE_CURVE_WITH_KNOTS((3,3),(0.,0.210368411566885),.UNSPECIFIED.)
CURVE()
GEOMETRIC_REPRESENTATION_ITEM()
RATIONAL_B_SPLINE_CURVE((1.,1.00021743388855,1.))
REPRESENTATION_ITEM('')
);
#32=FACE_OUTER_BOUND('',#49,.T.);
#33=FACE_OUTER_BOUND('',#50,.T.);
#34=FACE_OUTER_BOUND('',#51,.T.);
#35=FACE_OUTER_BOUND('',#52,.T.);
#36=FACE_OUTER_BOUND('',#53,.T.);
#37=FACE_OUTER_BOUND('',#54,.T.);
#38=FACE_OUTER_BOUND('',#55,.T.);
#39=FACE_OUTER_BOUND('',#56,.T.);
#40=FACE_OUTER_BOUND('',#58,.T.);
#41=FACE_OUTER_BOUND('',#59,.T.);
#42=FACE_OUTER_BOUND('',#60,.T.);
#43=FACE_OUTER_BOUND('',#61,.T.);
#44=FACE_OUTER_BOUND('',#62,.T.);
#45=FACE_OUTER_BOUND('',#64,.T.);
#46=FACE_OUTER_BOUND('',#65,.T.);
#47=FACE_OUTER_BOUND('',#67,.T.);
#48=FACE_OUTER_BOUND('',#68,.T.);
#49=EDGE_LOOP('',(#189,#190));
#50=EDGE_LOOP('',(#191,#192,#193,#194,#195,#196));
#51=EDGE_LOOP('',(#197,#198));
#52=EDGE_LOOP('',(#199,#200,#201,#202,#203,#204));
#53=EDGE_LOOP('',(#205,#206,#207,#208,#209,#210,#211,#212,#213,#214,#215,
#216,#217));
#54=EDGE_LOOP('',(#218,#219,#220,#221,#222));
#55=EDGE_LOOP('',(#223,#224,#225,#226));
#56=EDGE_LOOP('',(#227));
#57=EDGE_LOOP('',(#228));
#58=EDGE_LOOP('',(#229,#230,#231,#232,#233));
#59=EDGE_LOOP('',(#234,#235,#236,#237,#238));
#60=EDGE_LOOP('',(#239,#240,#241,#242,#243,#244));
#61=EDGE_LOOP('',(#245,#246,#247,#248,#249));
#62=EDGE_LOOP('',(#250));
#63=EDGE_LOOP('',(#251));
#64=EDGE_LOOP('',(#252,#253,#254,#255));
#65=EDGE_LOOP('',(#256,#257,#258,#259));
#66=EDGE_LOOP('',(#260));
#67=EDGE_LOOP('',(#261,#262,#263,#264,#265));
#68=EDGE_LOOP('',(#266,#267,#268,#269,#270));
#69=LINE('',#454,#84);
#70=LINE('',#457,#85);
#71=LINE('',#463,#86);
#72=LINE('',#468,#87);
#73=LINE('',#473,#88);
#74=LINE('',#476,#89);
#75=LINE('',#482,#90);
#76=LINE('',#487,#91);
#77=LINE('',#493,#92);
#78=LINE('',#504,#93);
#79=LINE('',#514,#94);
#80=LINE('',#517,#95);
#81=LINE('',#523,#96);
#82=LINE('',#529,#97);
#83=LINE('',#542,#98);
#84=VECTOR('',#360,10.);
#85=VECTOR('',#363,10.);
#86=VECTOR('',#364,10.);
#87=VECTOR('',#365,10.);
#88=VECTOR('',#370,10.);
#89=VECTOR('',#373,10.);
#90=VECTOR('',#374,10.);
#91=VECTOR('',#375,10.);
#92=VECTOR('',#380,49.25);
#93=VECTOR('',#397,36.363);
#94=VECTOR('',#410,36.113);
#95=VECTOR('',#413,53.25);
#96=VECTOR('',#420,53.5);
#97=VECTOR('',#427,53.25);
#98=VECTOR('',#448,37.113);
#99=CIRCLE('',#316,49.25);
#100=CIRCLE('',#319,49.25);
#101=CIRCLE('',#322,49.25);
#102=CIRCLE('',#323,49.25);
#103=CIRCLE('',#324,49.25);
#104=CIRCLE('',#325,49.25);
#105=CIRCLE('',#326,49.25);
#106=CIRCLE('',#328,48.75);
#107=CIRCLE('',#330,36.613);
#108=CIRCLE('',#331,36.113);
#109=CIRCLE('',#333,53.);
#110=CIRCLE('',#335,36.113);
#111=CIRCLE('',#336,36.113);
#112=CIRCLE('',#338,53.5);
#113=CIRCLE('',#339,53.5);
#114=CIRCLE('',#341,53.5);
#115=CIRCLE('',#342,53.5);
#116=CIRCLE('',#344,53.);
#117=CIRCLE('',#346,50.05);
#118=CIRCLE('',#348,48.75);
#119=CIRCLE('',#350,38.113);
#120=CIRCLE('',#352,0.8);
#121=VERTEX_POINT('',#451);
#122=VERTEX_POINT('',#452);
#123=VERTEX_POINT('',#456);
#124=VERTEX_POINT('',#458);
#125=VERTEX_POINT('',#462);
#126=VERTEX_POINT('',#464);
#127=VERTEX_POINT('',#470);
#128=VERTEX_POINT('',#471);
#129=VERTEX_POINT('',#475);
#130=VERTEX_POINT('',#477);
#131=VERTEX_POINT('',#481);
#132=VERTEX_POINT('',#483);
#133=VERTEX_POINT('',#489);
#134=VERTEX_POINT('',#490);
#135=VERTEX_POINT('',#492);
#136=VERTEX_POINT('',#501);
#137=VERTEX_POINT('',#503);
#138=VERTEX_POINT('',#507);
#139=VERTEX_POINT('',#510);
#140=VERTEX_POINT('',#511);
#141=VERTEX_POINT('',#516);
#142=VERTEX_POINT('',#518);
#143=VERTEX_POINT('',#522);
#144=VERTEX_POINT('',#524);
#145=VERTEX_POINT('',#528);
#146=VERTEX_POINT('',#532);
#147=VERTEX_POINT('',#537);
#148=EDGE_CURVE('',#121,#122,#99,.T.);
#149=EDGE_CURVE('',#122,#121,#69,.T.);
#150=EDGE_CURVE('',#123,#121,#70,.T.);
#151=EDGE_CURVE('',#124,#123,#28,.T.);
#152=EDGE_CURVE('',#125,#124,#71,.T.);
#153=EDGE_CURVE('',#126,#125,#29,.T.);
#154=EDGE_CURVE('',#122,#126,#72,.T.);
#155=EDGE_CURVE('',#127,#128,#100,.T.);
#156=EDGE_CURVE('',#128,#127,#73,.T.);
#157=EDGE_CURVE('',#129,#127,#74,.T.);
#158=EDGE_CURVE('',#130,#129,#30,.T.);
#159=EDGE_CURVE('',#131,#130,#75,.T.);
#160=EDGE_CURVE('',#132,#131,#31,.T.);
#161=EDGE_CURVE('',#128,#132,#76,.T.);
#162=EDGE_CURVE('',#133,#134,#101,.T.);
#163=EDGE_CURVE('',#133,#135,#77,.T.);
#164=EDGE_CURVE('',#129,#135,#102,.T.);
#165=EDGE_CURVE('',#123,#132,#103,.T.);
#166=EDGE_CURVE('',#135,#126,#104,.T.);
#167=EDGE_CURVE('',#134,#133,#105,.T.);
#168=EDGE_CURVE('',#125,#130,#106,.T.);
#169=EDGE_CURVE('',#136,#136,#107,.T.);
#170=EDGE_CURVE('',#136,#137,#78,.T.);
#171=EDGE_CURVE('',#137,#137,#108,.T.);
#172=EDGE_CURVE('',#138,#138,#109,.T.);
#173=EDGE_CURVE('',#139,#140,#110,.T.);
#174=EDGE_CURVE('',#140,#139,#111,.T.);
#175=EDGE_CURVE('',#140,#137,#79,.T.);
#176=EDGE_CURVE('',#138,#141,#80,.T.);
#177=EDGE_CURVE('',#141,#142,#112,.T.);
#178=EDGE_CURVE('',#142,#141,#113,.T.);
#179=EDGE_CURVE('',#142,#143,#81,.T.);
#180=EDGE_CURVE('',#144,#143,#114,.T.);
#181=EDGE_CURVE('',#143,#144,#115,.T.);
#182=EDGE_CURVE('',#144,#145,#82,.T.);
#183=EDGE_CURVE('',#145,#145,#116,.T.);
#184=EDGE_CURVE('',#146,#146,#117,.T.);
#185=EDGE_CURVE('',#131,#124,#118,.T.);
#186=EDGE_CURVE('',#147,#147,#119,.T.);
#187=EDGE_CURVE('',#134,#146,#120,.T.);
#188=EDGE_CURVE('',#147,#139,#83,.T.);
#189=ORIENTED_EDGE('',*,*,#148,.F.);
#190=ORIENTED_EDGE('',*,*,#149,.F.);
#191=ORIENTED_EDGE('',*,*,#150,.F.);
#192=ORIENTED_EDGE('',*,*,#151,.F.);
#193=ORIENTED_EDGE('',*,*,#152,.F.);
#194=ORIENTED_EDGE('',*,*,#153,.F.);
#195=ORIENTED_EDGE('',*,*,#154,.F.);
#196=ORIENTED_EDGE('',*,*,#149,.T.);
#197=ORIENTED_EDGE('',*,*,#155,.F.);
#198=ORIENTED_EDGE('',*,*,#156,.F.);
#199=ORIENTED_EDGE('',*,*,#157,.F.);
#200=ORIENTED_EDGE('',*,*,#158,.F.);
#201=ORIENTED_EDGE('',*,*,#159,.F.);
#202=ORIENTED_EDGE('',*,*,#160,.F.);
#203=ORIENTED_EDGE('',*,*,#161,.F.);
#204=ORIENTED_EDGE('',*,*,#156,.T.);
#205=ORIENTED_EDGE('',*,*,#162,.F.);
#206=ORIENTED_EDGE('',*,*,#163,.T.);
#207=ORIENTED_EDGE('',*,*,#164,.F.);
#208=ORIENTED_EDGE('',*,*,#157,.T.);
#209=ORIENTED_EDGE('',*,*,#155,.T.);
#210=ORIENTED_EDGE('',*,*,#161,.T.);
#211=ORIENTED_EDGE('',*,*,#165,.F.);
#212=ORIENTED_EDGE('',*,*,#150,.T.);
#213=ORIENTED_EDGE('',*,*,#148,.T.);
#214=ORIENTED_EDGE('',*,*,#154,.T.);
#215=ORIENTED_EDGE('',*,*,#166,.F.);
#216=ORIENTED_EDGE('',*,*,#163,.F.);
#217=ORIENTED_EDGE('',*,*,#167,.F.);
#218=ORIENTED_EDGE('',*,*,#153,.T.);
#219=ORIENTED_EDGE('',*,*,#168,.T.);
#220=ORIENTED_EDGE('',*,*,#158,.T.);
#221=ORIENTED_EDGE('',*,*,#164,.T.);
#222=ORIENTED_EDGE('',*,*,#166,.T.);
#223=ORIENTED_EDGE('',*,*,#169,.T.);
#224=ORIENTED_EDGE('',*,*,#170,.T.);
#225=ORIENTED_EDGE('',*,*,#171,.T.);
#226=ORIENTED_EDGE('',*,*,#170,.F.);
#227=ORIENTED_EDGE('',*,*,#172,.F.);
#228=ORIENTED_EDGE('',*,*,#169,.F.);
#229=ORIENTED_EDGE('',*,*,#173,.F.);
#230=ORIENTED_EDGE('',*,*,#174,.F.);
#231=ORIENTED_EDGE('',*,*,#175,.T.);
#232=ORIENTED_EDGE('',*,*,#171,.F.);
#233=ORIENTED_EDGE('',*,*,#175,.F.);
#234=ORIENTED_EDGE('',*,*,#172,.T.);
#235=ORIENTED_EDGE('',*,*,#176,.T.);
#236=ORIENTED_EDGE('',*,*,#177,.T.);
#237=ORIENTED_EDGE('',*,*,#178,.T.);
#238=ORIENTED_EDGE('',*,*,#176,.F.);
#239=ORIENTED_EDGE('',*,*,#177,.F.);
#240=ORIENTED_EDGE('',*,*,#178,.F.);
#241=ORIENTED_EDGE('',*,*,#179,.T.);
#242=ORIENTED_EDGE('',*,*,#180,.F.);
#243=ORIENTED_EDGE('',*,*,#181,.F.);
#244=ORIENTED_EDGE('',*,*,#179,.F.);
#245=ORIENTED_EDGE('',*,*,#180,.T.);
#246=ORIENTED_EDGE('',*,*,#181,.T.);
#247=ORIENTED_EDGE('',*,*,#182,.T.);
#248=ORIENTED_EDGE('',*,*,#183,.T.);
#249=ORIENTED_EDGE('',*,*,#182,.F.);
#250=ORIENTED_EDGE('',*,*,#183,.F.);
#251=ORIENTED_EDGE('',*,*,#184,.F.);
#252=ORIENTED_EDGE('',*,*,#151,.T.);
#253=ORIENTED_EDGE('',*,*,#165,.T.);
#254=ORIENTED_EDGE('',*,*,#160,.T.);
#255=ORIENTED_EDGE('',*,*,#185,.T.);
#256=ORIENTED_EDGE('',*,*,#152,.T.);
#257=ORIENTED_EDGE('',*,*,#185,.F.);
#258=ORIENTED_EDGE('',*,*,#159,.T.);
#259=ORIENTED_EDGE('',*,*,#168,.F.);
#260=ORIENTED_EDGE('',*,*,#186,.F.);
#261=ORIENTED_EDGE('',*,*,#162,.T.);
#262=ORIENTED_EDGE('',*,*,#187,.T.);
#263=ORIENTED_EDGE('',*,*,#184,.T.);
#264=ORIENTED_EDGE('',*,*,#187,.F.);
#265=ORIENTED_EDGE('',*,*,#167,.T.);
#266=ORIENTED_EDGE('',*,*,#186,.T.);
#267=ORIENTED_EDGE('',*,*,#188,.T.);
#268=ORIENTED_EDGE('',*,*,#173,.T.);
#269=ORIENTED_EDGE('',*,*,#174,.T.);
#270=ORIENTED_EDGE('',*,*,#188,.F.);
#271=PLANE('',#315);
#272=PLANE('',#317);
#273=PLANE('',#318);
#274=PLANE('',#320);
#275=PLANE('',#332);
#276=PLANE('',#345);
#277=PLANE('',#349);
#278=ADVANCED_FACE('',(#32),#271,.F.);
#279=ADVANCED_FACE('',(#33),#272,.F.);
#280=ADVANCED_FACE('',(#34),#273,.F.);
#281=ADVANCED_FACE('',(#35),#274,.F.);
#282=ADVANCED_FACE('',(#36),#25,.T.);
#283=ADVANCED_FACE('',(#37),#19,.T.);
#284=ADVANCED_FACE('',(#38),#20,.F.);
#285=ADVANCED_FACE('',(#39,#16),#275,.T.);
#286=ADVANCED_FACE('',(#40),#26,.F.);
#287=ADVANCED_FACE('',(#41),#21,.T.);
#288=ADVANCED_FACE('',(#42),#27,.T.);
#289=ADVANCED_FACE('',(#43),#22,.T.);
#290=ADVANCED_FACE('',(#44,#17),#276,.T.);
#291=ADVANCED_FACE('',(#45),#23,.T.);
#292=ADVANCED_FACE('',(#46,#18),#277,.T.);
#293=ADVANCED_FACE('',(#47),#15,.F.);
#294=ADVANCED_FACE('',(#48),#24,.F.);
#295=CLOSED_SHELL('',(#278,#279,#280,#281,#282,#283,#284,#285,#286,#287,
#288,#289,#290,#291,#292,#293,#294));
#296=DERIVED_UNIT_ELEMENT(#298,1.);
#297=DERIVED_UNIT_ELEMENT(#548,-3.);
#298=(
MASS_UNIT()
NAMED_UNIT(*)
SI_UNIT($,.GRAM.)
);
#299=DERIVED_UNIT((#296,#297));
#300=MEASURE_REPRESENTATION_ITEM('density measure',
POSITIVE_RATIO_MEASURE(1.),#299);
#301=PROPERTY_DEFINITION_REPRESENTATION(#306,#303);
#302=PROPERTY_DEFINITION_REPRESENTATION(#307,#304);
#303=REPRESENTATION('material name',(#305),#545);
#304=REPRESENTATION('density',(#300),#545);
#305=DESCRIPTIVE_REPRESENTATION_ITEM('Generisch','Generisch');
#306=PROPERTY_DEFINITION('material property','material name',#555);
#307=PROPERTY_DEFINITION('material property','density of part',#555);
#308=DATE_TIME_ROLE('creation_date');
#309=APPLIED_DATE_AND_TIME_ASSIGNMENT(#310,#308,(#555));
#310=DATE_AND_TIME(#311,#312);
#311=CALENDAR_DATE(2021,17,6);
#312=LOCAL_TIME(0,0,0.,#313);
#313=COORDINATED_UNIVERSAL_TIME_OFFSET(0,0,.BEHIND.);
#314=AXIS2_PLACEMENT_3D('placement',#449,#354,#355);
#315=AXIS2_PLACEMENT_3D('',#450,#356,#357);
#316=AXIS2_PLACEMENT_3D('',#453,#358,#359);
#317=AXIS2_PLACEMENT_3D('',#455,#361,#362);
#318=AXIS2_PLACEMENT_3D('',#469,#366,#367);
#319=AXIS2_PLACEMENT_3D('',#472,#368,#369);
#320=AXIS2_PLACEMENT_3D('',#474,#371,#372);
#321=AXIS2_PLACEMENT_3D('',#488,#376,#377);
#322=AXIS2_PLACEMENT_3D('',#491,#378,#379);
#323=AXIS2_PLACEMENT_3D('',#494,#381,#382);
#324=AXIS2_PLACEMENT_3D('',#495,#383,#384);
#325=AXIS2_PLACEMENT_3D('',#496,#385,#386);
#326=AXIS2_PLACEMENT_3D('',#497,#387,#388);
#327=AXIS2_PLACEMENT_3D('',#498,#389,#390);
#328=AXIS2_PLACEMENT_3D('',#499,#391,#392);
#329=AXIS2_PLACEMENT_3D('',#500,#393,#394);
#330=AXIS2_PLACEMENT_3D('',#502,#395,#396);
#331=AXIS2_PLACEMENT_3D('',#505,#398,#399);
#332=AXIS2_PLACEMENT_3D('',#506,#400,#401);
#333=AXIS2_PLACEMENT_3D('',#508,#402,#403);
#334=AXIS2_PLACEMENT_3D('',#509,#404,#405);
#335=AXIS2_PLACEMENT_3D('',#512,#406,#407);
#336=AXIS2_PLACEMENT_3D('',#513,#408,#409);
#337=AXIS2_PLACEMENT_3D('',#515,#411,#412);
#338=AXIS2_PLACEMENT_3D('',#519,#414,#415);
#339=AXIS2_PLACEMENT_3D('',#520,#416,#417);
#340=AXIS2_PLACEMENT_3D('',#521,#418,#419);
#341=AXIS2_PLACEMENT_3D('',#525,#421,#422);
#342=AXIS2_PLACEMENT_3D('',#526,#423,#424);
#343=AXIS2_PLACEMENT_3D('',#527,#425,#426);
#344=AXIS2_PLACEMENT_3D('',#530,#428,#429);
#345=AXIS2_PLACEMENT_3D('',#531,#430,#431);
#346=AXIS2_PLACEMENT_3D('',#533,#432,#433);
#347=AXIS2_PLACEMENT_3D('',#534,#434,#435);
#348=AXIS2_PLACEMENT_3D('',#535,#436,#437);
#349=AXIS2_PLACEMENT_3D('',#536,#438,#439);
#350=AXIS2_PLACEMENT_3D('',#538,#440,#441);
#351=AXIS2_PLACEMENT_3D('',#539,#442,#443);
#352=AXIS2_PLACEMENT_3D('',#540,#444,#445);
#353=AXIS2_PLACEMENT_3D('',#541,#446,#447);
#354=DIRECTION('axis',(0.,0.,1.));
#355=DIRECTION('refdir',(1.,0.,0.));
#356=DIRECTION('center_axis',(1.,0.,0.));
#357=DIRECTION('ref_axis',(0.,0.,-1.));
#358=DIRECTION('center_axis',(1.,0.,0.));
#359=DIRECTION('ref_axis',(0.,1.,0.));
#360=DIRECTION('',(0.,1.,0.));
#361=DIRECTION('center_axis',(0.,0.,-1.));
#362=DIRECTION('ref_axis',(0.,1.,0.));
#363=DIRECTION('',(1.,0.,0.));
#364=DIRECTION('',(0.,1.,0.));
#365=DIRECTION('',(-1.,0.,0.));
#366=DIRECTION('center_axis',(1.,0.,0.));
#367=DIRECTION('ref_axis',(0.,0.,-1.));
#368=DIRECTION('center_axis',(1.,0.,0.));
#369=DIRECTION('ref_axis',(0.,1.,0.));
#370=DIRECTION('',(0.,-1.,0.));
#371=DIRECTION('center_axis',(0.,0.,1.));
#372=DIRECTION('ref_axis',(0.,-1.,0.));
#373=DIRECTION('',(1.,0.,0.));
#374=DIRECTION('',(0.,-1.,0.));
#375=DIRECTION('',(-1.,0.,0.));
#376=DIRECTION('center_axis',(1.,0.,0.));
#377=DIRECTION('ref_axis',(0.,1.,0.));
#378=DIRECTION('center_axis',(1.,0.,0.));
#379=DIRECTION('ref_axis',(0.,-1.,1.83697019872103E-16));
#380=DIRECTION('',(-1.,0.,0.));
#381=DIRECTION('center_axis',(-1.,0.,0.));
#382=DIRECTION('ref_axis',(0.,-1.,0.));
#383=DIRECTION('center_axis',(-1.,0.,0.));
#384=DIRECTION('ref_axis',(0.,-1.,0.));
#385=DIRECTION('center_axis',(-1.,0.,0.));
#386=DIRECTION('ref_axis',(0.,-1.,0.));
#387=DIRECTION('center_axis',(1.,0.,0.));
#388=DIRECTION('ref_axis',(0.,-1.,1.83697019872103E-16));
#389=DIRECTION('center_axis',(1.,0.,0.));
#390=DIRECTION('ref_axis',(0.,-1.,0.));
#391=DIRECTION('center_axis',(1.,0.,0.));
#392=DIRECTION('ref_axis',(0.,-1.,0.));
#393=DIRECTION('center_axis',(1.,0.,0.));
#394=DIRECTION('ref_axis',(0.,0.,1.));
#395=DIRECTION('center_axis',(1.,0.,0.));
#396=DIRECTION('ref_axis',(0.,0.,1.));
#397=DIRECTION('',(-0.707106781186554,-8.65956056235486E-17,0.707106781186541));
#398=DIRECTION('center_axis',(-1.,0.,0.));
#399=DIRECTION('ref_axis',(0.,0.,1.));
#400=DIRECTION('center_axis',(1.,0.,0.));
#401=DIRECTION('ref_axis',(0.,0.,-1.));
#402=DIRECTION('center_axis',(-1.,0.,0.));
#403=DIRECTION('ref_axis',(0.,-1.,0.));
#404=DIRECTION('center_axis',(-1.,0.,0.));
#405=DIRECTION('ref_axis',(0.,0.,1.));
#406=DIRECTION('center_axis',(1.,0.,0.));
#407=DIRECTION('ref_axis',(0.,0.,-1.));
#408=DIRECTION('center_axis',(1.,0.,0.));
#409=DIRECTION('ref_axis',(0.,0.,-1.));
#410=DIRECTION('',(1.,0.,0.));
#411=DIRECTION('center_axis',(-1.,0.,0.));
#412=DIRECTION('ref_axis',(0.,-1.,0.));
#413=DIRECTION('',(-0.707106781186549,0.707106781186546,8.65956056235492E-17));
#414=DIRECTION('center_axis',(1.,0.,0.));
#415=DIRECTION('ref_axis',(0.,-1.,0.));
#416=DIRECTION('center_axis',(1.,0.,0.));
#417=DIRECTION('ref_axis',(0.,-1.,0.));
#418=DIRECTION('center_axis',(1.,0.,0.));
#419=DIRECTION('ref_axis',(0.,1.,0.));
#420=DIRECTION('',(-1.,0.,0.));
#421=DIRECTION('center_axis',(-1.,0.,0.));
#422=DIRECTION('ref_axis',(0.,-1.,0.));
#423=DIRECTION('center_axis',(-1.,0.,0.));
#424=DIRECTION('ref_axis',(0.,-1.,0.));
#425=DIRECTION('center_axis',(1.,0.,0.));
#426=DIRECTION('ref_axis',(0.,-1.,0.));
#427=DIRECTION('',(-0.707106781186548,-0.707106781186547,-8.65956056235492E-17));
#428=DIRECTION('center_axis',(1.,0.,0.));
#429=DIRECTION('ref_axis',(0.,-1.,0.));
#430=DIRECTION('center_axis',(-1.,0.,0.));
#431=DIRECTION('ref_axis',(0.,0.,1.));
#432=DIRECTION('center_axis',(-1.,0.,0.));
#433=DIRECTION('ref_axis',(0.,-1.,1.83697019872103E-16));
#434=DIRECTION('center_axis',(1.,0.,0.));
#435=DIRECTION('ref_axis',(0.,1.,1.22464679914735E-16));
#436=DIRECTION('center_axis',(1.,0.,0.));
#437=DIRECTION('ref_axis',(0.,-1.,0.));
#438=DIRECTION('center_axis',(-1.,0.,0.));
#439=DIRECTION('ref_axis',(0.,0.,1.));
#440=DIRECTION('center_axis',(-1.,0.,0.));
#441=DIRECTION('ref_axis',(0.,0.,-1.));
#442=DIRECTION('center_axis',(1.,0.,0.));
#443=DIRECTION('ref_axis',(0.,0.,-1.));
#444=DIRECTION('center_axis',(0.,-1.,-1.22464679914735E-16));
#445=DIRECTION('ref_axis',(0.,-1.22464679914735E-16,1.));
#446=DIRECTION('center_axis',(-1.,0.,0.));
#447=DIRECTION('ref_axis',(0.,0.,-1.));
#448=DIRECTION('',(0.707106781186544,-8.65956056235497E-17,-0.707106781186551));
#449=CARTESIAN_POINT('',(0.,0.,0.));
#450=CARTESIAN_POINT('Origin',(-19.,1.21545546068212,61.9396110542477));
#451=CARTESIAN_POINT('',(-19.,13.0120136796731,47.5));
#452=CARTESIAN_POINT('',(-19.,-13.0120136796731,47.5));
#453=CARTESIAN_POINT('Origin',(-19.,0.,0.));
#454=CARTESIAN_POINT('',(-19.,71.4687810881088,47.5));
#455=CARTESIAN_POINT('Origin',(-34.,-69.0378701667446,47.5));
#456=CARTESIAN_POINT('',(-33.5,13.0120136796731,47.5));
#457=CARTESIAN_POINT('',(-19.,13.0120136796731,47.5));
#458=CARTESIAN_POINT('',(-34.,10.9687054842401,47.5));
#459=CARTESIAN_POINT('Ctrl Pts',(-34.,10.9687054842401,47.5));
#460=CARTESIAN_POINT('Ctrl Pts',(-33.771301573375,11.9851470610504,47.5));
#461=CARTESIAN_POINT('Ctrl Pts',(-33.5,13.0120136796731,47.5));
#462=CARTESIAN_POINT('',(-34.,-10.9687054842401,47.5));
#463=CARTESIAN_POINT('',(-34.,-9.89393508337227,47.5));
#464=CARTESIAN_POINT('',(-33.5,-13.0120136796731,47.5));
#465=CARTESIAN_POINT('Ctrl Pts',(-33.5,-13.0120136796731,47.5));
#466=CARTESIAN_POINT('Ctrl Pts',(-33.771301573375,-11.9851470610504,47.5));
#467=CARTESIAN_POINT('Ctrl Pts',(-34.,-10.9687054842401,47.5));
#468=CARTESIAN_POINT('',(-19.,-13.0120136796731,47.5));
#469=CARTESIAN_POINT('Origin',(-19.,1.21545546068212,-64.467758444217));
#470=CARTESIAN_POINT('',(-19.,-13.0120136796731,-47.5));
#471=CARTESIAN_POINT('',(-19.,13.0120136796731,-47.5));
#472=CARTESIAN_POINT('Origin',(-19.,0.,0.));
#473=CARTESIAN_POINT('',(-19.,-69.0378701667446,-47.5));
#474=CARTESIAN_POINT('Origin',(-34.,71.4687810881088,-47.5));
#475=CARTESIAN_POINT('',(-33.5,-13.0120136796731,-47.5));
#476=CARTESIAN_POINT('',(-19.,-13.0120136796731,-47.5));
#477=CARTESIAN_POINT('',(-34.,-10.9687054842401,-47.5));
#478=CARTESIAN_POINT('Ctrl Pts',(-34.,-10.9687054842401,-47.5));
#479=CARTESIAN_POINT('Ctrl Pts',(-33.771301573375,-11.9851470610504,-47.5));
#480=CARTESIAN_POINT('Ctrl Pts',(-33.5,-13.0120136796731,-47.5));
#481=CARTESIAN_POINT('',(-34.,10.9687054842401,-47.5));
#482=CARTESIAN_POINT('',(-34.,60.3593905440544,-47.5));
#483=CARTESIAN_POINT('',(-33.5,13.0120136796731,-47.5));
#484=CARTESIAN_POINT('Ctrl Pts',(-33.5,13.0120136796731,-47.5));
#485=CARTESIAN_POINT('Ctrl Pts',(-33.771301573375,11.9851470610504,-47.5));
#486=CARTESIAN_POINT('Ctrl Pts',(-34.,10.9687054842401,-47.5));
#487=CARTESIAN_POINT('',(-19.,13.0120136796731,-47.5));
#488=CARTESIAN_POINT('Origin',(-19.,0.,0.));
#489=CARTESIAN_POINT('',(-4.80000000000001,-49.25,-6.03138548580072E-15));
#490=CARTESIAN_POINT('',(-4.80000000000001,-6.03138548580072E-15,49.25));
#491=CARTESIAN_POINT('Origin',(-4.80000000000001,0.,0.));
#492=CARTESIAN_POINT('',(-33.5,-49.25,-6.03138548580072E-15));
#493=CARTESIAN_POINT('',(-19.,-49.25,-6.03138548580072E-15));
#494=CARTESIAN_POINT('Origin',(-33.5,0.,0.));
#495=CARTESIAN_POINT('Origin',(-33.5,0.,0.));
#496=CARTESIAN_POINT('Origin',(-33.5,0.,0.));
#497=CARTESIAN_POINT('Origin',(-4.80000000000001,0.,0.));
#498=CARTESIAN_POINT('Origin',(-33.75,0.,0.));
#499=CARTESIAN_POINT('Origin',(-34.,0.,0.));
#500=CARTESIAN_POINT('Origin',(-0.250000000000004,0.,0.));
#501=CARTESIAN_POINT('',(0.,4.4837993257182E-15,-36.613));
#502=CARTESIAN_POINT('Origin',(0.,0.,0.));
#503=CARTESIAN_POINT('',(-0.500000000000007,-4.42256698576084E-15,-36.113));
#504=CARTESIAN_POINT('',(-0.250000000000004,4.45318315573952E-15,-36.363));
#505=CARTESIAN_POINT('Origin',(-0.500000000000007,0.,0.));
#506=CARTESIAN_POINT('Origin',(0.,0.,0.));
#507=CARTESIAN_POINT('',(0.,53.,-6.49062803548097E-15));
#508=CARTESIAN_POINT('Origin',(0.,0.,0.));
#509=CARTESIAN_POINT('Origin',(121.093520174119,0.,0.));
#510=CARTESIAN_POINT('',(-32.,-4.42256698576084E-15,36.113));
#511=CARTESIAN_POINT('',(-32.,-4.42256698576084E-15,-36.113));
#512=CARTESIAN_POINT('Origin',(-32.,0.,0.));
#513=CARTESIAN_POINT('Origin',(-32.,0.,0.));
#514=CARTESIAN_POINT('',(121.093520174119,-4.42256698576084E-15,-36.113));
#515=CARTESIAN_POINT('Origin',(-0.25,0.,0.));
#516=CARTESIAN_POINT('',(-0.5,53.5,6.55186037543834E-15));
#517=CARTESIAN_POINT('',(-0.25,53.25,6.52124420545966E-15));
#518=CARTESIAN_POINT('',(-0.5,-53.5,-6.55186037543834E-15));
#519=CARTESIAN_POINT('Origin',(-0.5,0.,0.));
#520=CARTESIAN_POINT('Origin',(-0.5,0.,0.));
#521=CARTESIAN_POINT('Origin',(-2.00000000000001,0.,0.));
#522=CARTESIAN_POINT('',(-3.50000000000001,-53.5,-6.55186037543834E-15));
#523=CARTESIAN_POINT('',(-2.00000000000001,-53.5,-6.55186037543834E-15));
#524=CARTESIAN_POINT('',(-3.50000000000001,53.5,-6.55186037543834E-15));
#525=CARTESIAN_POINT('Origin',(-3.50000000000001,0.,0.));
#526=CARTESIAN_POINT('Origin',(-3.50000000000001,0.,0.));
#527=CARTESIAN_POINT('Origin',(-3.75000000000001,0.,0.));
#528=CARTESIAN_POINT('',(-4.00000000000001,53.,6.49062803548097E-15));
#529=CARTESIAN_POINT('',(-3.75000000000001,53.25,6.52124420545966E-15));
#530=CARTESIAN_POINT('Origin',(-4.00000000000001,0.,0.));
#531=CARTESIAN_POINT('Origin',(-4.00000000000001,53.5,0.));
#532=CARTESIAN_POINT('',(-4.00000000000001,-6.1293572297325E-15,50.05));
#533=CARTESIAN_POINT('Origin',(-4.00000000000001,0.,0.));
#534=CARTESIAN_POINT('Origin',(-33.75,0.,0.));
#535=CARTESIAN_POINT('Origin',(-34.,0.,0.));
#536=CARTESIAN_POINT('Origin',(-34.,49.25,0.));
#537=CARTESIAN_POINT('',(-34.,4.66749634559031E-15,38.113));
#538=CARTESIAN_POINT('Origin',(-34.,0.,0.));
#539=CARTESIAN_POINT('Origin',(-4.80000000000001,0.,0.));
#540=CARTESIAN_POINT('Origin',(-4.80000000000001,-6.1293572297325E-15,50.05));
#541=CARTESIAN_POINT('Origin',(-33.,0.,0.));
#542=CARTESIAN_POINT('',(-33.,4.54503166567557E-15,37.113));
#543=UNCERTAINTY_MEASURE_WITH_UNIT(LENGTH_MEASURE(0.01),#547,
'DISTANCE_ACCURACY_VALUE',
'Maximum model space distance between geometric entities at asserted c
onnectivities');
#544=UNCERTAINTY_MEASURE_WITH_UNIT(LENGTH_MEASURE(0.01),#547,
'DISTANCE_ACCURACY_VALUE',
'Maximum model space distance between geometric entities at asserted c
onnectivities');
#545=(
GEOMETRIC_REPRESENTATION_CONTEXT(3)
GLOBAL_UNCERTAINTY_ASSIGNED_CONTEXT((#543))
GLOBAL_UNIT_ASSIGNED_CONTEXT((#547,#549,#550))
REPRESENTATION_CONTEXT('','3D')
);
#546=(
GEOMETRIC_REPRESENTATION_CONTEXT(3)
GLOBAL_UNCERTAINTY_ASSIGNED_CONTEXT((#544))
GLOBAL_UNIT_ASSIGNED_CONTEXT((#547,#549,#550))
REPRESENTATION_CONTEXT('','3D')
);
#547=(
LENGTH_UNIT()
NAMED_UNIT(*)
SI_UNIT(.MILLI.,.METRE.)
);
#548=(
LENGTH_UNIT()
NAMED_UNIT(*)
SI_UNIT(.CENTI.,.METRE.)
);
#549=(
NAMED_UNIT(*)
PLANE_ANGLE_UNIT()
SI_UNIT($,.RADIAN.)
);
#550=(
NAMED_UNIT(*)
SI_UNIT($,.STERADIAN.)
SOLID_ANGLE_UNIT()
);
#551=SHAPE_DEFINITION_REPRESENTATION(#552,#553);
#552=PRODUCT_DEFINITION_SHAPE('',$,#555);
#553=SHAPE_REPRESENTATION('',(#314),#545);
#554=PRODUCT_DEFINITION_CONTEXT('part definition',#559,'design');
#555=PRODUCT_DEFINITION('3D_R666-E-DN65-DN100_17113170',
'3D_R666-E-DN65-DN100_17113170',#556,#554);
#556=PRODUCT_DEFINITION_FORMATION('',$,#561);
#557=PRODUCT_RELATED_PRODUCT_CATEGORY('3D_R666-E-DN65-DN100_17113170',
'3D_R666-E-DN65-DN100_17113170',(#561));
#558=APPLICATION_PROTOCOL_DEFINITION('international standard',
'automotive_design',2009,#559);
#559=APPLICATION_CONTEXT(
'Core Data for Automotive Mechanical Design Process');
#560=PRODUCT_CONTEXT('part definition',#559,'mechanical');
#561=PRODUCT('3D_R666-E-DN65-DN100_17113170',
'3D_R666-E-DN65-DN100_17113170',$,(#560));
#562=PRESENTATION_STYLE_ASSIGNMENT((#563));
#563=SURFACE_STYLE_USAGE(.BOTH.,#566);
#564=SURFACE_STYLE_RENDERING_WITH_PROPERTIES($,#570,(#565));
#565=SURFACE_STYLE_TRANSPARENT(0.);
#566=SURFACE_SIDE_STYLE('',(#567,#564));
#567=SURFACE_STYLE_FILL_AREA(#568);
#568=FILL_AREA_STYLE('',(#569));
#569=FILL_AREA_STYLE_COLOUR('',#570);
#570=COLOUR_RGB('',0.749019607843137,0.749019607843137,0.749019607843137);
ENDSEC;
END-ISO-10303-21;
