ISO-10303-21;
HEADER;
FILE_DESCRIPTION (( 'STEP AP203' ),
    '1' );
FILE_NAME ('3D_GG4062_6 x5_188769920.STEP',
    '2024-11-05T11:53:06',
    ( '' ),
    ( '' ),
    'SwSTEP 2.0',
    'SolidWorks 2023',
    '' );
FILE_SCHEMA (( 'CONFIG_CONTROL_DESIGN' ));
ENDSEC;

DATA;
#1 = PRODUCT_DEFINITION ( 'UNKNOWN', '', #312, #303 ) ;
#2 = SHAPE_DEFINITION_REPRESENTATION ( #72, #167 ) ;
#3 = ORIENTED_EDGE ( 'NONE', *, *, #70, .T. ) ;
#4 = CALENDAR_DATE ( 2024, 5, 11 ) ;
#5 = ORIENTED_EDGE ( 'NONE', *, *, #223, .T. ) ;
#6 = CC_DESIGN_APPROVAL ( #89, ( #1 ) ) ;
#7 = MECHANICAL_CONTEXT ( 'NONE', #240, 'mechanical' ) ;
#8 = VERTEX_POINT ( 'NONE', #86 ) ;
#9 = ORIENTED_EDGE ( 'NONE', *, *, #306, .T. ) ;
#10 = DIRECTION ( 'NONE',  ( -1.000000000000000000, -0.000000000000000000, -0.000000000000000000 ) ) ;
#11 = AXIS2_PLACEMENT_3D ( 'NONE', #124, #189, #296 ) ;
#12 = CARTESIAN_POINT ( 'NONE',  ( -12.50000000000000000, 0.000000000000000000, 0.000000000000000000 ) ) ;
#13 = CARTESIAN_POINT ( 'NONE',  ( 12.50000000000000000, 0.000000000000000000, 0.000000000000000000 ) ) ;
#14 = LINE ( 'NONE', #271, #277 ) ;
#15 = CARTESIAN_POINT ( 'NONE',  ( -12.50000000000000000, 0.000000000000000000, 0.000000000000000000 ) ) ;
#16 = ADVANCED_FACE ( 'NONE', ( #213, #316 ), #187, .F. ) ;
#17 = CARTESIAN_POINT ( 'NONE',  ( -12.50000000000000000, 3.367778697655221012E-16, -2.750000000000000000 ) ) ;
#18 = CARTESIAN_POINT ( 'NONE',  ( -5.000000000000000000, 0.000000000000000000, 0.000000000000000000 ) ) ;
#19 = EDGE_CURVE ( 'NONE', #118, #137, #311, .T. ) ;
#20 = DIRECTION ( 'NONE',  ( -1.000000000000000000, -0.000000000000000000, -0.000000000000000000 ) ) ;
#21 = AXIS2_PLACEMENT_3D ( 'NONE', #292, #92, #36 ) ;
#22 = SECURITY_CLASSIFICATION ( '', '', #156 ) ;
#23 = LINE ( 'NONE', #73, #154 ) ;
#24 = EDGE_CURVE ( 'NONE', #8, #268, #259, .T. ) ;
#25 = DIRECTION ( 'NONE',  ( 0.000000000000000000, 0.000000000000000000, 1.000000000000000000 ) ) ;
#26 = ORIENTED_EDGE ( 'NONE', *, *, #283, .T. ) ;
#27 = CC_DESIGN_PERSON_AND_ORGANIZATION_ASSIGNMENT ( #257, #111, ( #22 ) ) ;
#28 = LOCAL_TIME ( 12, 53, 6.000000000000000000, #307 ) ;
#29 = ORIENTED_EDGE ( 'NONE', *, *, #209, .T. ) ;
#30 = ORIENTED_EDGE ( 'NONE', *, *, #199, .T. ) ;
#31 = EDGE_CURVE ( 'NONE', #80, #57, #120, .T. ) ;
#32 = APPROVAL_ROLE ( '' ) ;
#33 = VERTEX_POINT ( 'NONE', #144 ) ;
#34 = APPROVAL_ROLE ( '' ) ;
#35 = FACE_OUTER_BOUND ( 'NONE', #214, .T. ) ;
#36 = DIRECTION ( 'NONE',  ( 0.000000000000000000, 0.000000000000000000, 1.000000000000000000 ) ) ;
#37 = VECTOR ( 'NONE', #66, 1000.000000000000000 ) ;
#38 = DIRECTION ( 'NONE',  ( 0.000000000000000000, 0.000000000000000000, 1.000000000000000000 ) ) ;
#39 = DIRECTION ( 'NONE',  ( -1.000000000000000000, -0.000000000000000000, -0.000000000000000000 ) ) ;
#40 = EDGE_CURVE ( 'NONE', #83, #239, #333, .T. ) ;
#41 = CARTESIAN_POINT ( 'NONE',  ( -12.50000000000000000, 0.000000000000000000, 0.000000000000000000 ) ) ;
#42 = AXIS2_PLACEMENT_3D ( 'NONE', #217, #96, #193 ) ;
#43 = PRODUCT ( '3D_GG4062_6 x5_188769920', '3D_GG4062_6 x5_188769920', '', ( #7 ) ) ;
#44 = CARTESIAN_POINT ( 'NONE',  ( 12.50000000000000000, 3.367778697655221012E-16, -2.750000000000000000 ) ) ;
#45 = ADVANCED_FACE ( 'NONE', ( #191 ), #119, .F. ) ;
#46 = DIRECTION ( 'NONE',  ( -1.000000000000000000, -0.000000000000000000, -0.000000000000000000 ) ) ;
#47 = APPROVAL ( #237, 'UNSPECIFIED' ) ;
#48 = LINE ( 'NONE', #251, #334 ) ;
#49 = AXIS2_PLACEMENT_3D ( 'NONE', #18, #284, #198 ) ;
#50 = CYLINDRICAL_SURFACE ( 'NONE', #88, 3.250000000000000000 ) ;
#51 = PERSON_AND_ORGANIZATION ( #262, #131 ) ;
#52 = EDGE_LOOP ( 'NONE', ( #287, #58 ) ) ;
#53 = PERSON_AND_ORGANIZATION ( #262, #131 ) ;
#54 = EDGE_LOOP ( 'NONE', ( #116, #135 ) ) ;
#55 = AXIS2_PLACEMENT_3D ( 'NONE', #99, #327, #148 ) ;
#56 = CALENDAR_DATE ( 2024, 5, 11 ) ;
#57 = VERTEX_POINT ( 'NONE', #168 ) ;
#58 = ORIENTED_EDGE ( 'NONE', *, *, #223, .F. ) ;
#59 = DATE_AND_TIME ( #202, #225 ) ;
#60 = ORIENTED_EDGE ( 'NONE', *, *, #40, .F. ) ;
#61 = APPROVAL_PERSON_ORGANIZATION ( #51, #89, #32 ) ;
#62 = DIRECTION ( 'NONE',  ( 0.000000000000000000, 0.000000000000000000, -1.000000000000000000 ) ) ;
#63 = CYLINDRICAL_SURFACE ( 'NONE', #42, 2.750000000000000000 ) ;
#64 = ORIENTED_EDGE ( 'NONE', *, *, #70, .F. ) ;
#65 = DIRECTION ( 'NONE',  ( 0.000000000000000000, 0.000000000000000000, -1.000000000000000000 ) ) ;
#66 = DIRECTION ( 'NONE',  ( -1.000000000000000000, -0.000000000000000000, -0.000000000000000000 ) ) ;
#67 = DIRECTION ( 'NONE',  ( 0.000000000000000000, 0.000000000000000000, 1.000000000000000000 ) ) ;
#68 = DIRECTION ( 'NONE',  ( 0.000000000000000000, 0.000000000000000000, 1.000000000000000000 ) ) ;
#69 = CARTESIAN_POINT ( 'NONE',  ( 5.000000000000000888, 0.000000000000000000, 0.000000000000000000 ) ) ;
#70 = EDGE_CURVE ( 'NONE', #289, #33, #249, .T. ) ;
#71 = AXIS2_PLACEMENT_3D ( 'NONE', #173, #46, #130 ) ;
#72 = PRODUCT_DEFINITION_SHAPE ( 'NONE', 'NONE',  #1 ) ;
#73 = CARTESIAN_POINT ( 'NONE',  ( -12.50000000000000000, 3.367778697655221012E-16, -2.750000000000000000 ) ) ;
#74 = LINE ( 'NONE', #17, #278 ) ;
#75 = AXIS2_PLACEMENT_3D ( 'NONE', #90, #39, #145 ) ;
#76 = CC_DESIGN_SECURITY_CLASSIFICATION ( #22, ( #312 ) ) ;
#77 = EDGE_CURVE ( 'NONE', #57, #80, #181, .T. ) ;
#78 = PERSON_AND_ORGANIZATION_ROLE ( 'design_supplier' ) ;
#79 = PERSON_AND_ORGANIZATION ( #262, #131 ) ;
#80 = VERTEX_POINT ( 'NONE', #325 ) ;
#81 = APPROVAL_DATE_TIME ( #59, #47 ) ;
#82 = EDGE_CURVE ( 'NONE', #289, #235, #108, .T. ) ;
#83 = VERTEX_POINT ( 'NONE', #294 ) ;
#84 = CARTESIAN_POINT ( 'NONE',  ( 0.000000000000000000, 0.000000000000000000, 0.000000000000000000 ) ) ;
#85 = EDGE_LOOP ( 'NONE', ( #91, #5, #9, #112 ) ) ;
#86 = CARTESIAN_POINT ( 'NONE',  ( 12.50000000000000000, 0.000000000000000000, 2.750000000000000000 ) ) ;
#87 = ADVANCED_FACE ( 'NONE', ( #93 ), #275, .T. ) ;
#88 = AXIS2_PLACEMENT_3D ( 'NONE', #151, #250, #68 ) ;
#89 = APPROVAL ( #184, 'UNSPECIFIED' ) ;
#90 = CARTESIAN_POINT ( 'NONE',  ( -5.000000000000000000, 0.000000000000000000, 0.000000000000000000 ) ) ;
#91 = ORIENTED_EDGE ( 'NONE', *, *, #331, .F. ) ;
#92 = DIRECTION ( 'NONE',  ( -1.000000000000000000, -0.000000000000000000, -0.000000000000000000 ) ) ;
#93 = FACE_OUTER_BOUND ( 'NONE', #272, .T. ) ;
#94 = AXIS2_PLACEMENT_3D ( 'NONE', #276, #220, #248 ) ;
#95 = VECTOR ( 'NONE', #254, 1000.000000000000000 ) ;
#96 = DIRECTION ( 'NONE',  ( -1.000000000000000000, -0.000000000000000000, -0.000000000000000000 ) ) ;
#97 =( NAMED_UNIT ( * ) SI_UNIT ( $, .STERADIAN. ) SOLID_ANGLE_UNIT ( ) );
#98 = EDGE_CURVE ( 'NONE', #239, #83, #218, .T. ) ;
#99 = CARTESIAN_POINT ( 'NONE',  ( -12.50000000000000000, 0.000000000000000000, 0.000000000000000000 ) ) ;
#100 = AXIS2_PLACEMENT_3D ( 'NONE', #41, #324, #126 ) ;
#101 = DIRECTION ( 'NONE',  ( -1.000000000000000000, -0.000000000000000000, -0.000000000000000000 ) ) ;
#102 = LOCAL_TIME ( 12, 53, 6.000000000000000000, #332 ) ;
#103 = DIRECTION ( 'NONE',  ( -1.000000000000000000, -0.000000000000000000, -0.000000000000000000 ) ) ;
#104 = DIRECTION ( 'NONE',  ( 0.000000000000000000, 0.000000000000000000, 1.000000000000000000 ) ) ;
#105 = MANIFOLD_SOLID_BREP ( 'Rotation1', #300 ) ;
#106 = ADVANCED_FACE ( 'NONE', ( #322 ), #188, .F. ) ;
#107 = APPLICATION_PROTOCOL_DEFINITION ( 'international standard', 'config_control_design', 1994, #206 ) ;
#108 = CIRCLE ( 'NONE', #21, 3.250000000000000000 ) ;
#109 = COORDINATED_UNIVERSAL_TIME_OFFSET ( 1, 0, .AHEAD. ) ;
#110 = ORIENTED_EDGE ( 'NONE', *, *, #19, .T. ) ;
#111 = PERSON_AND_ORGANIZATION_ROLE ( 'classification_officer' ) ;
#112 = ORIENTED_EDGE ( 'NONE', *, *, #247, .F. ) ;
#113 = PERSON_AND_ORGANIZATION ( #262, #131 ) ;
#114 = CC_DESIGN_DATE_AND_TIME_ASSIGNMENT ( #208, #140, ( #1 ) ) ;
#115 = EDGE_LOOP ( 'NONE', ( #179, #30, #136, #159 ) ) ;
#116 = ORIENTED_EDGE ( 'NONE', *, *, #236, .F. ) ;
#117 = ORIENTED_EDGE ( 'NONE', *, *, #209, .F. ) ;
#118 = VERTEX_POINT ( 'NONE', #273 ) ;
#119 = PLANE ( 'NONE',  #11 ) ;
#120 = CIRCLE ( 'NONE', #100, 2.750000000000000000 ) ;
#121 = LOCAL_TIME ( 12, 53, 6.000000000000000000, #234 ) ;
#122 = DIRECTION ( 'NONE',  ( -1.000000000000000000, -0.000000000000000000, -0.000000000000000000 ) ) ;
#123 = ORIENTED_EDGE ( 'NONE', *, *, #199, .F. ) ;
#124 = CARTESIAN_POINT ( 'NONE',  ( 12.50000000000000000, 2.750000000000000000, 0.000000000000000000 ) ) ;
#125 = DIRECTION ( 'NONE',  ( -1.000000000000000000, -0.000000000000000000, -0.000000000000000000 ) ) ;
#126 = DIRECTION ( 'NONE',  ( 0.000000000000000000, 0.000000000000000000, 1.000000000000000000 ) ) ;
#127 = EDGE_CURVE ( 'NONE', #235, #160, #14, .T. ) ;
#128 = DIRECTION ( 'NONE',  ( 0.000000000000000000, 0.000000000000000000, 1.000000000000000000 ) ) ;
#129 = CARTESIAN_POINT ( 'NONE',  ( -12.50000000000000000, 0.000000000000000000, 2.750000000000000000 ) ) ;
#130 = DIRECTION ( 'NONE',  ( 0.000000000000000000, 0.000000000000000000, 1.000000000000000000 ) ) ;
#131 = ORGANIZATION ( 'UNSPECIFIED', 'UNSPECIFIED', '' ) ;
#132 = PLANE ( 'NONE',  #166 ) ;
#133 = DATE_AND_TIME ( #56, #28 ) ;
#134 = CIRCLE ( 'NONE', #246, 2.750000000000000000 ) ;
#135 = ORIENTED_EDGE ( 'NONE', *, *, #82, .F. ) ;
#136 = ORIENTED_EDGE ( 'NONE', *, *, #77, .F. ) ;
#137 = VERTEX_POINT ( 'NONE', #162 ) ;
#138 = ORIENTED_EDGE ( 'NONE', *, *, #31, .F. ) ;
#139 = LOCAL_TIME ( 12, 53, 6.000000000000000000, #109 ) ;
#140 = DATE_TIME_ROLE ( 'creation_date' ) ;
#141 = ORIENTED_EDGE ( 'NONE', *, *, #98, .T. ) ;
#142 = DIRECTION ( 'NONE',  ( -1.000000000000000000, -0.000000000000000000, -0.000000000000000000 ) ) ;
#143 = DIRECTION ( 'NONE',  ( 1.000000000000000000, 0.000000000000000000, 0.000000000000000000 ) ) ;
#144 = CARTESIAN_POINT ( 'NONE',  ( -5.000000000000000000, 3.980102097228897738E-16, -3.250000000000000000 ) ) ;
#145 = DIRECTION ( 'NONE',  ( 0.000000000000000000, 0.000000000000000000, 1.000000000000000000 ) ) ;
#146 = DIRECTION ( 'NONE',  ( 0.000000000000000000, 0.000000000000000000, 1.000000000000000000 ) ) ;
#147 = DIRECTION ( 'NONE',  ( -1.000000000000000000, -0.000000000000000000, -0.000000000000000000 ) ) ;
#148 = DIRECTION ( 'NONE',  ( 0.000000000000000000, 0.000000000000000000, 1.000000000000000000 ) ) ;
#149 =( LENGTH_UNIT ( ) NAMED_UNIT ( * ) SI_UNIT ( .MILLI., .METRE. ) );
#150 = CARTESIAN_POINT ( 'NONE',  ( 5.000000000000000888, 3.980102097228897738E-16, -3.250000000000000000 ) ) ;
#151 = CARTESIAN_POINT ( 'NONE',  ( -12.50000000000000000, 0.000000000000000000, 0.000000000000000000 ) ) ;
#152 = PERSON_AND_ORGANIZATION_ROLE ( 'creator' ) ;
#153 = ADVANCED_FACE ( 'NONE', ( #222 ), #63, .T. ) ;
#154 = VECTOR ( 'NONE', #172, 1000.000000000000000 ) ;
#155 = EDGE_LOOP ( 'NONE', ( #60, #185 ) ) ;
#156 = SECURITY_CLASSIFICATION_LEVEL ( 'unclassified' ) ;
#157 = ORIENTED_EDGE ( 'NONE', *, *, #127, .T. ) ;
#158 = DIRECTION ( 'NONE',  ( 1.000000000000000000, 0.000000000000000000, 0.000000000000000000 ) ) ;
#159 = ORIENTED_EDGE ( 'NONE', *, *, #283, .F. ) ;
#160 = VERTEX_POINT ( 'NONE', #244 ) ;
#161 = CC_DESIGN_APPROVAL ( #47, ( #312 ) ) ;
#162 = CARTESIAN_POINT ( 'NONE',  ( 5.000000000000000888, 3.367778697655221012E-16, -2.750000000000000000 ) ) ;
#163 = CARTESIAN_POINT ( 'NONE',  ( -12.50000000000000000, 0.000000000000000000, 0.000000000000000000 ) ) ;
#164 = FACE_OUTER_BOUND ( 'NONE', #241, .T. ) ;
#165 = AXIS2_PLACEMENT_3D ( 'NONE', #13, #169, #226 ) ;
#166 = AXIS2_PLACEMENT_3D ( 'NONE', #328, #201, #302 ) ;
#167 = ADVANCED_BREP_SHAPE_REPRESENTATION ( '3D_GG4062_6 x5_188769920', ( #105, #197 ), #170 ) ;
#168 = CARTESIAN_POINT ( 'NONE',  ( -12.50000000000000000, 0.000000000000000000, 2.750000000000000000 ) ) ;
#169 = DIRECTION ( 'NONE',  ( -1.000000000000000000, -0.000000000000000000, -0.000000000000000000 ) ) ;
#170 =( GEOMETRIC_REPRESENTATION_CONTEXT ( 3 ) GLOBAL_UNCERTAINTY_ASSIGNED_CONTEXT ( ( #230 ) ) GLOBAL_UNIT_ASSIGNED_CONTEXT ( ( #149, #232, #97 ) ) REPRESENTATION_CONTEXT ( 'NONE', 'WORKASPACE' ) );
#171 = DIRECTION ( 'NONE',  ( -1.000000000000000000, -0.000000000000000000, -0.000000000000000000 ) ) ;
#172 = DIRECTION ( 'NONE',  ( -1.000000000000000000, -0.000000000000000000, -0.000000000000000000 ) ) ;
#173 = CARTESIAN_POINT ( 'NONE',  ( -5.000000000000000000, 0.000000000000000000, 0.000000000000000000 ) ) ;
#174 = AXIS2_PLACEMENT_3D ( 'NONE', #15, #10, #38 ) ;
#175 = DIRECTION ( 'NONE',  ( -1.000000000000000000, -0.000000000000000000, -0.000000000000000000 ) ) ;
#176 = APPROVAL_DATE_TIME ( #177, #178 ) ;
#177 = DATE_AND_TIME ( #204, #102 ) ;
#178 = APPROVAL ( #315, 'UNSPECIFIED' ) ;
#179 = ORIENTED_EDGE ( 'NONE', *, *, #40, .T. ) ;
#180 = PERSON_AND_ORGANIZATION_ROLE ( 'creator' ) ;
#181 = CIRCLE ( 'NONE', #174, 2.750000000000000000 ) ;
#182 = CIRCLE ( 'NONE', #329, 2.750000000000000000 ) ;
#183 = ORIENTED_EDGE ( 'NONE', *, *, #236, .T. ) ;
#184 = APPROVAL_STATUS ( 'not_yet_approved' ) ;
#185 = ORIENTED_EDGE ( 'NONE', *, *, #98, .F. ) ;
#186 = ADVANCED_FACE ( 'NONE', ( #35 ), #297, .T. ) ;
#187 = PLANE ( 'NONE',  #245 ) ;
#188 = PLANE ( 'NONE',  #266 ) ;
#189 = DIRECTION ( 'NONE',  ( -1.000000000000000000, 0.000000000000000000, -0.000000000000000000 ) ) ;
#190 = DIRECTION ( 'NONE',  ( 0.000000000000000000, 0.000000000000000000, 1.000000000000000000 ) ) ;
#191 = FACE_OUTER_BOUND ( 'NONE', #52, .T. ) ;
#192 = CIRCLE ( 'NONE', #71, 3.250000000000000000 ) ;
#193 = DIRECTION ( 'NONE',  ( 0.000000000000000000, 0.000000000000000000, 1.000000000000000000 ) ) ;
#194 = ADVANCED_FACE ( 'NONE', ( #164 ), #50, .T. ) ;
#195 = FACE_BOUND ( 'NONE', #258, .T. ) ;
#196 = FACE_OUTER_BOUND ( 'NONE', #85, .T. ) ;
#197 = AXIS2_PLACEMENT_3D ( 'NONE', #84, #25, #158 ) ;
#198 = DIRECTION ( 'NONE',  ( 0.000000000000000000, 0.000000000000000000, 1.000000000000000000 ) ) ;
#199 = EDGE_CURVE ( 'NONE', #239, #80, #74, .T. ) ;
#200 = FACE_OUTER_BOUND ( 'NONE', #215, .T. ) ;
#201 = DIRECTION ( 'NONE',  ( -1.000000000000000000, 0.000000000000000000, -0.000000000000000000 ) ) ;
#202 = CALENDAR_DATE ( 2024, 5, 11 ) ;
#203 = CC_DESIGN_PERSON_AND_ORGANIZATION_ASSIGNMENT ( #288, #78, ( #312 ) ) ;
#204 = CALENDAR_DATE ( 2024, 5, 11 ) ;
#205 = ORIENTED_EDGE ( 'NONE', *, *, #247, .T. ) ;
#206 = APPLICATION_CONTEXT ( 'configuration controlled 3d designs of mechanical parts and assemblies' ) ;
#207 = EDGE_LOOP ( 'NONE', ( #314, #310 ) ) ;
#208 = DATE_AND_TIME ( #267, #121 ) ;
#209 = EDGE_CURVE ( 'NONE', #33, #160, #192, .T. ) ;
#210 = APPROVAL_PERSON_ORGANIZATION ( #309, #47, #34 ) ;
#211 = ORIENTED_EDGE ( 'NONE', *, *, #295, .T. ) ;
#212 = APPROVAL_DATE_TIME ( #133, #89 ) ;
#213 = FACE_BOUND ( 'NONE', #155, .T. ) ;
#214 = EDGE_LOOP ( 'NONE', ( #183, #3, #286, #261 ) ) ;
#215 = EDGE_LOOP ( 'NONE', ( #318, #319, #264, #308 ) ) ;
#216 = ADVANCED_FACE ( 'NONE', ( #200 ), #252, .T. ) ;
#217 = CARTESIAN_POINT ( 'NONE',  ( -12.50000000000000000, 0.000000000000000000, 0.000000000000000000 ) ) ;
#218 = CIRCLE ( 'NONE', #75, 2.750000000000000000 ) ;
#219 = APPROVAL_PERSON_ORGANIZATION ( #285, #178, #291 ) ;
#220 = DIRECTION ( 'NONE',  ( -1.000000000000000000, -0.000000000000000000, -0.000000000000000000 ) ) ;
#221 = CARTESIAN_POINT ( 'NONE',  ( -5.000000000000000000, 2.750000000000000000, 0.000000000000000000 ) ) ;
#222 = FACE_OUTER_BOUND ( 'NONE', #115, .T. ) ;
#223 = EDGE_CURVE ( 'NONE', #268, #8, #182, .T. ) ;
#224 = AXIS2_PLACEMENT_3D ( 'NONE', #242, #125, #146 ) ;
#225 = LOCAL_TIME ( 12, 53, 6.000000000000000000, #335 ) ;
#226 = DIRECTION ( 'NONE',  ( 0.000000000000000000, 0.000000000000000000, 1.000000000000000000 ) ) ;
#227 = CARTESIAN_POINT ( 'NONE',  ( -5.000000000000000000, 3.367778697655221012E-16, -2.750000000000000000 ) ) ;
#228 = FACE_OUTER_BOUND ( 'NONE', #54, .T. ) ;
#229 = CC_DESIGN_APPROVAL ( #178, ( #22 ) ) ;
#230 = UNCERTAINTY_MEASURE_WITH_UNIT (LENGTH_MEASURE( 1.000000000000000082E-05 ), #149, 'distance_accuracy_value', 'NONE');
#231 = CYLINDRICAL_SURFACE ( 'NONE', #320, 2.750000000000000000 ) ;
#232 =( NAMED_UNIT ( * ) PLANE_ANGLE_UNIT ( ) SI_UNIT ( $, .RADIAN. ) );
#233 = AXIS2_PLACEMENT_3D ( 'NONE', #321, #270, #67 ) ;
#234 = COORDINATED_UNIVERSAL_TIME_OFFSET ( 1, 0, .AHEAD. ) ;
#235 = VERTEX_POINT ( 'NONE', #279 ) ;
#236 = EDGE_CURVE ( 'NONE', #235, #289, #301, .T. ) ;
#237 = APPROVAL_STATUS ( 'not_yet_approved' ) ;
#238 = AXIS2_PLACEMENT_3D ( 'NONE', #12, #122, #190 ) ;
#239 = VERTEX_POINT ( 'NONE', #227 ) ;
#240 = APPLICATION_CONTEXT ( 'configuration controlled 3d designs of mechanical parts and assemblies' ) ;
#241 = EDGE_LOOP ( 'NONE', ( #64, #265, #157, #117 ) ) ;
#242 = CARTESIAN_POINT ( 'NONE',  ( 5.000000000000000888, 0.000000000000000000, 0.000000000000000000 ) ) ;
#243 = CC_DESIGN_DATE_AND_TIME_ASSIGNMENT ( #313, #263, ( #22 ) ) ;
#244 = CARTESIAN_POINT ( 'NONE',  ( -5.000000000000000000, 0.000000000000000000, 3.250000000000000000 ) ) ;
#245 = AXIS2_PLACEMENT_3D ( 'NONE', #221, #143, #65 ) ;
#246 = AXIS2_PLACEMENT_3D ( 'NONE', #69, #20, #304 ) ;
#247 = EDGE_CURVE ( 'NONE', #137, #118, #134, .T. ) ;
#248 = DIRECTION ( 'NONE',  ( 0.000000000000000000, 0.000000000000000000, 1.000000000000000000 ) ) ;
#249 = LINE ( 'NONE', #323, #37 ) ;
#250 = DIRECTION ( 'NONE',  ( -1.000000000000000000, -0.000000000000000000, -0.000000000000000000 ) ) ;
#251 = CARTESIAN_POINT ( 'NONE',  ( -12.50000000000000000, 0.000000000000000000, 2.750000000000000000 ) ) ;
#252 = CYLINDRICAL_SURFACE ( 'NONE', #55, 2.750000000000000000 ) ;
#253 = AXIS2_PLACEMENT_3D ( 'NONE', #330, #147, #128 ) ;
#254 = DIRECTION ( 'NONE',  ( -1.000000000000000000, -0.000000000000000000, -0.000000000000000000 ) ) ;
#255 = LINE ( 'NONE', #129, #95 ) ;
#256 = ADVANCED_FACE ( 'NONE', ( #196 ), #231, .T. ) ;
#257 = PERSON_AND_ORGANIZATION ( #262, #131 ) ;
#258 = EDGE_LOOP ( 'NONE', ( #110, #205 ) ) ;
#259 = CIRCLE ( 'NONE', #165, 2.750000000000000000 ) ;
#260 = PERSON_AND_ORGANIZATION_ROLE ( 'design_owner' ) ;
#261 = ORIENTED_EDGE ( 'NONE', *, *, #127, .F. ) ;
#262 = PERSON ( 'UNSPECIFIED', 'UNSPECIFIED', 'UNSPECIFIED', ('UNSPECIFIED'), ('UNSPECIFIED'), ('UNSPECIFIED') ) ;
#263 = DATE_TIME_ROLE ( 'classification_date' ) ;
#264 = ORIENTED_EDGE ( 'NONE', *, *, #19, .F. ) ;
#265 = ORIENTED_EDGE ( 'NONE', *, *, #82, .T. ) ;
#266 = AXIS2_PLACEMENT_3D ( 'NONE', #163, #293, #62 ) ;
#267 = CALENDAR_DATE ( 2024, 5, 11 ) ;
#268 = VERTEX_POINT ( 'NONE', #44 ) ;
#269 = CC_DESIGN_PERSON_AND_ORGANIZATION_ASSIGNMENT ( #79, #152, ( #312 ) ) ;
#270 = DIRECTION ( 'NONE',  ( -1.000000000000000000, -0.000000000000000000, -0.000000000000000000 ) ) ;
#271 = CARTESIAN_POINT ( 'NONE',  ( -12.50000000000000000, 0.000000000000000000, 3.250000000000000000 ) ) ;
#272 = EDGE_LOOP ( 'NONE', ( #123, #141, #26, #138 ) ) ;
#273 = CARTESIAN_POINT ( 'NONE',  ( 5.000000000000000888, 0.000000000000000000, 2.750000000000000000 ) ) ;
#274 = CIRCLE ( 'NONE', #49, 3.250000000000000000 ) ;
#275 = CYLINDRICAL_SURFACE ( 'NONE', #233, 2.750000000000000000 ) ;
#276 = CARTESIAN_POINT ( 'NONE',  ( -5.000000000000000000, 0.000000000000000000, 0.000000000000000000 ) ) ;
#277 = VECTOR ( 'NONE', #142, 1000.000000000000000 ) ;
#278 = VECTOR ( 'NONE', #103, 1000.000000000000000 ) ;
#279 = CARTESIAN_POINT ( 'NONE',  ( 5.000000000000000888, 0.000000000000000000, 3.250000000000000000 ) ) ;
#280 = PRODUCT_RELATED_PRODUCT_CATEGORY ( 'detail', '', ( #43 ) ) ;
#281 = DIRECTION ( 'NONE',  ( 0.000000000000000000, 0.000000000000000000, 1.000000000000000000 ) ) ;
#282 = CARTESIAN_POINT ( 'NONE',  ( 12.50000000000000000, 0.000000000000000000, 0.000000000000000000 ) ) ;
#283 = EDGE_CURVE ( 'NONE', #83, #57, #48, .T. ) ;
#284 = DIRECTION ( 'NONE',  ( -1.000000000000000000, -0.000000000000000000, -0.000000000000000000 ) ) ;
#285 = PERSON_AND_ORGANIZATION ( #262, #131 ) ;
#286 = ORIENTED_EDGE ( 'NONE', *, *, #295, .F. ) ;
#287 = ORIENTED_EDGE ( 'NONE', *, *, #24, .F. ) ;
#288 = PERSON_AND_ORGANIZATION ( #262, #131 ) ;
#289 = VERTEX_POINT ( 'NONE', #150 ) ;
#290 = EDGE_LOOP ( 'NONE', ( #211, #29 ) ) ;
#291 = APPROVAL_ROLE ( '' ) ;
#292 = CARTESIAN_POINT ( 'NONE',  ( 5.000000000000000888, 0.000000000000000000, 0.000000000000000000 ) ) ;
#293 = DIRECTION ( 'NONE',  ( 1.000000000000000000, 0.000000000000000000, 0.000000000000000000 ) ) ;
#294 = CARTESIAN_POINT ( 'NONE',  ( -5.000000000000000000, 0.000000000000000000, 2.750000000000000000 ) ) ;
#295 = EDGE_CURVE ( 'NONE', #160, #33, #274, .T. ) ;
#296 = DIRECTION ( 'NONE',  ( -0.000000000000000000, 0.000000000000000000, 1.000000000000000000 ) ) ;
#297 = CYLINDRICAL_SURFACE ( 'NONE', #238, 3.250000000000000000 ) ;
#298 = CC_DESIGN_PERSON_AND_ORGANIZATION_ASSIGNMENT ( #113, #260, ( #43 ) ) ;
#299 = CARTESIAN_POINT ( 'NONE',  ( -12.50000000000000000, 0.000000000000000000, 0.000000000000000000 ) ) ;
#300 = CLOSED_SHELL ( 'NONE', ( #216, #186, #153, #106, #87, #16, #194, #317, #256, #45 ) ) ;
#301 = CIRCLE ( 'NONE', #253, 3.250000000000000000 ) ;
#302 = DIRECTION ( 'NONE',  ( -0.000000000000000000, 0.000000000000000000, 1.000000000000000000 ) ) ;
#303 = DESIGN_CONTEXT ( 'detailed design', #206, 'design' ) ;
#304 = DIRECTION ( 'NONE',  ( 0.000000000000000000, 0.000000000000000000, 1.000000000000000000 ) ) ;
#305 = APPLICATION_PROTOCOL_DEFINITION ( 'international standard', 'config_control_design', 1994, #240 ) ;
#306 = EDGE_CURVE ( 'NONE', #8, #118, #255, .T. ) ;
#307 = COORDINATED_UNIVERSAL_TIME_OFFSET ( 1, 0, .AHEAD. ) ;
#308 = ORIENTED_EDGE ( 'NONE', *, *, #306, .F. ) ;
#309 = PERSON_AND_ORGANIZATION ( #262, #131 ) ;
#310 = ORIENTED_EDGE ( 'NONE', *, *, #31, .T. ) ;
#311 = CIRCLE ( 'NONE', #224, 2.750000000000000000 ) ;
#312 = PRODUCT_DEFINITION_FORMATION_WITH_SPECIFIED_SOURCE ( 'ANY', '', #43, .NOT_KNOWN. ) ;
#313 = DATE_AND_TIME ( #4, #139 ) ;
#314 = ORIENTED_EDGE ( 'NONE', *, *, #77, .T. ) ;
#315 = APPROVAL_STATUS ( 'not_yet_approved' ) ;
#316 = FACE_OUTER_BOUND ( 'NONE', #290, .T. ) ;
#317 = ADVANCED_FACE ( 'NONE', ( #228, #195 ), #132, .F. ) ;
#318 = ORIENTED_EDGE ( 'NONE', *, *, #24, .T. ) ;
#319 = ORIENTED_EDGE ( 'NONE', *, *, #331, .T. ) ;
#320 = AXIS2_PLACEMENT_3D ( 'NONE', #299, #171, #281 ) ;
#321 = CARTESIAN_POINT ( 'NONE',  ( -12.50000000000000000, 0.000000000000000000, 0.000000000000000000 ) ) ;
#322 = FACE_OUTER_BOUND ( 'NONE', #207, .T. ) ;
#323 = CARTESIAN_POINT ( 'NONE',  ( -12.50000000000000000, 3.980102097228897738E-16, -3.250000000000000000 ) ) ;
#324 = DIRECTION ( 'NONE',  ( -1.000000000000000000, -0.000000000000000000, -0.000000000000000000 ) ) ;
#325 = CARTESIAN_POINT ( 'NONE',  ( -12.50000000000000000, 3.367778697655221012E-16, -2.750000000000000000 ) ) ;
#326 = CC_DESIGN_PERSON_AND_ORGANIZATION_ASSIGNMENT ( #53, #180, ( #1 ) ) ;
#327 = DIRECTION ( 'NONE',  ( -1.000000000000000000, -0.000000000000000000, -0.000000000000000000 ) ) ;
#328 = CARTESIAN_POINT ( 'NONE',  ( 5.000000000000000000, 3.250000000000000000, 0.000000000000000000 ) ) ;
#329 = AXIS2_PLACEMENT_3D ( 'NONE', #282, #101, #104 ) ;
#330 = CARTESIAN_POINT ( 'NONE',  ( 5.000000000000000888, 0.000000000000000000, 0.000000000000000000 ) ) ;
#331 = EDGE_CURVE ( 'NONE', #268, #137, #23, .T. ) ;
#332 = COORDINATED_UNIVERSAL_TIME_OFFSET ( 1, 0, .AHEAD. ) ;
#333 = CIRCLE ( 'NONE', #94, 2.750000000000000000 ) ;
#334 = VECTOR ( 'NONE', #175, 1000.000000000000000 ) ;
#335 = COORDINATED_UNIVERSAL_TIME_OFFSET ( 1, 0, .AHEAD. ) ;
ENDSEC;
END-ISO-10303-21;
