ISO-10303-21;
HEADER;
FILE_DESCRIPTION (( 'STEP AP203' ),
    '1' );
FILE_NAME ('3D_R1650_33.7x2_17351200.STEP',
    '2024-08-03T08:51:14',
    ( '' ),
    ( '' ),
    'SwSTEP 2.0',
    'SolidWorks 2024',
    '' );
FILE_SCHEMA (( 'CONFIG_CONTROL_DESIGN' ));
ENDSEC;

DATA;
#1 = DIRECTION ( 'NONE',  ( 0.000000000000000000, 0.000000000000000000, 1.000000000000000000 ) ) ;
#2 = CARTESIAN_POINT ( 'NONE',  ( -37.99999999999998579, 0.000000000000000000, -2.109423746787796480E-14 ) ) ;
#3 = ORIENTED_EDGE ( 'NONE', *, *, #24, .T. ) ;
#4 = PERSON_AND_ORGANIZATION ( #150, #149 ) ;
#5 = CARTESIAN_POINT ( 'NONE',  ( 0.000000000000000000, 0.000000000000000000, 0.000000000000000000 ) ) ;
#6 = APPLICATION_CONTEXT ( 'configuration controlled 3d designs of mechanical parts and assemblies' ) ;
#7 = FACE_OUTER_BOUND ( 'NONE', #213, .T. ) ;
#8 = COORDINATED_UNIVERSAL_TIME_OFFSET ( 1, 0, .AHEAD. ) ;
#9 = DIRECTION ( 'NONE',  ( -0.7071067811865443531, 0.000000000000000000, 0.7071067811865506814 ) ) ;
#10 = APPROVAL_PERSON_ORGANIZATION ( #31, #12, #141 ) ;
#11 = CARTESIAN_POINT ( 'NONE',  ( -26.87005768508893055, 0.000000000000000000, -26.87005768508866410 ) ) ;
#12 = APPROVAL ( #92, 'UNSPECIFIED' ) ;
#13 = ORIENTED_EDGE ( 'NONE', *, *, #24, .F. ) ;
#14 = CIRCLE ( 'NONE', #33, 16.85000000000000142 ) ;
#15 = CC_DESIGN_PERSON_AND_ORGANIZATION_ASSIGNMENT ( #182, #125, ( #145 ) ) ;
#16 = DATE_AND_TIME ( #189, #113 ) ;
#17 = ORIENTED_EDGE ( 'NONE', *, *, #45, .F. ) ;
#18 = ORIENTED_EDGE ( 'NONE', *, *, #56, .T. ) ;
#19 = ADVANCED_FACE ( 'NONE', ( #152 ), #223, .F. ) ;
#20 = CARTESIAN_POINT ( 'NONE',  ( -26.87005768508893055, 0.000000000000000000, -26.87005768508866410 ) ) ;
#21 = AXIS2_PLACEMENT_3D ( 'NONE', #183, #158, #91 ) ;
#22 = VERTEX_POINT ( 'NONE', #57 ) ;
#23 = DIRECTION ( 'NONE',  ( 1.000000000000000000, 0.000000000000000000, 5.551115123125781716E-16 ) ) ;
#24 = EDGE_CURVE ( 'NONE', #63, #193, #14, .T. ) ;
#25 = DIRECTION ( 'NONE',  ( 1.000000000000000000, 0.000000000000000000, 5.551115123125781716E-16 ) ) ;
#26 = AXIS2_PLACEMENT_3D ( 'NONE', #170, #115, #1 ) ;
#27 = DIRECTION ( 'NONE',  ( -5.551115123125782702E-16, 0.000000000000000000, 1.000000000000000000 ) ) ;
#28 = AXIS2_PLACEMENT_3D ( 'NONE', #105, #81, #64 ) ;
#29 = CARTESIAN_POINT ( 'NONE',  ( -37.99999999999998579, 0.000000000000000000, -3.469446951953614189E-15 ) ) ;
#30 = DIRECTION ( 'NONE',  ( 0.000000000000000000, 1.000000000000000000, 0.000000000000000000 ) ) ;
#31 = PERSON_AND_ORGANIZATION ( #150, #149 ) ;
#32 = APPROVAL_DATE_TIME ( #243, #12 ) ;
#33 = AXIS2_PLACEMENT_3D ( 'NONE', #192, #99, #169 ) ;
#34 = CC_DESIGN_APPROVAL ( #12, ( #145 ) ) ;
#35 = CC_DESIGN_DATE_AND_TIME_ASSIGNMENT ( #246, #87, ( #222 ) ) ;
#36 = SHAPE_DEFINITION_REPRESENTATION ( #232, #133 ) ;
#37 = PERSON_AND_ORGANIZATION ( #150, #149 ) ;
#38 = PERSON_AND_ORGANIZATION ( #150, #149 ) ;
#39 = TOROIDAL_SURFACE ( 'NONE', #172, 37.99999999999998579, 16.85000000000000142 ) ;
#40 = EDGE_LOOP ( 'NONE', ( #75, #250, #80, #130 ) ) ;
#41 = CIRCLE ( 'NONE', #249, 16.85000000000000142 ) ;
#42 = DIRECTION ( 'NONE',  ( -0.7071067811865444641, 0.000000000000000000, 0.7071067811865506814 ) ) ;
#43 = CARTESIAN_POINT ( 'NONE',  ( -14.95530842209555011, -2.063529856563290244E-15, -14.95530842209539024 ) ) ;
#44 = ORIENTED_EDGE ( 'NONE', *, *, #106, .T. ) ;
#45 = EDGE_CURVE ( 'NONE', #193, #63, #41, .T. ) ;
#46 = CIRCLE ( 'NONE', #139, 23.14999999999998437 ) ;
#47 = AXIS2_PLACEMENT_3D ( 'NONE', #218, #215, #122 ) ;
#48 = PERSON_AND_ORGANIZATION ( #150, #149 ) ;
#49 = CIRCLE ( 'NONE', #21, 21.14999999999998437 ) ;
#50 = CARTESIAN_POINT ( 'NONE',  ( 0.000000000000000000, 0.000000000000000000, 0.000000000000000000 ) ) ;
#51 = DATE_TIME_ROLE ( 'classification_date' ) ;
#52 = CARTESIAN_POINT ( 'NONE',  ( -26.87005768508891634, 0.000000000000000000, -26.87005768508867831 ) ) ;
#53 = APPROVAL_ROLE ( '' ) ;
#54 = ADVANCED_FACE ( 'NONE', ( #61, #151 ), #241, .F. ) ;
#55 = PRODUCT_DEFINITION_FORMATION_WITH_SPECIFIED_SOURCE ( 'ANY', '', #164, .NOT_KNOWN. ) ;
#56 = EDGE_CURVE ( 'NONE', #210, #127, #148, .T. ) ;
#57 = CARTESIAN_POINT ( 'NONE',  ( -16.36952198446863704, -1.818600496733819553E-15, -16.36952198446849138 ) ) ;
#58 = CIRCLE ( 'NONE', #144, 54.84999999999998010 ) ;
#59 = CC_DESIGN_SECURITY_CLASSIFICATION ( #145, ( #55 ) ) ;
#60 = MANIFOLD_SOLID_BREP ( 'Wandung1', #208 ) ;
#61 = FACE_BOUND ( 'NONE', #74, .T. ) ;
#62 = FACE_OUTER_BOUND ( 'NONE', #40, .T. ) ;
#63 = VERTEX_POINT ( 'NONE', #219 ) ;
#64 = DIRECTION ( 'NONE',  ( 0.7071067811865506814, 0.000000000000000000, 0.7071067811865443531 ) ) ;
#65 = EDGE_LOOP ( 'NONE', ( #17, #13 ) ) ;
#66 = CARTESIAN_POINT ( 'NONE',  ( -52.84999999999998721, 0.000000000000000000, -2.933764342571975527E-14 ) ) ;
#67 = AXIS2_PLACEMENT_3D ( 'NONE', #239, #181, #86 ) ;
#68 = CARTESIAN_POINT ( 'NONE',  ( -23.14999999999998437, 0.000000000000000000, -1.285083151003617907E-14 ) ) ;
#69 = APPROVAL_STATUS ( 'not_yet_approved' ) ;
#70 = EDGE_CURVE ( 'NONE', #63, #185, #58, .T. ) ;
#71 = TOROIDAL_SURFACE ( 'NONE', #96, 37.99999999999998579, 16.85000000000000142 ) ;
#72 = DIRECTION ( 'NONE',  ( 0.7071067811865506814, 0.000000000000000000, 0.7071067811865443531 ) ) ;
#73 = PERSON_AND_ORGANIZATION ( #150, #149 ) ;
#74 = EDGE_LOOP ( 'NONE', ( #129, #101 ) ) ;
#75 = ORIENTED_EDGE ( 'NONE', *, *, #45, .T. ) ;
#76 = APPLICATION_PROTOCOL_DEFINITION ( 'international standard', 'config_control_design', 1994, #6 ) ;
#77 = LOCAL_TIME ( 10, 51, 14.00000000000000000, #110 ) ;
#78 = ORIENTED_EDGE ( 'NONE', *, *, #84, .T. ) ;
#79 = DIRECTION ( 'NONE',  ( 0.000000000000000000, 0.000000000000000000, 1.000000000000000000 ) ) ;
#80 = ORIENTED_EDGE ( 'NONE', *, *, #163, .F. ) ;
#81 = DIRECTION ( 'NONE',  ( -0.7071067811865444641, 0.000000000000000000, 0.7071067811865506814 ) ) ;
#82 = AXIS2_PLACEMENT_3D ( 'NONE', #2, #121, #25 ) ;
#83 = FACE_OUTER_BOUND ( 'NONE', #134, .T. ) ;
#84 = EDGE_CURVE ( 'NONE', #193, #146, #49, .T. ) ;
#85 = DIRECTION ( 'NONE',  ( 0.000000000000000000, 1.000000000000000000, 0.000000000000000000 ) ) ;
#86 = DIRECTION ( 'NONE',  ( 0.000000000000000000, 0.000000000000000000, 1.000000000000000000 ) ) ;
#87 = DATE_TIME_ROLE ( 'creation_date' ) ;
#88 = DIRECTION ( 'NONE',  ( 0.000000000000000000, 1.000000000000000000, 0.000000000000000000 ) ) ;
#89 = CC_DESIGN_APPROVAL ( #191, ( #55 ) ) ;
#90 = CC_DESIGN_PERSON_AND_ORGANIZATION_ASSIGNMENT ( #48, #155, ( #164 ) ) ;
#91 = DIRECTION ( 'NONE',  ( 0.000000000000000000, 0.000000000000000000, 1.000000000000000000 ) ) ;
#92 = APPROVAL_STATUS ( 'not_yet_approved' ) ;
#93 = UNCERTAINTY_MEASURE_WITH_UNIT (LENGTH_MEASURE( 1.000000000000000082E-05 ), #116, 'distance_accuracy_value', 'NONE');
#94 = CC_DESIGN_PERSON_AND_ORGANIZATION_ASSIGNMENT ( #37, #201, ( #55 ) ) ;
#95 = APPROVAL_DATE_TIME ( #16, #225 ) ;
#96 = AXIS2_PLACEMENT_3D ( 'NONE', #137, #176, #79 ) ;
#97 = CC_DESIGN_APPROVAL ( #225, ( #222 ) ) ;
#98 = ORIENTED_EDGE ( 'NONE', *, *, #70, .F. ) ;
#99 = DIRECTION ( 'NONE',  ( -0.7071067811865444641, 0.000000000000000000, 0.7071067811865506814 ) ) ;
#100 = EDGE_CURVE ( 'NONE', #210, #22, #187, .T. ) ;
#101 = ORIENTED_EDGE ( 'NONE', *, *, #100, .T. ) ;
#102 = CIRCLE ( 'NONE', #236, 14.85000000000000142 ) ;
#103 = ORIENTED_EDGE ( 'NONE', *, *, #100, .F. ) ;
#104 = FACE_BOUND ( 'NONE', #209, .T. ) ;
#105 = CARTESIAN_POINT ( 'NONE',  ( -26.87005768508891634, 0.000000000000000000, -26.87005768508867831 ) ) ;
#106 = EDGE_CURVE ( 'NONE', #185, #146, #112, .T. ) ;
#107 = DIRECTION ( 'NONE',  ( 1.000000000000000000, 0.000000000000000000, 5.551115123125782702E-16 ) ) ;
#108 = COORDINATED_UNIVERSAL_TIME_OFFSET ( 1, 0, .AHEAD. ) ;
#109 = DIRECTION ( 'NONE',  ( 0.000000000000000000, 0.000000000000000000, 1.000000000000000000 ) ) ;
#110 = COORDINATED_UNIVERSAL_TIME_OFFSET ( 1, 0, .AHEAD. ) ;
#111 = APPROVAL_STATUS ( 'not_yet_approved' ) ;
#112 = CIRCLE ( 'NONE', #166, 16.85000000000000142 ) ;
#113 = LOCAL_TIME ( 10, 51, 14.00000000000000000, #248 ) ;
#114 = ORIENTED_EDGE ( 'NONE', *, *, #106, .F. ) ;
#115 = DIRECTION ( 'NONE',  ( 0.000000000000000000, 1.000000000000000000, 0.000000000000000000 ) ) ;
#116 =( LENGTH_UNIT ( ) NAMED_UNIT ( * ) SI_UNIT ( .MILLI., .METRE. ) );
#117 = ORIENTED_EDGE ( 'NONE', *, *, #174, .T. ) ;
#118 = CIRCLE ( 'NONE', #28, 14.85000000000000142 ) ;
#119 = APPLICATION_PROTOCOL_DEFINITION ( 'international standard', 'config_control_design', 1994, #206 ) ;
#120 = ADVANCED_FACE ( 'NONE', ( #7 ), #251, .F. ) ;
#121 = DIRECTION ( 'NONE',  ( -5.551115123125782702E-16, 0.000000000000000000, 1.000000000000000000 ) ) ;
#122 = DIRECTION ( 'NONE',  ( 1.000000000000000000, 0.000000000000000000, 0.000000000000000000 ) ) ;
#123 = PRODUCT_RELATED_PRODUCT_CATEGORY ( 'detail', '', ( #164 ) ) ;
#124 = DIRECTION ( 'NONE',  ( 1.000000000000000000, 0.000000000000000000, 5.551115123125782702E-16 ) ) ;
#125 = PERSON_AND_ORGANIZATION_ROLE ( 'classification_officer' ) ;
#126 = EDGE_CURVE ( 'NONE', #22, #228, #46, .T. ) ;
#127 = VERTEX_POINT ( 'NONE', #66 ) ;
#128 = ADVANCED_FACE ( 'NONE', ( #234 ), #39, .T. ) ;
#129 = ORIENTED_EDGE ( 'NONE', *, *, #252, .T. ) ;
#130 = ORIENTED_EDGE ( 'NONE', *, *, #84, .F. ) ;
#131 = DIRECTION ( 'NONE',  ( -5.551115123125782702E-16, 0.000000000000000000, 1.000000000000000000 ) ) ;
#132 = ORIENTED_EDGE ( 'NONE', *, *, #163, .T. ) ;
#133 = ADVANCED_BREP_SHAPE_REPRESENTATION ( '3D_R1650_33.7x2_17351200', ( #60, #47 ), #226 ) ;
#134 = EDGE_LOOP ( 'NONE', ( #132, #44 ) ) ;
#135 = AXIS2_PLACEMENT_3D ( 'NONE', #138, #30, #109 ) ;
#136 = CARTESIAN_POINT ( 'NONE',  ( -21.14999999999998437, 0.000000000000000000, 5.884182030513330453E-15 ) ) ;
#137 = CARTESIAN_POINT ( 'NONE',  ( 0.000000000000000000, 0.000000000000000000, 0.000000000000000000 ) ) ;
#138 = CARTESIAN_POINT ( 'NONE',  ( 0.000000000000000000, 0.000000000000000000, 0.000000000000000000 ) ) ;
#139 = AXIS2_PLACEMENT_3D ( 'NONE', #156, #85, #212 ) ;
#140 = CALENDAR_DATE ( 2024, 3, 8 ) ;
#141 = APPROVAL_ROLE ( '' ) ;
#142 = CIRCLE ( 'NONE', #82, 14.85000000000000142 ) ;
#143 = CALENDAR_DATE ( 2024, 3, 8 ) ;
#144 = AXIS2_PLACEMENT_3D ( 'NONE', #50, #88, #204 ) ;
#145 = SECURITY_CLASSIFICATION ( '', '', #184 ) ;
#146 = VERTEX_POINT ( 'NONE', #136 ) ;
#147 = DIRECTION ( 'NONE',  ( 0.7071067811865505703, 0.000000000000000000, 0.7071067811865444641 ) ) ;
#148 = CIRCLE ( 'NONE', #135, 52.84999999999998721 ) ;
#149 = ORGANIZATION ( 'UNSPECIFIED', 'UNSPECIFIED', '' ) ;
#150 = PERSON ( 'UNSPECIFIED', 'UNSPECIFIED', 'UNSPECIFIED', ('UNSPECIFIED'), ('UNSPECIFIED'), ('UNSPECIFIED') ) ;
#151 = FACE_OUTER_BOUND ( 'NONE', #65, .T. ) ;
#152 = FACE_OUTER_BOUND ( 'NONE', #233, .T. ) ;
#153 = CARTESIAN_POINT ( 'NONE',  ( -37.99999999999998579, 0.000000000000000000, -3.469446951953614189E-15 ) ) ;
#154 = LOCAL_TIME ( 10, 51, 14.00000000000000000, #108 ) ;
#155 = PERSON_AND_ORGANIZATION_ROLE ( 'design_owner' ) ;
#156 = CARTESIAN_POINT ( 'NONE',  ( 0.000000000000000000, -1.818600496733819553E-15, 0.000000000000000000 ) ) ;
#157 = CALENDAR_DATE ( 2024, 3, 8 ) ;
#158 = DIRECTION ( 'NONE',  ( 0.000000000000000000, 1.000000000000000000, 0.000000000000000000 ) ) ;
#159 = DATE_AND_TIME ( #140, #77 ) ;
#160 = DIRECTION ( 'NONE',  ( 0.7071067811865506814, 0.000000000000000000, 0.7071067811865443531 ) ) ;
#161 = APPROVAL_DATE_TIME ( #159, #191 ) ;
#162 = PERSON_AND_ORGANIZATION_ROLE ( 'creator' ) ;
#163 = EDGE_CURVE ( 'NONE', #146, #185, #216, .T. ) ;
#164 = PRODUCT ( '3D_R1650_33.7x2_17351200', '3D_R1650_33.7x2_17351200', '', ( #199 ) ) ;
#165 = APPROVAL_ROLE ( '' ) ;
#166 = AXIS2_PLACEMENT_3D ( 'NONE', #29, #242, #124 ) ;
#167 = ORIENTED_EDGE ( 'NONE', *, *, #56, .F. ) ;
#168 = ADVANCED_FACE ( 'NONE', ( #62 ), #71, .T. ) ;
#169 = DIRECTION ( 'NONE',  ( 0.7071067811865505703, 0.000000000000000000, 0.7071067811865444641 ) ) ;
#170 = CARTESIAN_POINT ( 'NONE',  ( 0.000000000000000000, 0.000000000000000000, 0.000000000000000000 ) ) ;
#171 = CARTESIAN_POINT ( 'NONE',  ( -54.84999999999998010, 0.000000000000000000, -1.282307593442055489E-14 ) ) ;
#172 = AXIS2_PLACEMENT_3D ( 'NONE', #5, #230, #238 ) ;
#173 = ORIENTED_EDGE ( 'NONE', *, *, #174, .F. ) ;
#174 = EDGE_CURVE ( 'NONE', #127, #228, #102, .T. ) ;
#175 = CARTESIAN_POINT ( 'NONE',  ( -37.99999999999998579, 0.000000000000000000, -3.469446951953614189E-15 ) ) ;
#176 = DIRECTION ( 'NONE',  ( 0.000000000000000000, 1.000000000000000000, 0.000000000000000000 ) ) ;
#177 = PLANE ( 'NONE',  #196 ) ;
#178 = AXIS2_PLACEMENT_3D ( 'NONE', #11, #9, #72 ) ;
#179 = LOCAL_TIME ( 10, 51, 14.00000000000000000, #8 ) ;
#180 =( NAMED_UNIT ( * ) SI_UNIT ( $, .STERADIAN. ) SOLID_ANGLE_UNIT ( ) );
#181 = DIRECTION ( 'NONE',  ( 0.000000000000000000, 1.000000000000000000, 0.000000000000000000 ) ) ;
#182 = PERSON_AND_ORGANIZATION ( #150, #149 ) ;
#183 = CARTESIAN_POINT ( 'NONE',  ( 0.000000000000000000, -2.063529856563290244E-15, 0.000000000000000000 ) ) ;
#184 = SECURITY_CLASSIFICATION_LEVEL ( 'unclassified' ) ;
#185 = VERTEX_POINT ( 'NONE', #171 ) ;
#186 = DESIGN_CONTEXT ( 'detailed design', #206, 'design' ) ;
#187 = CIRCLE ( 'NONE', #220, 14.85000000000000142 ) ;
#188 = APPROVAL_PERSON_ORGANIZATION ( #4, #225, #165 ) ;
#189 = CALENDAR_DATE ( 2024, 3, 8 ) ;
#190 = ORIENTED_EDGE ( 'NONE', *, *, #126, .T. ) ;
#191 = APPROVAL ( #111, 'UNSPECIFIED' ) ;
#192 = CARTESIAN_POINT ( 'NONE',  ( -26.87005768508893055, 0.000000000000000000, -26.87005768508866410 ) ) ;
#193 = VERTEX_POINT ( 'NONE', #43 ) ;
#194 = EDGE_LOOP ( 'NONE', ( #98, #3, #78, #114 ) ) ;
#195 = CARTESIAN_POINT ( 'NONE',  ( -37.37059338570919209, 0.000000000000000000, -37.37059338570885814 ) ) ;
#196 = AXIS2_PLACEMENT_3D ( 'NONE', #175, #214, #235 ) ;
#197 = APPROVAL_PERSON_ORGANIZATION ( #38, #191, #53 ) ;
#198 = CARTESIAN_POINT ( 'NONE',  ( -37.99999999999998579, 0.000000000000000000, -2.109423746787796480E-14 ) ) ;
#199 = MECHANICAL_CONTEXT ( 'NONE', #6, 'mechanical' ) ;
#200 = DIRECTION ( 'NONE',  ( -0.7071067811865444641, 0.000000000000000000, 0.7071067811865506814 ) ) ;
#201 = PERSON_AND_ORGANIZATION_ROLE ( 'creator' ) ;
#202 = ADVANCED_FACE ( 'NONE', ( #104, #83 ), #177, .T. ) ;
#203 = AXIS2_PLACEMENT_3D ( 'NONE', #153, #27, #107 ) ;
#204 = DIRECTION ( 'NONE',  ( 0.000000000000000000, 0.000000000000000000, 1.000000000000000000 ) ) ;
#205 = CALENDAR_DATE ( 2024, 3, 8 ) ;
#206 = APPLICATION_CONTEXT ( 'configuration controlled 3d designs of mechanical parts and assemblies' ) ;
#207 = COORDINATED_UNIVERSAL_TIME_OFFSET ( 1, 0, .AHEAD. ) ;
#208 = CLOSED_SHELL ( 'NONE', ( #120, #168, #128, #202, #54, #19 ) ) ;
#209 = EDGE_LOOP ( 'NONE', ( #244, #173 ) ) ;
#210 = VERTEX_POINT ( 'NONE', #195 ) ;
#211 = ORIENTED_EDGE ( 'NONE', *, *, #126, .F. ) ;
#212 = DIRECTION ( 'NONE',  ( 0.000000000000000000, 0.000000000000000000, 1.000000000000000000 ) ) ;
#213 = EDGE_LOOP ( 'NONE', ( #103, #18, #117, #211 ) ) ;
#214 = DIRECTION ( 'NONE',  ( -5.551115123125782702E-16, 0.000000000000000000, 1.000000000000000000 ) ) ;
#215 = DIRECTION ( 'NONE',  ( 0.000000000000000000, 0.000000000000000000, 1.000000000000000000 ) ) ;
#216 = CIRCLE ( 'NONE', #203, 16.85000000000000142 ) ;
#217 =( NAMED_UNIT ( * ) PLANE_ANGLE_UNIT ( ) SI_UNIT ( $, .RADIAN. ) );
#218 = CARTESIAN_POINT ( 'NONE',  ( 0.000000000000000000, 0.000000000000000000, 0.000000000000000000 ) ) ;
#219 = CARTESIAN_POINT ( 'NONE',  ( -38.78480694808231277, 0.000000000000000000, -38.78480694808193618 ) ) ;
#220 = AXIS2_PLACEMENT_3D ( 'NONE', #52, #200, #160 ) ;
#221 = DATE_AND_TIME ( #143, #154 ) ;
#222 = PRODUCT_DEFINITION ( 'UNKNOWN', '', #55, #186 ) ;
#223 = TOROIDAL_SURFACE ( 'NONE', #26, 37.99999999999998579, 14.84999999999999964 ) ;
#224 = PERSON_AND_ORGANIZATION ( #150, #149 ) ;
#225 = APPROVAL ( #69, 'UNSPECIFIED' ) ;
#226 =( GEOMETRIC_REPRESENTATION_CONTEXT ( 3 ) GLOBAL_UNCERTAINTY_ASSIGNED_CONTEXT ( ( #93 ) ) GLOBAL_UNIT_ASSIGNED_CONTEXT ( ( #116, #217, #180 ) ) REPRESENTATION_CONTEXT ( 'NONE', 'WORKASPACE' ) );
#227 = ORIENTED_EDGE ( 'NONE', *, *, #240, .T. ) ;
#228 = VERTEX_POINT ( 'NONE', #68 ) ;
#229 = CC_DESIGN_DATE_AND_TIME_ASSIGNMENT ( #221, #51, ( #145 ) ) ;
#230 = DIRECTION ( 'NONE',  ( 0.000000000000000000, 1.000000000000000000, 0.000000000000000000 ) ) ;
#231 = ORIENTED_EDGE ( 'NONE', *, *, #252, .F. ) ;
#232 = PRODUCT_DEFINITION_SHAPE ( 'NONE', 'NONE',  #222 ) ;
#233 = EDGE_LOOP ( 'NONE', ( #167, #231, #190, #227 ) ) ;
#234 = FACE_OUTER_BOUND ( 'NONE', #194, .T. ) ;
#235 = DIRECTION ( 'NONE',  ( 1.000000000000000000, 0.000000000000000000, 5.551115123125782702E-16 ) ) ;
#236 = AXIS2_PLACEMENT_3D ( 'NONE', #198, #131, #23 ) ;
#237 = CC_DESIGN_PERSON_AND_ORGANIZATION_ASSIGNMENT ( #224, #162, ( #222 ) ) ;
#238 = DIRECTION ( 'NONE',  ( 0.000000000000000000, 0.000000000000000000, 1.000000000000000000 ) ) ;
#239 = CARTESIAN_POINT ( 'NONE',  ( 0.000000000000000000, 0.000000000000000000, 0.000000000000000000 ) ) ;
#240 = EDGE_CURVE ( 'NONE', #228, #127, #142, .T. ) ;
#241 = PLANE ( 'NONE',  #178 ) ;
#242 = DIRECTION ( 'NONE',  ( -5.551115123125782702E-16, 0.000000000000000000, 1.000000000000000000 ) ) ;
#243 = DATE_AND_TIME ( #157, #179 ) ;
#244 = ORIENTED_EDGE ( 'NONE', *, *, #240, .F. ) ;
#245 = PERSON_AND_ORGANIZATION_ROLE ( 'design_supplier' ) ;
#246 = DATE_AND_TIME ( #205, #253 ) ;
#247 = CC_DESIGN_PERSON_AND_ORGANIZATION_ASSIGNMENT ( #73, #245, ( #55 ) ) ;
#248 = COORDINATED_UNIVERSAL_TIME_OFFSET ( 1, 0, .AHEAD. ) ;
#249 = AXIS2_PLACEMENT_3D ( 'NONE', #20, #42, #147 ) ;
#250 = ORIENTED_EDGE ( 'NONE', *, *, #70, .T. ) ;
#251 = TOROIDAL_SURFACE ( 'NONE', #67, 37.99999999999998579, 14.84999999999999964 ) ;
#252 = EDGE_CURVE ( 'NONE', #22, #210, #118, .T. ) ;
#253 = LOCAL_TIME ( 10, 51, 14.00000000000000000, #207 ) ;
ENDSEC;
END-ISO-10303-21;
