ISO-10303-21;
HEADER;
FILE_DESCRIPTION (( 'STEP AP203' ),
    '1' );
FILE_NAME ('3D_GR1382_DN25x2_18380312.STEP',
    '2024-09-23T06:00:53',
    ( '' ),
    ( '' ),
    'SwSTEP 2.0',
    'SolidWorks 2024',
    '' );
FILE_SCHEMA (( 'CONFIG_CONTROL_DESIGN' ));
ENDSEC;

DATA;
#1 = DIRECTION ( 'NONE',  ( 0.000000000000000000, 0.000000000000000000, -1.000000000000000000 ) ) ;
#2 = AXIS2_PLACEMENT_3D ( 'NONE', #54, #217, #145 ) ;
#3 = DIRECTION ( 'NONE',  ( 0.000000000000000000, 0.000000000000000000, 1.000000000000000000 ) ) ;
#4 = ORIENTED_EDGE ( 'NONE', *, *, #311, .T. ) ;
#5 = CARTESIAN_POINT ( 'NONE',  ( -2.000000000000000888, 1.408343819019458740E-15, -11.50000000000002132 ) ) ;
#6 = ORIENTED_EDGE ( 'NONE', *, *, #284, .T. ) ;
#7 = CARTESIAN_POINT ( 'NONE',  ( 0.000000000000000000, 0.000000000000000000, 0.000000000000000000 ) ) ;
#8 = EDGE_CURVE ( 'NONE', #224, #226, #297, .T. ) ;
#9 = ORIENTED_EDGE ( 'NONE', *, *, #148, .F. ) ;
#10 = DIRECTION ( 'NONE',  ( -1.000000000000000000, -0.000000000000000000, -0.000000000000000000 ) ) ;
#11 = VERTEX_POINT ( 'NONE', #104 ) ;
#12 = PERSON_AND_ORGANIZATION ( #348, #229 ) ;
#13 = DIRECTION ( 'NONE',  ( 0.000000000000000000, 0.000000000000000000, 1.000000000000000000 ) ) ;
#14 = CIRCLE ( 'NONE', #232, 9.500000000000023093 ) ;
#15 = VECTOR ( 'NONE', #319, 1000.000000000000000 ) ;
#16 = CARTESIAN_POINT ( 'NONE',  ( 0.000000000000000000, 0.000000000000000000, 10.50000000000001954 ) ) ;
#17 = AXIS2_PLACEMENT_3D ( 'NONE', #5, #87, #141 ) ;
#18 = DIRECTION ( 'NONE',  ( -1.000000000000000000, -0.000000000000000000, -0.000000000000000000 ) ) ;
#19 = CC_DESIGN_APPROVAL ( #39, ( #159 ) ) ;
#20 = DIRECTION ( 'NONE',  ( 0.000000000000000000, 0.000000000000000000, 1.000000000000000000 ) ) ;
#21 = CARTESIAN_POINT ( 'NONE',  ( -3.000000000000002665, 0.000000000000000000, 11.50000000000002132 ) ) ;
#22 = ADVANCED_FACE ( 'NONE', ( #163 ), #102, .T. ) ;
#23 = FACE_OUTER_BOUND ( 'NONE', #95, .T. ) ;
#24 = DIRECTION ( 'NONE',  ( 0.000000000000000000, 0.000000000000000000, 1.000000000000000000 ) ) ;
#25 =( GEOMETRIC_REPRESENTATION_CONTEXT ( 3 ) GLOBAL_UNCERTAINTY_ASSIGNED_CONTEXT ( ( #197 ) ) GLOBAL_UNIT_ASSIGNED_CONTEXT ( ( #264, #127, #309 ) ) REPRESENTATION_CONTEXT ( 'NONE', 'WORKASPACE' ) );
#26 = CARTESIAN_POINT ( 'NONE',  ( 7.000000000002282619, 0.000000000000000000, 0.000000000000000000 ) ) ;
#27 = CARTESIAN_POINT ( 'NONE',  ( -2.000000000000001776, 1.530808498934193888E-15, -12.50000000000001954 ) ) ;
#28 = LOCAL_TIME ( 8, 0, 53.00000000000000000, #345 ) ;
#29 = ADVANCED_FACE ( 'NONE', ( #325 ), #281, .T. ) ;
#30 = CARTESIAN_POINT ( 'NONE',  ( -2.000000000000000888, 0.000000000000000000, 11.50000000000002132 ) ) ;
#31 = PRODUCT_DEFINITION_SHAPE ( 'NONE', 'NONE',  #62 ) ;
#32 = ORIENTED_EDGE ( 'NONE', *, *, #110, .F. ) ;
#33 = AXIS2_PLACEMENT_3D ( 'NONE', #34, #10, #228 ) ;
#34 = CARTESIAN_POINT ( 'NONE',  ( -154.8395502972293230, 0.000000000000000000, 0.000000000000000000 ) ) ;
#35 = AXIS2_PLACEMENT_3D ( 'NONE', #46, #74, #51 ) ;
#36 = VERTEX_POINT ( 'NONE', #21 ) ;
#37 = ORIENTED_EDGE ( 'NONE', *, *, #267, .F. ) ;
#38 = DATE_TIME_ROLE ( 'creation_date' ) ;
#39 = APPROVAL ( #161, 'UNSPECIFIED' ) ;
#40 = DIRECTION ( 'NONE',  ( -1.000000000000000000, -0.000000000000000000, -0.000000000000000000 ) ) ;
#41 = EDGE_CURVE ( 'NONE', #70, #224, #245, .T. ) ;
#42 = CONICAL_SURFACE ( 'NONE', #298, 9.500000000000023093, 0.7853981633974466137 ) ;
#43 = APPROVAL_ROLE ( '' ) ;
#44 = DATE_TIME_ROLE ( 'classification_date' ) ;
#45 = AXIS2_PLACEMENT_3D ( 'NONE', #346, #50, #129 ) ;
#46 = CARTESIAN_POINT ( 'NONE',  ( 7.000000000001135980, 0.000000000000000000, 0.000000000000000000 ) ) ;
#47 = EDGE_CURVE ( 'NONE', #221, #287, #77, .T. ) ;
#48 = CIRCLE ( 'NONE', #2, 10.50000000000001954 ) ;
#49 = CYLINDRICAL_SURFACE ( 'NONE', #304, 12.50000000000001954 ) ;
#50 = DIRECTION ( 'NONE',  ( -1.000000000000000000, -0.000000000000000000, -0.000000000000000000 ) ) ;
#51 = DIRECTION ( 'NONE',  ( -0.000000000000000000, 0.000000000000000000, 1.000000000000000000 ) ) ;
#52 = DIRECTION ( 'NONE',  ( 0.000000000000000000, 0.000000000000000000, 1.000000000000000000 ) ) ;
#53 = APPROVAL ( #200, 'UNSPECIFIED' ) ;
#54 = CARTESIAN_POINT ( 'NONE',  ( 6.000000000002280842, 0.000000000000000000, 0.000000000000000000 ) ) ;
#55 = CARTESIAN_POINT ( 'NONE',  ( -2.000000000000001776, 0.000000000000000000, 0.000000000000000000 ) ) ;
#56 = EDGE_CURVE ( 'NONE', #36, #201, #108, .T. ) ;
#57 = PRODUCT ( '3D_GR1382_DN25x2_18380312', '3D_GR1382_DN25x2_18380312', '', ( #314 ) ) ;
#58 = LINE ( 'NONE', #81, #88 ) ;
#59 = ORIENTED_EDGE ( 'NONE', *, *, #288, .F. ) ;
#60 = CARTESIAN_POINT ( 'NONE',  ( 7.000000000002282619, 1.224646799147355820E-15, -9.500000000000023093 ) ) ;
#61 = EDGE_LOOP ( 'NONE', ( #212, #169 ) ) ;
#62 = PRODUCT_DEFINITION ( 'UNKNOWN', '', #328, #249 ) ;
#63 = ORIENTED_EDGE ( 'NONE', *, *, #209, .T. ) ;
#64 = CARTESIAN_POINT ( 'NONE',  ( 0.000000000000000000, 0.000000000000000000, 0.000000000000000000 ) ) ;
#65 = ORIENTED_EDGE ( 'NONE', *, *, #291, .F. ) ;
#66 = APPROVAL_PERSON_ORGANIZATION ( #339, #244, #90 ) ;
#67 = COORDINATED_UNIVERSAL_TIME_OFFSET ( 1, 0, .AHEAD. ) ;
#68 = CC_DESIGN_PERSON_AND_ORGANIZATION_ASSIGNMENT ( #230, #154, ( #57 ) ) ;
#69 = VECTOR ( 'NONE', #308, 1000.000000000000000 ) ;
#70 = VERTEX_POINT ( 'NONE', #238 ) ;
#71 = PERSON_AND_ORGANIZATION_ROLE ( 'design_supplier' ) ;
#72 = SECURITY_CLASSIFICATION_LEVEL ( 'unclassified' ) ;
#73 = FACE_OUTER_BOUND ( 'NONE', #285, .T. ) ;
#74 = DIRECTION ( 'NONE',  ( -1.000000000000000000, 0.000000000000000000, -0.000000000000000000 ) ) ;
#75 = FACE_OUTER_BOUND ( 'NONE', #332, .T. ) ;
#76 = AXIS2_PLACEMENT_3D ( 'NONE', #218, #82, #276 ) ;
#77 = LINE ( 'NONE', #185, #15 ) ;
#78 = CIRCLE ( 'NONE', #213, 10.50000000000001954 ) ;
#79 = ORIENTED_EDGE ( 'NONE', *, *, #8, .F. ) ;
#80 = AXIS2_PLACEMENT_3D ( 'NONE', #143, #333, #114 ) ;
#81 = CARTESIAN_POINT ( 'NONE',  ( -154.8395502972293230, 0.000000000000000000, 12.50000000000001954 ) ) ;
#82 = DIRECTION ( 'NONE',  ( -1.000000000000000000, -0.000000000000000000, -0.000000000000000000 ) ) ;
#83 = CARTESIAN_POINT ( 'NONE',  ( 7.000000000002282619, 1.163414459189988443E-15, -9.500000000000023093 ) ) ;
#84 = ORIENTED_EDGE ( 'NONE', *, *, #311, .F. ) ;
#85 = FACE_OUTER_BOUND ( 'NONE', #336, .T. ) ;
#86 = VERTEX_POINT ( 'NONE', #262 ) ;
#87 = DIRECTION ( 'NONE',  ( -0.000000000000000000, 1.000000000000000000, 1.224646799147353207E-16 ) ) ;
#88 = VECTOR ( 'NONE', #214, 1000.000000000000000 ) ;
#89 = ORIENTED_EDGE ( 'NONE', *, *, #8, .T. ) ;
#90 = APPROVAL_ROLE ( '' ) ;
#91 = VERTEX_POINT ( 'NONE', #206 ) ;
#92 = AXIS2_PLACEMENT_3D ( 'NONE', #190, #235, #153 ) ;
#93 = DIRECTION ( 'NONE',  ( 0.000000000000000000, 0.000000000000000000, 1.000000000000000000 ) ) ;
#94 = CIRCLE ( 'NONE', #17, 0.9999999999999991118 ) ;
#95 = EDGE_LOOP ( 'NONE', ( #316, #312 ) ) ;
#96 = LOCAL_TIME ( 8, 0, 53.00000000000000000, #282 ) ;
#97 = PERSON_AND_ORGANIZATION ( #348, #229 ) ;
#98 = PERSON_AND_ORGANIZATION_ROLE ( 'creator' ) ;
#99 = DATE_AND_TIME ( #341, #96 ) ;
#100 = CIRCLE ( 'NONE', #256, 12.50000000000001954 ) ;
#101 = VERTEX_POINT ( 'NONE', #16 ) ;
#102 = CYLINDRICAL_SURFACE ( 'NONE', #45, 10.50000000000001954 ) ;
#103 = DIRECTION ( 'NONE',  ( -1.000000000000000000, -0.000000000000000000, -0.000000000000000000 ) ) ;
#104 = CARTESIAN_POINT ( 'NONE',  ( 7.000000000002282619, 0.000000000000000000, 9.500000000000023093 ) ) ;
#105 = ADVANCED_FACE ( 'NONE', ( #75 ), #299, .F. ) ;
#106 = EDGE_LOOP ( 'NONE', ( #340, #151 ) ) ;
#107 = CC_DESIGN_PERSON_AND_ORGANIZATION_ASSIGNMENT ( #343, #286, ( #62 ) ) ;
#108 = CIRCLE ( 'NONE', #266, 11.50000000000002132 ) ;
#109 = FACE_OUTER_BOUND ( 'NONE', #118, .T. ) ;
#110 = EDGE_CURVE ( 'NONE', #221, #91, #78, .T. ) ;
#111 = DIRECTION ( 'NONE',  ( -1.000000000000000000, -0.000000000000000000, -0.000000000000000000 ) ) ;
#112 = APPROVAL_PERSON_ORGANIZATION ( #156, #39, #43 ) ;
#113 = CIRCLE ( 'NONE', #317, 10.50000000000001954 ) ;
#114 = DIRECTION ( 'NONE',  ( 0.000000000000000000, 0.000000000000000000, 1.000000000000000000 ) ) ;
#115 = ORIENTED_EDGE ( 'NONE', *, *, #227, .F. ) ;
#116 = CC_DESIGN_PERSON_AND_ORGANIZATION_ASSIGNMENT ( #318, #71, ( #328 ) ) ;
#117 = DIRECTION ( 'NONE',  ( -1.000000000000000000, -0.000000000000000000, -0.000000000000000000 ) ) ;
#118 = EDGE_LOOP ( 'NONE', ( #258, #4, #37, #9 ) ) ;
#119 = CARTESIAN_POINT ( 'NONE',  ( -1.102182119232553816E-15, 10.50000000000001954, 0.000000000000000000 ) ) ;
#120 = ORIENTED_EDGE ( 'NONE', *, *, #227, .T. ) ;
#121 = APPROVAL_DATE_TIME ( #179, #244 ) ;
#122 = CC_DESIGN_PERSON_AND_ORGANIZATION_ASSIGNMENT ( #181, #289, ( #159 ) ) ;
#123 = EDGE_LOOP ( 'NONE', ( #79, #6, #280, #65 ) ) ;
#124 = ADVANCED_FACE ( 'NONE', ( #23 ), #136, .F. ) ;
#125 = CARTESIAN_POINT ( 'NONE',  ( -2.000000000000000888, 0.000000000000000000, 0.000000000000000000 ) ) ;
#126 = AXIS2_PLACEMENT_3D ( 'NONE', #125, #149, #13 ) ;
#127 =( NAMED_UNIT ( * ) PLANE_ANGLE_UNIT ( ) SI_UNIT ( $, .RADIAN. ) );
#128 = DATE_AND_TIME ( #293, #28 ) ;
#129 = DIRECTION ( 'NONE',  ( 0.000000000000000000, 0.000000000000000000, 1.000000000000000000 ) ) ;
#130 = CARTESIAN_POINT ( 'NONE',  ( -3.000000000000000888, 11.50000000000002132, 0.000000000000000000 ) ) ;
#131 = ADVANCED_FACE ( 'NONE', ( #73 ), #49, .T. ) ;
#132 = ORIENTED_EDGE ( 'NONE', *, *, #288, .T. ) ;
#133 = COORDINATED_UNIVERSAL_TIME_OFFSET ( 1, 0, .AHEAD. ) ;
#134 = ORIENTED_EDGE ( 'NONE', *, *, #272, .F. ) ;
#135 = CC_DESIGN_DATE_AND_TIME_ASSIGNMENT ( #99, #38, ( #62 ) ) ;
#136 = PLANE ( 'NONE',  #175 ) ;
#137 = AXIS2_PLACEMENT_3D ( 'NONE', #30, #191, #1 ) ;
#138 = CARTESIAN_POINT ( 'NONE',  ( -154.8395502972293230, 0.000000000000000000, 10.50000000000001954 ) ) ;
#139 = ADVANCED_FACE ( 'NONE', ( #239 ), #42, .T. ) ;
#140 = CLOSED_SHELL ( 'NONE', ( #350, #131, #334, #237, #105, #139, #22, #199, #300, #29, #124 ) ) ;
#141 = DIRECTION ( 'NONE',  ( 0.000000000000000000, -1.224646799147353454E-16, 1.000000000000000000 ) ) ;
#142 = ADVANCED_BREP_SHAPE_REPRESENTATION ( '3D_GR1382_DN25x2_18380312', ( #352, #216 ), #25 ) ;
#143 = CARTESIAN_POINT ( 'NONE',  ( -154.8395502972293230, 0.000000000000000000, 0.000000000000000000 ) ) ;
#144 = CC_DESIGN_APPROVAL ( #244, ( #62 ) ) ;
#145 = DIRECTION ( 'NONE',  ( 0.000000000000000000, 0.000000000000000000, 1.000000000000000000 ) ) ;
#146 = ORIENTED_EDGE ( 'NONE', *, *, #234, .T. ) ;
#147 = DIRECTION ( 'NONE',  ( -1.000000000000000000, -0.000000000000000000, -0.000000000000000000 ) ) ;
#148 = EDGE_CURVE ( 'NONE', #11, #91, #321, .T. ) ;
#149 = DIRECTION ( 'NONE',  ( -1.000000000000000000, -0.000000000000000000, -0.000000000000000000 ) ) ;
#150 = CALENDAR_DATE ( 2024, 23, 9 ) ;
#151 = ORIENTED_EDGE ( 'NONE', *, *, #284, .F. ) ;
#152 = EDGE_CURVE ( 'NONE', #101, #287, #113, .T. ) ;
#153 = DIRECTION ( 'NONE',  ( 0.000000000000000000, 0.000000000000000000, 1.000000000000000000 ) ) ;
#154 = PERSON_AND_ORGANIZATION_ROLE ( 'design_owner' ) ;
#155 = DATE_AND_TIME ( #259, #177 ) ;
#156 = PERSON_AND_ORGANIZATION ( #348, #229 ) ;
#157 = DIRECTION ( 'NONE',  ( -1.000000000000000000, -0.000000000000000000, -0.000000000000000000 ) ) ;
#158 = CIRCLE ( 'NONE', #302, 10.50000000000001954 ) ;
#159 = SECURITY_CLASSIFICATION ( '', '', #72 ) ;
#160 = CARTESIAN_POINT ( 'NONE',  ( -154.8395502972293230, 0.000000000000000000, 0.000000000000000000 ) ) ;
#161 = APPROVAL_STATUS ( 'not_yet_approved' ) ;
#162 = ORIENTED_EDGE ( 'NONE', *, *, #234, .F. ) ;
#163 = FACE_OUTER_BOUND ( 'NONE', #338, .T. ) ;
#164 = CARTESIAN_POINT ( 'NONE',  ( 0.000000000000000000, 1.530808498934193888E-15, -12.50000000000001954 ) ) ;
#165 = CARTESIAN_POINT ( 'NONE',  ( 0.000000000000000000, 1.285879139104723197E-15, -10.50000000000001954 ) ) ;
#166 = DIRECTION ( 'NONE',  ( -1.000000000000000000, -0.000000000000000000, -0.000000000000000000 ) ) ;
#167 = CC_DESIGN_PERSON_AND_ORGANIZATION_ASSIGNMENT ( #12, #98, ( #328 ) ) ;
#168 = FACE_OUTER_BOUND ( 'NONE', #106, .T. ) ;
#169 = ORIENTED_EDGE ( 'NONE', *, *, #272, .T. ) ;
#170 = VECTOR ( 'NONE', #166, 1000.000000000000000 ) ;
#171 = LINE ( 'NONE', #83, #236 ) ;
#172 = ORIENTED_EDGE ( 'NONE', *, *, #209, .F. ) ;
#173 = EDGE_CURVE ( 'NONE', #201, #36, #242, .T. ) ;
#174 = DIRECTION ( 'NONE',  ( 0.000000000000000000, 0.000000000000000000, 1.000000000000000000 ) ) ;
#175 = AXIS2_PLACEMENT_3D ( 'NONE', #130, #241, #295 ) ;
#176 = AXIS2_PLACEMENT_3D ( 'NONE', #26, #303, #196 ) ;
#177 = LOCAL_TIME ( 8, 0, 53.00000000000000000, #233 ) ;
#178 = ORIENTED_EDGE ( 'NONE', *, *, #204, .F. ) ;
#179 = DATE_AND_TIME ( #150, #247 ) ;
#180 = ORIENTED_EDGE ( 'NONE', *, *, #173, .F. ) ;
#181 = PERSON_AND_ORGANIZATION ( #348, #229 ) ;
#182 = EDGE_CURVE ( 'NONE', #70, #86, #58, .T. ) ;
#183 = DIRECTION ( 'NONE',  ( 1.000000000000000000, 0.000000000000000000, 0.000000000000000000 ) ) ;
#184 = CIRCLE ( 'NONE', #137, 0.9999999999999991118 ) ;
#185 = CARTESIAN_POINT ( 'NONE',  ( -154.8395502972293230, 1.285879139104723197E-15, -10.50000000000001954 ) ) ;
#186 = ORIENTED_EDGE ( 'NONE', *, *, #291, .T. ) ;
#187 = CARTESIAN_POINT ( 'NONE',  ( 7.000000000002282619, 0.000000000000000000, 9.500000000000023093 ) ) ;
#188 = AXIS2_PLACEMENT_3D ( 'NONE', #119, #194, #305 ) ;
#189 = CARTESIAN_POINT ( 'NONE',  ( -3.000000000000002665, 0.000000000000000000, 0.000000000000000000 ) ) ;
#190 = CARTESIAN_POINT ( 'NONE',  ( 0.000000000000000000, 0.000000000000000000, 0.000000000000000000 ) ) ;
#191 = DIRECTION ( 'NONE',  ( 0.000000000000000000, -1.000000000000000000, 0.000000000000000000 ) ) ;
#192 = CARTESIAN_POINT ( 'NONE',  ( 0.000000000000000000, 0.000000000000000000, 0.000000000000000000 ) ) ;
#193 = DIRECTION ( 'NONE',  ( -0.7071067811865487940, 8.659560562354918067E-17, -0.7071067811865463515 ) ) ;
#194 = DIRECTION ( 'NONE',  ( -1.000000000000000000, 0.000000000000000000, -0.000000000000000000 ) ) ;
#195 = EDGE_LOOP ( 'NONE', ( #63, #132, #198, #162 ) ) ;
#196 = DIRECTION ( 'NONE',  ( 0.000000000000000000, 0.000000000000000000, 1.000000000000000000 ) ) ;
#197 = UNCERTAINTY_MEASURE_WITH_UNIT (LENGTH_MEASURE( 1.000000000000000082E-05 ), #264, 'distance_accuracy_value', 'NONE');
#198 = ORIENTED_EDGE ( 'NONE', *, *, #56, .F. ) ;
#199 = ADVANCED_FACE ( 'NONE', ( #168, #248 ), #278, .F. ) ;
#200 = APPROVAL_STATUS ( 'not_yet_approved' ) ;
#201 = VERTEX_POINT ( 'NONE', #246 ) ;
#202 = CIRCLE ( 'NONE', #269, 12.50000000000001954 ) ;
#203 = ORIENTED_EDGE ( 'NONE', *, *, #182, .F. ) ;
#204 = EDGE_CURVE ( 'NONE', #250, #11, #231, .T. ) ;
#205 = APPLICATION_CONTEXT ( 'configuration controlled 3d designs of mechanical parts and assemblies' ) ;
#206 = CARTESIAN_POINT ( 'NONE',  ( 6.000000000002280842, 0.000000000000000000, 10.50000000000001954 ) ) ;
#207 = CARTESIAN_POINT ( 'NONE',  ( -2.000000000000000888, 0.000000000000000000, 0.000000000000000000 ) ) ;
#208 = DIRECTION ( 'NONE',  ( 0.000000000000000000, 0.000000000000000000, 1.000000000000000000 ) ) ;
#209 = EDGE_CURVE ( 'NONE', #86, #226, #324, .T. ) ;
#210 = ORIENTED_EDGE ( 'NONE', *, *, #267, .T. ) ;
#211 = TOROIDAL_SURFACE ( 'NONE', #126, 11.50000000000002132, 0.9999999999999995559 ) ;
#212 = ORIENTED_EDGE ( 'NONE', *, *, #152, .T. ) ;
#213 = AXIS2_PLACEMENT_3D ( 'NONE', #273, #18, #294 ) ;
#214 = DIRECTION ( 'NONE',  ( -1.000000000000000000, -0.000000000000000000, -0.000000000000000000 ) ) ;
#215 = CC_DESIGN_DATE_AND_TIME_ASSIGNMENT ( #128, #44, ( #159 ) ) ;
#216 = AXIS2_PLACEMENT_3D ( 'NONE', #64, #93, #183 ) ;
#217 = DIRECTION ( 'NONE',  ( -1.000000000000000000, -0.000000000000000000, -0.000000000000000000 ) ) ;
#218 = CARTESIAN_POINT ( 'NONE',  ( 7.000000000002282619, 0.000000000000000000, 0.000000000000000000 ) ) ;
#219 = EDGE_LOOP ( 'NONE', ( #84, #260, #347, #32 ) ) ;
#220 = DIRECTION ( 'NONE',  ( 0.000000000000000000, 0.000000000000000000, 1.000000000000000000 ) ) ;
#221 = VERTEX_POINT ( 'NONE', #254 ) ;
#222 = DIRECTION ( 'NONE',  ( 0.000000000000000000, 0.000000000000000000, 1.000000000000000000 ) ) ;
#223 = ORIENTED_EDGE ( 'NONE', *, *, #152, .F. ) ;
#224 = VERTEX_POINT ( 'NONE', #164 ) ;
#225 = APPLICATION_PROTOCOL_DEFINITION ( 'international standard', 'config_control_design', 1994, #205 ) ;
#226 = VERTEX_POINT ( 'NONE', #27 ) ;
#227 = EDGE_CURVE ( 'NONE', #91, #101, #275, .T. ) ;
#228 = DIRECTION ( 'NONE',  ( 0.000000000000000000, 0.000000000000000000, 1.000000000000000000 ) ) ;
#229 = ORGANIZATION ( 'UNSPECIFIED', 'UNSPECIFIED', '' ) ;
#230 = PERSON_AND_ORGANIZATION ( #348, #229 ) ;
#231 = CIRCLE ( 'NONE', #76, 9.500000000000023093 ) ;
#232 = AXIS2_PLACEMENT_3D ( 'NONE', #257, #40, #174 ) ;
#233 = COORDINATED_UNIVERSAL_TIME_OFFSET ( 1, 0, .AHEAD. ) ;
#234 = EDGE_CURVE ( 'NONE', #86, #36, #184, .T. ) ;
#235 = DIRECTION ( 'NONE',  ( -1.000000000000000000, -0.000000000000000000, -0.000000000000000000 ) ) ;
#236 = VECTOR ( 'NONE', #193, 1000.000000000000000 ) ;
#237 = ADVANCED_FACE ( 'NONE', ( #109 ), #313, .T. ) ;
#238 = CARTESIAN_POINT ( 'NONE',  ( 0.000000000000000000, 0.000000000000000000, 12.50000000000001954 ) ) ;
#239 = FACE_OUTER_BOUND ( 'NONE', #219, .T. ) ;
#240 = CARTESIAN_POINT ( 'NONE',  ( -154.8395502972293230, 1.530808498934193888E-15, -12.50000000000001954 ) ) ;
#241 = DIRECTION ( 'NONE',  ( 1.000000000000000000, 0.000000000000000000, 0.000000000000000000 ) ) ;
#242 = CIRCLE ( 'NONE', #251, 11.50000000000002132 ) ;
#243 = CARTESIAN_POINT ( 'NONE',  ( -3.000000000000002665, 0.000000000000000000, 0.000000000000000000 ) ) ;
#244 = APPROVAL ( #290, 'UNSPECIFIED' ) ;
#245 = CIRCLE ( 'NONE', #92, 12.50000000000001954 ) ;
#246 = CARTESIAN_POINT ( 'NONE',  ( -3.000000000000002665, 1.469576158976826314E-15, -11.50000000000002132 ) ) ;
#247 = LOCAL_TIME ( 8, 0, 53.00000000000000000, #67 ) ;
#248 = FACE_BOUND ( 'NONE', #61, .T. ) ;
#249 = DESIGN_CONTEXT ( 'detailed design', #205, 'design' ) ;
#250 = VERTEX_POINT ( 'NONE', #60 ) ;
#251 = AXIS2_PLACEMENT_3D ( 'NONE', #243, #306, #24 ) ;
#252 = CARTESIAN_POINT ( 'NONE',  ( 0.000000000000000000, 0.000000000000000000, 0.000000000000000000 ) ) ;
#253 = ORIENTED_EDGE ( 'NONE', *, *, #110, .T. ) ;
#254 = CARTESIAN_POINT ( 'NONE',  ( 6.000000000002280842, 1.285879139104723394E-15, -10.50000000000001954 ) ) ;
#255 = ORIENTED_EDGE ( 'NONE', *, *, #47, .F. ) ;
#256 = AXIS2_PLACEMENT_3D ( 'NONE', #274, #117, #222 ) ;
#257 = CARTESIAN_POINT ( 'NONE',  ( 7.000000000002282619, 0.000000000000000000, 0.000000000000000000 ) ) ;
#258 = ORIENTED_EDGE ( 'NONE', *, *, #354, .T. ) ;
#259 = CALENDAR_DATE ( 2024, 23, 9 ) ;
#260 = ORIENTED_EDGE ( 'NONE', *, *, #204, .T. ) ;
#261 = APPROVAL_DATE_TIME ( #155, #53 ) ;
#262 = CARTESIAN_POINT ( 'NONE',  ( -2.000000000000001776, 0.000000000000000000, 12.50000000000001954 ) ) ;
#263 = APPROVAL_ROLE ( '' ) ;
#264 =( LENGTH_UNIT ( ) NAMED_UNIT ( * ) SI_UNIT ( .MILLI., .METRE. ) );
#265 = CALENDAR_DATE ( 2024, 23, 9 ) ;
#266 = AXIS2_PLACEMENT_3D ( 'NONE', #189, #301, #268 ) ;
#267 = EDGE_CURVE ( 'NONE', #91, #221, #48, .T. ) ;
#268 = DIRECTION ( 'NONE',  ( 0.000000000000000000, 0.000000000000000000, 1.000000000000000000 ) ) ;
#269 = AXIS2_PLACEMENT_3D ( 'NONE', #7, #327, #52 ) ;
#270 = CC_DESIGN_APPROVAL ( #53, ( #328 ) ) ;
#271 = DIRECTION ( 'NONE',  ( -1.000000000000000000, -0.000000000000000000, -0.000000000000000000 ) ) ;
#272 = EDGE_CURVE ( 'NONE', #287, #101, #158, .T. ) ;
#273 = CARTESIAN_POINT ( 'NONE',  ( 6.000000000002280842, 0.000000000000000000, 0.000000000000000000 ) ) ;
#274 = CARTESIAN_POINT ( 'NONE',  ( -2.000000000000001776, 0.000000000000000000, 0.000000000000000000 ) ) ;
#275 = LINE ( 'NONE', #138, #170 ) ;
#276 = DIRECTION ( 'NONE',  ( 0.000000000000000000, 0.000000000000000000, 1.000000000000000000 ) ) ;
#277 = CC_DESIGN_SECURITY_CLASSIFICATION ( #159, ( #328 ) ) ;
#278 = PLANE ( 'NONE',  #188 ) ;
#279 = CYLINDRICAL_SURFACE ( 'NONE', #33, 10.50000000000001954 ) ;
#280 = ORIENTED_EDGE ( 'NONE', *, *, #182, .T. ) ;
#281 = TOROIDAL_SURFACE ( 'NONE', #357, 11.50000000000002132, 0.9999999999999995559 ) ;
#282 = COORDINATED_UNIVERSAL_TIME_OFFSET ( 1, 0, .AHEAD. ) ;
#283 = APPLICATION_PROTOCOL_DEFINITION ( 'international standard', 'config_control_design', 1994, #344 ) ;
#284 = EDGE_CURVE ( 'NONE', #224, #70, #202, .T. ) ;
#285 = EDGE_LOOP ( 'NONE', ( #310, #89, #172, #203 ) ) ;
#286 = PERSON_AND_ORGANIZATION_ROLE ( 'creator' ) ;
#287 = VERTEX_POINT ( 'NONE', #165 ) ;
#288 = EDGE_CURVE ( 'NONE', #226, #201, #94, .T. ) ;
#289 = PERSON_AND_ORGANIZATION_ROLE ( 'classification_officer' ) ;
#290 = APPROVAL_STATUS ( 'not_yet_approved' ) ;
#291 = EDGE_CURVE ( 'NONE', #226, #86, #100, .T. ) ;
#292 = AXIS2_PLACEMENT_3D ( 'NONE', #55, #111, #331 ) ;
#293 = CALENDAR_DATE ( 2024, 23, 9 ) ;
#294 = DIRECTION ( 'NONE',  ( 0.000000000000000000, 0.000000000000000000, 1.000000000000000000 ) ) ;
#295 = DIRECTION ( 'NONE',  ( 0.000000000000000000, 0.000000000000000000, -1.000000000000000000 ) ) ;
#296 = APPROVAL_DATE_TIME ( #322, #39 ) ;
#297 = LINE ( 'NONE', #240, #326 ) ;
#298 = AXIS2_PLACEMENT_3D ( 'NONE', #351, #103, #208 ) ;
#299 = PLANE ( 'NONE',  #35 ) ;
#300 = ADVANCED_FACE ( 'NONE', ( #335 ), #329, .T. ) ;
#301 = DIRECTION ( 'NONE',  ( -1.000000000000000000, -0.000000000000000000, -0.000000000000000000 ) ) ;
#302 = AXIS2_PLACEMENT_3D ( 'NONE', #252, #147, #220 ) ;
#303 = DIRECTION ( 'NONE',  ( -1.000000000000000000, -0.000000000000000000, -0.000000000000000000 ) ) ;
#304 = AXIS2_PLACEMENT_3D ( 'NONE', #160, #271, #20 ) ;
#305 = DIRECTION ( 'NONE',  ( -0.000000000000000000, 0.000000000000000000, 1.000000000000000000 ) ) ;
#306 = DIRECTION ( 'NONE',  ( -1.000000000000000000, -0.000000000000000000, -0.000000000000000000 ) ) ;
#307 = ORIENTED_EDGE ( 'NONE', *, *, #354, .F. ) ;
#308 = DIRECTION ( 'NONE',  ( -0.7071067811865487940, 0.000000000000000000, 0.7071067811865463515 ) ) ;
#309 =( NAMED_UNIT ( * ) SI_UNIT ( $, .STERADIAN. ) SOLID_ANGLE_UNIT ( ) );
#310 = ORIENTED_EDGE ( 'NONE', *, *, #41, .T. ) ;
#311 = EDGE_CURVE ( 'NONE', #250, #221, #171, .T. ) ;
#312 = ORIENTED_EDGE ( 'NONE', *, *, #173, .T. ) ;
#313 = CONICAL_SURFACE ( 'NONE', #176, 9.500000000000023093, 0.7853981633974466137 ) ;
#314 = MECHANICAL_CONTEXT ( 'NONE', #344, 'mechanical' ) ;
#315 = LOCAL_TIME ( 8, 0, 53.00000000000000000, #133 ) ;
#316 = ORIENTED_EDGE ( 'NONE', *, *, #56, .T. ) ;
#317 = AXIS2_PLACEMENT_3D ( 'NONE', #192, #356, #3 ) ;
#318 = PERSON_AND_ORGANIZATION ( #348, #229 ) ;
#319 = DIRECTION ( 'NONE',  ( -1.000000000000000000, -0.000000000000000000, -0.000000000000000000 ) ) ;
#320 = DIRECTION ( 'NONE',  ( 0.000000000000000000, 0.000000000000000000, 1.000000000000000000 ) ) ;
#321 = LINE ( 'NONE', #187, #69 ) ;
#322 = DATE_AND_TIME ( #265, #315 ) ;
#323 = DIRECTION ( 'NONE',  ( -1.000000000000000000, -0.000000000000000000, -0.000000000000000000 ) ) ;
#324 = CIRCLE ( 'NONE', #292, 12.50000000000001954 ) ;
#325 = FACE_OUTER_BOUND ( 'NONE', #355, .T. ) ;
#326 = VECTOR ( 'NONE', #157, 1000.000000000000000 ) ;
#327 = DIRECTION ( 'NONE',  ( -1.000000000000000000, -0.000000000000000000, -0.000000000000000000 ) ) ;
#328 = PRODUCT_DEFINITION_FORMATION_WITH_SPECIFIED_SOURCE ( 'ANY', '', #57, .NOT_KNOWN. ) ;
#329 = CYLINDRICAL_SURFACE ( 'NONE', #80, 12.50000000000001954 ) ;
#330 = PRODUCT_RELATED_PRODUCT_CATEGORY ( 'detail', '', ( #57 ) ) ;
#331 = DIRECTION ( 'NONE',  ( 0.000000000000000000, 0.000000000000000000, 1.000000000000000000 ) ) ;
#332 = EDGE_LOOP ( 'NONE', ( #307, #178 ) ) ;
#333 = DIRECTION ( 'NONE',  ( -1.000000000000000000, -0.000000000000000000, -0.000000000000000000 ) ) ;
#334 = ADVANCED_FACE ( 'NONE', ( #85 ), #279, .T. ) ;
#335 = FACE_OUTER_BOUND ( 'NONE', #123, .T. ) ;
#336 = EDGE_LOOP ( 'NONE', ( #210, #353, #223, #115 ) ) ;
#337 = FACE_OUTER_BOUND ( 'NONE', #195, .T. ) ;
#338 = EDGE_LOOP ( 'NONE', ( #255, #253, #120, #134 ) ) ;
#339 = PERSON_AND_ORGANIZATION ( #348, #229 ) ;
#340 = ORIENTED_EDGE ( 'NONE', *, *, #41, .F. ) ;
#341 = CALENDAR_DATE ( 2024, 23, 9 ) ;
#342 = APPROVAL_PERSON_ORGANIZATION ( #97, #53, #263 ) ;
#343 = PERSON_AND_ORGANIZATION ( #348, #229 ) ;
#344 = APPLICATION_CONTEXT ( 'configuration controlled 3d designs of mechanical parts and assemblies' ) ;
#345 = COORDINATED_UNIVERSAL_TIME_OFFSET ( 1, 0, .AHEAD. ) ;
#346 = CARTESIAN_POINT ( 'NONE',  ( -154.8395502972293230, 0.000000000000000000, 0.000000000000000000 ) ) ;
#347 = ORIENTED_EDGE ( 'NONE', *, *, #148, .T. ) ;
#348 = PERSON ( 'UNSPECIFIED', 'UNSPECIFIED', 'UNSPECIFIED', ('UNSPECIFIED'), ('UNSPECIFIED'), ('UNSPECIFIED') ) ;
#349 = SHAPE_DEFINITION_REPRESENTATION ( #31, #142 ) ;
#350 = ADVANCED_FACE ( 'NONE', ( #337 ), #211, .T. ) ;
#351 = CARTESIAN_POINT ( 'NONE',  ( 7.000000000002282619, 0.000000000000000000, 0.000000000000000000 ) ) ;
#352 = MANIFOLD_SOLID_BREP ( 'Rotation1', #140 ) ;
#353 = ORIENTED_EDGE ( 'NONE', *, *, #47, .T. ) ;
#354 = EDGE_CURVE ( 'NONE', #11, #250, #14, .T. ) ;
#355 = EDGE_LOOP ( 'NONE', ( #59, #186, #146, #180 ) ) ;
#356 = DIRECTION ( 'NONE',  ( -1.000000000000000000, -0.000000000000000000, -0.000000000000000000 ) ) ;
#357 = AXIS2_PLACEMENT_3D ( 'NONE', #207, #323, #320 ) ;
ENDSEC;
END-ISO-10303-21;
