ISO-10303-21;
HEADER;
FILE_DESCRIPTION (( 'STEP AP203' ),
    '1' );
FILE_NAME ('3D_R365_26.9x2_173371112.STEP',
    '2024-07-16T06:14:51',
    ( '' ),
    ( '' ),
    'SwSTEP 2.0',
    'SolidWorks 2024',
    '' );
FILE_SCHEMA (( 'CONFIG_CONTROL_DESIGN' ));
ENDSEC;

DATA;
#1 = FACE_OUTER_BOUND ( 'NONE', #227, .T. ) ;
#2 = LINE ( 'NONE', #30, #411 ) ;
#3 = CIRCLE ( 'NONE', #92, 12.74354017729482180 ) ;
#4 = CARTESIAN_POINT ( 'NONE',  ( 1.387778780781445676E-14, 2817.965330118411202, 0.000000000000000000 ) ) ;
#5 = AXIS2_PLACEMENT_3D ( 'NONE', #67, #350, #216 ) ;
#6 = CC_DESIGN_PERSON_AND_ORGANIZATION_ASSIGNMENT ( #263, #375, ( #12 ) ) ;
#7 = DIRECTION ( 'NONE',  ( 4.596983092540343816E-18, 1.000000000000000000, -0.000000000000000000 ) ) ;
#8 = EDGE_LOOP ( 'NONE', ( #222, #41, #357, #353 ) ) ;
#9 = DIRECTION ( 'NONE',  ( 4.596983092540343816E-18, 1.000000000000000000, -0.000000000000000000 ) ) ;
#10 = ORIENTED_EDGE ( 'NONE', *, *, #249, .F. ) ;
#11 = CIRCLE ( 'NONE', #368, 13.44999999999999929 ) ;
#12 = PRODUCT_DEFINITION_FORMATION_WITH_SPECIFIED_SOURCE ( 'ANY', '', #360, .NOT_KNOWN. ) ;
#13 = DIRECTION ( 'NONE',  ( -1.000000000000000000, 8.060982695059513437E-18, 0.000000000000000000 ) ) ;
#14 = ORIENTED_EDGE ( 'NONE', *, *, #344, .T. ) ;
#15 =( NAMED_UNIT ( * ) PLANE_ANGLE_UNIT ( ) SI_UNIT ( $, .RADIAN. ) );
#16 = ORIENTED_EDGE ( 'NONE', *, *, #266, .F. ) ;
#17 = VERTEX_POINT ( 'NONE', #84 ) ;
#18 = APPLICATION_PROTOCOL_DEFINITION ( 'international standard', 'config_control_design', 1994, #47 ) ;
#19 = CIRCLE ( 'NONE', #94, 0.03499999999999683920 ) ;
#20 = DIRECTION ( 'NONE',  ( -1.000000000000000000, 0.000000000000000000, 0.000000000000000000 ) ) ;
#21 = AXIS2_PLACEMENT_3D ( 'NONE', #220, #186, #167 ) ;
#22 = EDGE_CURVE ( 'NONE', #255, #161, #129, .T. ) ;
#23 = CYLINDRICAL_SURFACE ( 'NONE', #121, 11.44999999999999929 ) ;
#24 = SPHERICAL_SURFACE ( 'NONE', #159, 17.51999999999999957 ) ;
#25 = PRODUCT_DEFINITION_SHAPE ( 'NONE', 'NONE',  #330 ) ;
#26 = CARTESIAN_POINT ( 'NONE',  ( 1.387778780781445676E-14, 2817.965330118411202, 0.000000000000000000 ) ) ;
#27 = CLOSED_SHELL ( 'NONE', ( #150, #174, #373, #204, #305, #58, #85, #337, #196, #325, #72, #144, #96 ) ) ;
#28 = EDGE_CURVE ( 'NONE', #383, #171, #374, .T. ) ;
#29 = DATE_AND_TIME ( #247, #166 ) ;
#30 = CARTESIAN_POINT ( 'NONE',  ( 11.45000000000001350, 2817.965330118411202, 1.402220585023719497E-15 ) ) ;
#31 = APPROVAL_DATE_TIME ( #241, #282 ) ;
#32 = DIRECTION ( 'NONE',  ( -1.000000000000000000, 4.596983092540343816E-18, 0.000000000000000000 ) ) ;
#33 = DIRECTION ( 'NONE',  ( -0.000000000000000000, 0.000000000000000000, -1.000000000000000000 ) ) ;
#34 = CC_DESIGN_PERSON_AND_ORGANIZATION_ASSIGNMENT ( #272, #66, ( #330 ) ) ;
#35 = DIRECTION ( 'NONE',  ( 1.000000000000000000, 0.000000000000000000, 1.224646799147353207E-16 ) ) ;
#36 = CARTESIAN_POINT ( 'NONE',  ( -12.74354017729482003, 2.266229531211472192, 0.000000000000000000 ) ) ;
#37 = DIRECTION ( 'NONE',  ( -1.000000000000000000, 0.000000000000000000, 0.000000000000000000 ) ) ;
#38 = EDGE_CURVE ( 'NONE', #161, #255, #245, .T. ) ;
#39 = TOROIDAL_SURFACE ( 'NONE', #277, 11.41499999999999915, 0.03499999999999770656 ) ;
#40 = DIRECTION ( 'NONE',  ( -1.000000000000000000, 0.000000000000000000, 0.000000000000000000 ) ) ;
#41 = ORIENTED_EDGE ( 'NONE', *, *, #99, .T. ) ;
#42 = AXIS2_PLACEMENT_3D ( 'NONE', #382, #291, #13 ) ;
#43 = DIRECTION ( 'NONE',  ( 0.000000000000000000, 0.000000000000000000, 1.000000000000000000 ) ) ;
#44 = ORIENTED_EDGE ( 'NONE', *, *, #209, .T. ) ;
#45 = FACE_OUTER_BOUND ( 'NONE', #187, .T. ) ;
#46 = EDGE_LOOP ( 'NONE', ( #10, #176, #253 ) ) ;
#47 = APPLICATION_CONTEXT ( 'configuration controlled 3d designs of mechanical parts and assemblies' ) ;
#48 = ORIENTED_EDGE ( 'NONE', *, *, #406, .F. ) ;
#49 = PERSON_AND_ORGANIZATION_ROLE ( 'creator' ) ;
#50 = ORIENTED_EDGE ( 'NONE', *, *, #99, .F. ) ;
#51 = LOCAL_TIME ( 8, 14, 51.00000000000000000, #145 ) ;
#52 = SHAPE_DEFINITION_REPRESENTATION ( #25, #326 ) ;
#53 = DIRECTION ( 'NONE',  ( -1.000000000000000000, 0.000000000000000000, 0.000000000000000000 ) ) ;
#54 = EDGE_CURVE ( 'NONE', #171, #297, #3, .T. ) ;
#55 = CIRCLE ( 'NONE', #160, 17.51999999999999957 ) ;
#56 = CARTESIAN_POINT ( 'NONE',  ( 1.387778780781445676E-14, 2817.965330118411202, 0.000000000000000000 ) ) ;
#57 = ORIENTED_EDGE ( 'NONE', *, *, #28, .F. ) ;
#58 = ADVANCED_FACE ( 'NONE', ( #239 ), #371, .T. ) ;
#59 = DIRECTION ( 'NONE',  ( -1.224646799147353207E-16, 5.629680630014033300E-34, 1.000000000000000000 ) ) ;
#60 = CC_DESIGN_APPROVAL ( #271, ( #104 ) ) ;
#61 = APPROVAL_STATUS ( 'not_yet_approved' ) ;
#62 = CIRCLE ( 'NONE', #112, 17.51999999999999957 ) ;
#63 = EDGE_LOOP ( 'NONE', ( #81, #395, #44, #107 ) ) ;
#64 = PERSON_AND_ORGANIZATION ( #400, #407 ) ;
#65 = CARTESIAN_POINT ( 'NONE',  ( 9.236488298952508525E-16, 0.000000000000000000, 0.000000000000000000 ) ) ;
#66 = PERSON_AND_ORGANIZATION_ROLE ( 'creator' ) ;
#67 = CARTESIAN_POINT ( 'NONE',  ( 1.734723475976807094E-15, 0.7247348029320735963, 0.000000000000000000 ) ) ;
#68 = EDGE_CURVE ( 'NONE', #255, #194, #62, .T. ) ;
#69 = CARTESIAN_POINT ( 'NONE',  ( -11.41499999999999737, 0.7247348029320709317, 0.000000000000000000 ) ) ;
#70 = DIRECTION ( 'NONE',  ( -0.000000000000000000, 0.000000000000000000, -1.000000000000000000 ) ) ;
#71 = CARTESIAN_POINT ( 'NONE',  ( -13.44999999999998685, 2817.965330118411202, 0.000000000000000000 ) ) ;
#72 = ADVANCED_FACE ( 'NONE', ( #269 ), #23, .F. ) ;
#73 = APPROVAL_PERSON_ORGANIZATION ( #409, #271, #331 ) ;
#74 = CARTESIAN_POINT ( 'NONE',  ( 9.269804235309061604E-16, 0.7247348029322253637, 0.000000000000000000 ) ) ;
#75 = VERTEX_POINT ( 'NONE', #146 ) ;
#76 = AXIS2_PLACEMENT_3D ( 'NONE', #317, #181, #251 ) ;
#77 = FACE_OUTER_BOUND ( 'NONE', #8, .T. ) ;
#78 = VERTEX_POINT ( 'NONE', #175 ) ;
#79 = CARTESIAN_POINT ( 'NONE',  ( 1.387778780781445676E-14, 2817.965330118411202, 0.000000000000000000 ) ) ;
#80 = DIRECTION ( 'NONE',  ( -1.000000000000000000, 8.060982695059513437E-18, 0.000000000000000000 ) ) ;
#81 = ORIENTED_EDGE ( 'NONE', *, *, #156, .F. ) ;
#82 = VERTEX_POINT ( 'NONE', #142 ) ;
#83 = COORDINATED_UNIVERSAL_TIME_OFFSET ( 1, 0, .AHEAD. ) ;
#84 = CARTESIAN_POINT ( 'NONE',  ( -13.44999999999999929, 0.7247348029322254748, 0.000000000000000000 ) ) ;
#85 = ADVANCED_FACE ( 'NONE', ( #306, #268 ), #89, .T. ) ;
#86 = DIRECTION ( 'NONE',  ( 0.000000000000000000, 0.000000000000000000, 1.000000000000000000 ) ) ;
#87 = CARTESIAN_POINT ( 'NONE',  ( -1.421144051446094685E-34, -3.091471129733380708E-17, 0.000000000000000000 ) ) ;
#88 = CC_DESIGN_PERSON_AND_ORGANIZATION_ASSIGNMENT ( #339, #149, ( #104 ) ) ;
#89 = PLANE ( 'NONE',  #341 ) ;
#90 = PERSON_AND_ORGANIZATION_ROLE ( 'design_owner' ) ;
#91 = DIRECTION ( 'NONE',  ( 4.596983092540343816E-18, 1.000000000000000000, -0.000000000000000000 ) ) ;
#92 = AXIS2_PLACEMENT_3D ( 'NONE', #202, #91, #238 ) ;
#93 = DIRECTION ( 'NONE',  ( 4.596983092540343816E-18, 1.000000000000000000, -0.000000000000000000 ) ) ;
#94 = AXIS2_PLACEMENT_3D ( 'NONE', #180, #184, #126 ) ;
#95 = DIRECTION ( 'NONE',  ( -1.000000000000000000, 0.000000000000000000, 0.000000000000000000 ) ) ;
#96 = ADVANCED_FACE ( 'NONE', ( #235 ), #24, .F. ) ;
#97 =( GEOMETRIC_REPRESENTATION_CONTEXT ( 3 ) GLOBAL_UNCERTAINTY_ASSIGNED_CONTEXT ( ( #311 ) ) GLOBAL_UNIT_ASSIGNED_CONTEXT ( ( #195, #15, #136 ) ) REPRESENTATION_CONTEXT ( 'NONE', 'WORKASPACE' ) );
#98 = CARTESIAN_POINT ( 'NONE',  ( -11.43784958535891327, 0.7512469972759134862, 0.000000000000000000 ) ) ;
#99 = EDGE_CURVE ( 'NONE', #393, #135, #11, .T. ) ;
#100 = CARTESIAN_POINT ( 'NONE',  ( 2.390510551935632900E-15, -12.51999999999999957, 0.000000000000000000 ) ) ;
#101 = CARTESIAN_POINT ( 'NONE',  ( 0.000000000000000000, 0.000000000000000000, 0.000000000000000000 ) ) ;
#102 = CC_DESIGN_APPROVAL ( #236, ( #330 ) ) ;
#103 = VERTEX_POINT ( 'NONE', #173 ) ;
#104 = SECURITY_CLASSIFICATION ( '', '', #201 ) ;
#105 = EDGE_LOOP ( 'NONE', ( #359, #111, #230, #113 ) ) ;
#106 = SPHERICAL_SURFACE ( 'NONE', #294, 19.52000000000000313 ) ;
#107 = ORIENTED_EDGE ( 'NONE', *, *, #38, .T. ) ;
#108 = EDGE_CURVE ( 'NONE', #297, #171, #188, .T. ) ;
#109 = CARTESIAN_POINT ( 'NONE',  ( -11.41499999999999737, 0.7247348029320709317, 0.000000000000000000 ) ) ;
#110 = ORIENTED_EDGE ( 'NONE', *, *, #354, .F. ) ;
#111 = ORIENTED_EDGE ( 'NONE', *, *, #156, .T. ) ;
#112 = AXIS2_PLACEMENT_3D ( 'NONE', #301, #397, #203 ) ;
#113 = ORIENTED_EDGE ( 'NONE', *, *, #209, .F. ) ;
#114 = DIRECTION ( 'NONE',  ( -4.596983092540343816E-18, -1.000000000000000000, 0.000000000000000000 ) ) ;
#115 = DIRECTION ( 'NONE',  ( 4.596983092540343816E-18, 1.000000000000000000, -0.000000000000000000 ) ) ;
#116 = DIRECTION ( 'NONE',  ( -1.000000000000000000, 0.000000000000000000, 0.000000000000000000 ) ) ;
#117 = CALENDAR_DATE ( 2024, 16, 7 ) ;
#118 = DIRECTION ( 'NONE',  ( -1.000000000000000000, 4.596983092540343046E-18, 0.000000000000000000 ) ) ;
#119 = CARTESIAN_POINT ( 'NONE',  ( 12.74354017729482358, 2.266229531211472192, 1.603891756823084763E-15 ) ) ;
#120 = CC_DESIGN_SECURITY_CLASSIFICATION ( #104, ( #12 ) ) ;
#121 = AXIS2_PLACEMENT_3D ( 'NONE', #26, #367, #20 ) ;
#122 = EDGE_CURVE ( 'NONE', #135, #17, #276, .T. ) ;
#123 = SPHERICAL_SURFACE ( 'NONE', #284, 17.51999999999999957 ) ;
#124 = CALENDAR_DATE ( 2024, 16, 7 ) ;
#125 = CARTESIAN_POINT ( 'NONE',  ( 1.734723475976807094E-15, 0.7247348029320709317, 0.000000000000000000 ) ) ;
#126 = DIRECTION ( 'NONE',  ( 1.000000000000000000, 0.000000000000000000, 1.224646799147388459E-16 ) ) ;
#127 = EDGE_CURVE ( 'NONE', #297, #103, #141, .T. ) ;
#128 = FACE_OUTER_BOUND ( 'NONE', #105, .T. ) ;
#129 = CIRCLE ( 'NONE', #231, 11.43784958535891505 ) ;
#130 = DIRECTION ( 'NONE',  ( -1.000000000000000000, 0.000000000000000000, 0.000000000000000000 ) ) ;
#131 = CARTESIAN_POINT ( 'NONE',  ( 11.44999999999999929, 0.7247348029320735963, 1.402220585023719300E-15 ) ) ;
#132 = FACE_OUTER_BOUND ( 'NONE', #200, .T. ) ;
#133 = ORIENTED_EDGE ( 'NONE', *, *, #315, .T. ) ;
#134 = DIRECTION ( 'NONE',  ( 4.596983092540343816E-18, 1.000000000000000000, -0.000000000000000000 ) ) ;
#135 = VERTEX_POINT ( 'NONE', #408 ) ;
#136 =( NAMED_UNIT ( * ) SI_UNIT ( $, .STERADIAN. ) SOLID_ANGLE_UNIT ( ) );
#137 = EDGE_LOOP ( 'NONE', ( #262, #338, #363, #270 ) ) ;
#138 = EDGE_CURVE ( 'NONE', #393, #383, #157, .T. ) ;
#139 = DATE_TIME_ROLE ( 'classification_date' ) ;
#140 = ORIENTED_EDGE ( 'NONE', *, *, #399, .T. ) ;
#141 = CIRCLE ( 'NONE', #182, 19.52000000000000313 ) ;
#142 = CARTESIAN_POINT ( 'NONE',  ( 11.45000000000000107, -5.263545640958693885E-17, 1.402220585023719497E-15 ) ) ;
#143 = DIRECTION ( 'NONE',  ( 4.596983092540343816E-18, 1.000000000000000000, -0.000000000000000000 ) ) ;
#144 = ADVANCED_FACE ( 'NONE', ( #313 ), #39, .F. ) ;
#145 = COORDINATED_UNIVERSAL_TIME_OFFSET ( 1, 0, .AHEAD. ) ;
#146 = CARTESIAN_POINT ( 'NONE',  ( -11.44999999999999751, 0.7247348029320735963, 0.000000000000000000 ) ) ;
#147 = APPROVAL_ROLE ( '' ) ;
#148 = DIRECTION ( 'NONE',  ( -1.000000000000000000, 0.000000000000000000, 0.000000000000000000 ) ) ;
#149 = PERSON_AND_ORGANIZATION_ROLE ( 'classification_officer' ) ;
#150 = ADVANCED_FACE ( 'NONE', ( #1 ), #123, .F. ) ;
#151 = DIRECTION ( 'NONE',  ( 4.596983092540343816E-18, 1.000000000000000000, -0.000000000000000000 ) ) ;
#152 = COORDINATED_UNIVERSAL_TIME_OFFSET ( 1, 0, .AHEAD. ) ;
#153 = DIRECTION ( 'NONE',  ( 4.596983092540343816E-18, 1.000000000000000000, -0.000000000000000000 ) ) ;
#154 = AXIS2_PLACEMENT_3D ( 'NONE', #217, #151, #219 ) ;
#155 = DIRECTION ( 'NONE',  ( 4.596983092540343816E-18, 1.000000000000000000, -0.000000000000000000 ) ) ;
#156 = EDGE_CURVE ( 'NONE', #307, #255, #19, .T. ) ;
#157 = LINE ( 'NONE', #316, #303 ) ;
#158 = DIRECTION ( 'NONE',  ( 1.000000000000000000, -4.596983092540344586E-18, 0.000000000000000000 ) ) ;
#159 = AXIS2_PLACEMENT_3D ( 'NONE', #205, #86, #401 ) ;
#160 = AXIS2_PLACEMENT_3D ( 'NONE', #347, #70, #95 ) ;
#161 = VERTEX_POINT ( 'NONE', #98 ) ;
#162 = DIRECTION ( 'NONE',  ( 1.000000000000000000, 0.000000000000000000, 0.000000000000000000 ) ) ;
#163 = ORIENTED_EDGE ( 'NONE', *, *, #266, .T. ) ;
#164 = CARTESIAN_POINT ( 'NONE',  ( 13.44999999999999929, -6.182942259466761416E-17, 1.647149944853189991E-15 ) ) ;
#165 = ORIENTED_EDGE ( 'NONE', *, *, #249, .T. ) ;
#166 = LOCAL_TIME ( 8, 14, 51.00000000000000000, #83 ) ;
#167 = DIRECTION ( 'NONE',  ( 1.000000000000000000, -4.596983092540344586E-18, 0.000000000000000000 ) ) ;
#168 = CIRCLE ( 'NONE', #252, 2.034999999999998810 ) ;
#169 = EDGE_LOOP ( 'NONE', ( #57, #140, #133, #224 ) ) ;
#170 = EDGE_CURVE ( 'NONE', #82, #307, #2, .T. ) ;
#171 = VERTEX_POINT ( 'NONE', #119 ) ;
#172 = ORIENTED_EDGE ( 'NONE', *, *, #298, .T. ) ;
#173 = CARTESIAN_POINT ( 'NONE',  ( 1.284988385934203691E-15, 7.000000000000002665, 0.000000000000000000 ) ) ;
#174 = ADVANCED_FACE ( 'NONE', ( #128 ), #225, .F. ) ;
#175 = CARTESIAN_POINT ( 'NONE',  ( -11.44999999999999751, 5.263545640958693885E-17, 0.000000000000000000 ) ) ;
#176 = ORIENTED_EDGE ( 'NONE', *, *, #54, .T. ) ;
#177 = ORIENTED_EDGE ( 'NONE', *, *, #189, .T. ) ;
#178 = PRODUCT_RELATED_PRODUCT_CATEGORY ( 'detail', '', ( #360 ) ) ;
#179 = APPROVAL_ROLE ( '' ) ;
#180 = CARTESIAN_POINT ( 'NONE',  ( 11.41500000000000092, 0.7247348029320709317, 1.397934321226703586E-15 ) ) ;
#181 = DIRECTION ( 'NONE',  ( 4.596983092540343816E-18, 1.000000000000000000, -0.000000000000000000 ) ) ;
#182 = AXIS2_PLACEMENT_3D ( 'NONE', #346, #33, #248 ) ;
#183 = DIRECTION ( 'NONE',  ( -1.000000000000000000, 0.000000000000000000, 0.000000000000000000 ) ) ;
#184 = DIRECTION ( 'NONE',  ( -1.224646799147353207E-16, 5.629680630014033300E-34, 1.000000000000000000 ) ) ;
#185 = LOCAL_TIME ( 8, 14, 51.00000000000000000, #152 ) ;
#186 = DIRECTION ( 'NONE',  ( 4.596983092540343816E-18, 1.000000000000000000, -0.000000000000000000 ) ) ;
#187 = EDGE_LOOP ( 'NONE', ( #288, #389, #290, #324 ) ) ;
#188 = CIRCLE ( 'NONE', #265, 12.74354017729482180 ) ;
#189 = EDGE_CURVE ( 'NONE', #161, #194, #55, .T. ) ;
#190 = TOROIDAL_SURFACE ( 'NONE', #318, 11.41499999999999915, 2.034999999999997922 ) ;
#191 = LINE ( 'NONE', #254, #286 ) ;
#192 = ORIENTED_EDGE ( 'NONE', *, *, #344, .F. ) ;
#193 = CARTESIAN_POINT ( 'NONE',  ( 1.734723475976807094E-15, 0.7247348029320735963, 0.000000000000000000 ) ) ;
#194 = VERTEX_POINT ( 'NONE', #381 ) ;
#195 =( LENGTH_UNIT ( ) NAMED_UNIT ( * ) SI_UNIT ( .MILLI., .METRE. ) );
#196 = ADVANCED_FACE ( 'NONE', ( #379 ), #334, .T. ) ;
#197 = EDGE_LOOP ( 'NONE', ( #16, #50 ) ) ;
#198 = APPROVAL_DATE_TIME ( #345, #271 ) ;
#199 = CIRCLE ( 'NONE', #377, 11.44999999999999929 ) ;
#200 = EDGE_LOOP ( 'NONE', ( #192, #293, #261, #110 ) ) ;
#201 = SECURITY_CLASSIFICATION_LEVEL ( 'unclassified' ) ;
#202 = CARTESIAN_POINT ( 'NONE',  ( 9.340666487340464934E-16, 2.266229531211472192, 0.000000000000000000 ) ) ;
#203 = DIRECTION ( 'NONE',  ( 1.000000000000000000, 0.000000000000000000, 1.224646799147353454E-16 ) ) ;
#204 = ADVANCED_FACE ( 'NONE', ( #243 ), #278, .T. ) ;
#205 = CARTESIAN_POINT ( 'NONE',  ( 2.390510551935632900E-15, -12.51999999999999957, 0.000000000000000000 ) ) ;
#206 = DIRECTION ( 'NONE',  ( 4.596983092540343816E-18, 1.000000000000000000, -0.000000000000000000 ) ) ;
#207 = AXIS2_PLACEMENT_3D ( 'NONE', #101, #43, #162 ) ;
#208 = APPROVAL_DATE_TIME ( #308, #236 ) ;
#209 = EDGE_CURVE ( 'NONE', #75, #161, #214, .T. ) ;
#210 = LOCAL_TIME ( 8, 14, 51.00000000000000000, #232 ) ;
#211 = DIRECTION ( 'NONE',  ( -1.000000000000000000, 0.000000000000000000, 0.000000000000000000 ) ) ;
#212 = DESIGN_CONTEXT ( 'detailed design', #47, 'design' ) ;
#213 = PERSON_AND_ORGANIZATION ( #400, #407 ) ;
#214 = CIRCLE ( 'NONE', #387, 0.03499999999999683920 ) ;
#215 = DIRECTION ( 'NONE',  ( -0.000000000000000000, 0.000000000000000000, -1.000000000000000000 ) ) ;
#216 = DIRECTION ( 'NONE',  ( -1.000000000000000000, 0.000000000000000000, 0.000000000000000000 ) ) ;
#217 = CARTESIAN_POINT ( 'NONE',  ( 1.734723475976807094E-15, 0.7247348029320709317, 0.000000000000000000 ) ) ;
#218 = DIRECTION ( 'NONE',  ( 4.596983092540343816E-18, 1.000000000000000000, -0.000000000000000000 ) ) ;
#219 = DIRECTION ( 'NONE',  ( -1.000000000000000000, 4.596983092540343816E-18, 0.000000000000000000 ) ) ;
#220 = CARTESIAN_POINT ( 'NONE',  ( 9.236488298952508525E-16, 0.000000000000000000, 0.000000000000000000 ) ) ;
#221 = EDGE_CURVE ( 'NONE', #307, #75, #240, .T. ) ;
#222 = ORIENTED_EDGE ( 'NONE', *, *, #138, .F. ) ;
#223 = CARTESIAN_POINT ( 'NONE',  ( 1.734723475976807094E-15, 0.7247348029320709317, 0.000000000000000000 ) ) ;
#224 = ORIENTED_EDGE ( 'NONE', *, *, #54, .F. ) ;
#225 = TOROIDAL_SURFACE ( 'NONE', #76, 11.41499999999999915, 0.03499999999999770656 ) ;
#226 = CARTESIAN_POINT ( 'NONE',  ( 2.390510551935632900E-15, -12.51999999999999957, 0.000000000000000000 ) ) ;
#227 = EDGE_LOOP ( 'NONE', ( #295, #386, #264 ) ) ;
#228 = CYLINDRICAL_SURFACE ( 'NONE', #343, 11.44999999999999929 ) ;
#229 = EDGE_LOOP ( 'NONE', ( #234, #258, #177 ) ) ;
#230 = ORIENTED_EDGE ( 'NONE', *, *, #22, .T. ) ;
#231 = AXIS2_PLACEMENT_3D ( 'NONE', #404, #309, #372 ) ;
#232 = COORDINATED_UNIVERSAL_TIME_OFFSET ( 1, 0, .AHEAD. ) ;
#233 = AXIS2_PLACEMENT_3D ( 'NONE', #193, #289, #40 ) ;
#234 = ORIENTED_EDGE ( 'NONE', *, *, #68, .F. ) ;
#235 = FACE_OUTER_BOUND ( 'NONE', #229, .T. ) ;
#236 = APPROVAL ( #378, 'UNSPECIFIED' ) ;
#237 = CC_DESIGN_APPROVAL ( #282, ( #12 ) ) ;
#238 = DIRECTION ( 'NONE',  ( -1.000000000000000000, 0.000000000000000000, 0.000000000000000000 ) ) ;
#239 = FACE_OUTER_BOUND ( 'NONE', #336, .T. ) ;
#240 = CIRCLE ( 'NONE', #5, 11.44999999999999751 ) ;
#241 = DATE_AND_TIME ( #364, #210 ) ;
#242 = CARTESIAN_POINT ( 'NONE',  ( 9.340666487340464934E-16, 2.266229531211472192, 0.000000000000000000 ) ) ;
#243 = FACE_OUTER_BOUND ( 'NONE', #398, .T. ) ;
#244 = DATE_TIME_ROLE ( 'creation_date' ) ;
#245 = CIRCLE ( 'NONE', #302, 11.43784958535891505 ) ;
#246 = DIRECTION ( 'NONE',  ( 0.000000000000000000, 0.000000000000000000, 1.000000000000000000 ) ) ;
#247 = CALENDAR_DATE ( 2024, 16, 7 ) ;
#248 = DIRECTION ( 'NONE',  ( -1.000000000000000000, 0.000000000000000000, 0.000000000000000000 ) ) ;
#249 = EDGE_CURVE ( 'NONE', #171, #103, #335, .T. ) ;
#250 = CARTESIAN_POINT ( 'NONE',  ( 2.390510551935632900E-15, -12.51999999999999957, 0.000000000000000000 ) ) ;
#251 = DIRECTION ( 'NONE',  ( -1.000000000000000000, 4.596983092540343816E-18, 0.000000000000000000 ) ) ;
#252 = AXIS2_PLACEMENT_3D ( 'NONE', #109, #384, #37 ) ;
#253 = ORIENTED_EDGE ( 'NONE', *, *, #127, .T. ) ;
#254 = CARTESIAN_POINT ( 'NONE',  ( -11.44999999999998685, 2817.965330118411202, 0.000000000000000000 ) ) ;
#255 = VERTEX_POINT ( 'NONE', #280 ) ;
#256 = DIRECTION ( 'NONE',  ( -1.000000000000000000, 4.596983092540343816E-18, 0.000000000000000000 ) ) ;
#257 = MANIFOLD_SOLID_BREP ( 'Wandung1', #27 ) ;
#258 = ORIENTED_EDGE ( 'NONE', *, *, #38, .F. ) ;
#259 = VECTOR ( 'NONE', #410, 1000.000000000000000 ) ;
#260 = DIRECTION ( 'NONE',  ( 4.596983092540343816E-18, 1.000000000000000000, -0.000000000000000000 ) ) ;
#261 = ORIENTED_EDGE ( 'NONE', *, *, #221, .T. ) ;
#262 = ORIENTED_EDGE ( 'NONE', *, *, #170, .F. ) ;
#263 = PERSON_AND_ORGANIZATION ( #400, #407 ) ;
#264 = ORIENTED_EDGE ( 'NONE', *, *, #189, .F. ) ;
#265 = AXIS2_PLACEMENT_3D ( 'NONE', #242, #115, #211 ) ;
#266 = EDGE_CURVE ( 'NONE', #135, #393, #390, .T. ) ;
#267 = CIRCLE ( 'NONE', #279, 13.44999999999999929 ) ;
#268 = FACE_OUTER_BOUND ( 'NONE', #197, .T. ) ;
#269 = FACE_OUTER_BOUND ( 'NONE', #137, .T. ) ;
#270 = ORIENTED_EDGE ( 'NONE', *, *, #348, .T. ) ;
#271 = APPROVAL ( #61, 'UNSPECIFIED' ) ;
#272 = PERSON_AND_ORGANIZATION ( #400, #407 ) ;
#273 = DIRECTION ( 'NONE',  ( 1.000000000000000000, -4.596983092540343816E-18, 0.000000000000000000 ) ) ;
#274 = CALENDAR_DATE ( 2024, 16, 7 ) ;
#275 = COORDINATED_UNIVERSAL_TIME_OFFSET ( 1, 0, .AHEAD. ) ;
#276 = LINE ( 'NONE', #71, #259 ) ;
#277 = AXIS2_PLACEMENT_3D ( 'NONE', #125, #153, #32 ) ;
#278 = SPHERICAL_SURFACE ( 'NONE', #321, 19.52000000000000313 ) ;
#279 = AXIS2_PLACEMENT_3D ( 'NONE', #74, #134, #80 ) ;
#280 = CARTESIAN_POINT ( 'NONE',  ( 11.43784958535891683, 0.7512469972759134862, 1.401476586703793291E-15 ) ) ;
#281 = DIRECTION ( 'NONE',  ( -1.000000000000000000, 0.000000000000000000, 0.000000000000000000 ) ) ;
#282 = APPROVAL ( #405, 'UNSPECIFIED' ) ;
#283 = AXIS2_PLACEMENT_3D ( 'NONE', #56, #332, #53 ) ;
#284 = AXIS2_PLACEMENT_3D ( 'NONE', #349, #246, #281 ) ;
#285 = CYLINDRICAL_SURFACE ( 'NONE', #310, 13.44999999999999929 ) ;
#286 = VECTOR ( 'NONE', #9, 1000.000000000000000 ) ;
#287 = DIRECTION ( 'NONE',  ( -1.000000000000000000, 0.000000000000000000, 0.000000000000000000 ) ) ;
#288 = ORIENTED_EDGE ( 'NONE', *, *, #406, .T. ) ;
#289 = DIRECTION ( 'NONE',  ( 4.596983092540343816E-18, 1.000000000000000000, -0.000000000000000000 ) ) ;
#290 = ORIENTED_EDGE ( 'NONE', *, *, #108, .F. ) ;
#291 = DIRECTION ( 'NONE',  ( 4.596983092540343816E-18, 1.000000000000000000, -0.000000000000000000 ) ) ;
#292 = CC_DESIGN_DATE_AND_TIME_ASSIGNMENT ( #300, #139, ( #104 ) ) ;
#293 = ORIENTED_EDGE ( 'NONE', *, *, #170, .T. ) ;
#294 = AXIS2_PLACEMENT_3D ( 'NONE', #226, #351, #356 ) ;
#295 = ORIENTED_EDGE ( 'NONE', *, *, #22, .F. ) ;
#296 = PERSON_AND_ORGANIZATION ( #400, #407 ) ;
#297 = VERTEX_POINT ( 'NONE', #36 ) ;
#298 = EDGE_CURVE ( 'NONE', #78, #82, #199, .T. ) ;
#299 = APPROVAL_PERSON_ORGANIZATION ( #402, #282, #147 ) ;
#300 = DATE_AND_TIME ( #274, #394 ) ;
#301 = CARTESIAN_POINT ( 'NONE',  ( 2.390510551935632900E-15, -12.51999999999999957, 0.000000000000000000 ) ) ;
#302 = AXIS2_PLACEMENT_3D ( 'NONE', #365, #143, #116 ) ;
#303 = VECTOR ( 'NONE', #93, 1000.000000000000000 ) ;
#304 = CARTESIAN_POINT ( 'NONE',  ( 11.41500000000000092, 0.7247348029320709317, 1.397934321226703586E-15 ) ) ;
#305 = ADVANCED_FACE ( 'NONE', ( #45 ), #190, .T. ) ;
#306 = FACE_BOUND ( 'NONE', #352, .T. ) ;
#307 = VERTEX_POINT ( 'NONE', #131 ) ;
#308 = DATE_AND_TIME ( #117, #51 ) ;
#309 = DIRECTION ( 'NONE',  ( 4.596983092540343816E-18, 1.000000000000000000, -0.000000000000000000 ) ) ;
#310 = AXIS2_PLACEMENT_3D ( 'NONE', #79, #358, #287 ) ;
#311 = UNCERTAINTY_MEASURE_WITH_UNIT (LENGTH_MEASURE( 1.000000000000000082E-05 ), #195, 'distance_accuracy_value', 'NONE');
#312 = MECHANICAL_CONTEXT ( 'NONE', #392, 'mechanical' ) ;
#313 = FACE_OUTER_BOUND ( 'NONE', #63, .T. ) ;
#314 = APPROVAL_PERSON_ORGANIZATION ( #64, #236, #179 ) ;
#315 = EDGE_CURVE ( 'NONE', #17, #297, #168, .T. ) ;
#316 = CARTESIAN_POINT ( 'NONE',  ( 13.45000000000001350, 2817.965330118411202, 1.647149944853189991E-15 ) ) ;
#317 = CARTESIAN_POINT ( 'NONE',  ( 1.734723475976807094E-15, 0.7247348029320709317, 0.000000000000000000 ) ) ;
#318 = AXIS2_PLACEMENT_3D ( 'NONE', #223, #260, #256 ) ;
#319 = DIRECTION ( 'NONE',  ( -1.000000000000000000, 4.596983092540343046E-18, 0.000000000000000000 ) ) ;
#320 = APPLICATION_PROTOCOL_DEFINITION ( 'international standard', 'config_control_design', 1994, #392 ) ;
#321 = AXIS2_PLACEMENT_3D ( 'NONE', #100, #376, #183 ) ;
#322 = DIRECTION ( 'NONE',  ( 4.596983092540343816E-18, 1.000000000000000000, -0.000000000000000000 ) ) ;
#323 = ORIENTED_EDGE ( 'NONE', *, *, #127, .F. ) ;
#324 = ORIENTED_EDGE ( 'NONE', *, *, #315, .F. ) ;
#325 = ADVANCED_FACE ( 'NONE', ( #391 ), #106, .T. ) ;
#326 = ADVANCED_BREP_SHAPE_REPRESENTATION ( '3D_R365_26.9x2_173371112', ( #257, #207 ), #97 ) ;
#327 = ORIENTED_EDGE ( 'NONE', *, *, #108, .T. ) ;
#328 = AXIS2_PLACEMENT_3D ( 'NONE', #250, #342, #35 ) ;
#329 = ORIENTED_EDGE ( 'NONE', *, *, #138, .T. ) ;
#330 = PRODUCT_DEFINITION ( 'UNKNOWN', '', #12, #212 ) ;
#331 = APPROVAL_ROLE ( '' ) ;
#332 = DIRECTION ( 'NONE',  ( 4.596983092540343816E-18, 1.000000000000000000, -0.000000000000000000 ) ) ;
#333 = DIRECTION ( 'NONE',  ( 1.000000000000000000, 0.000000000000000000, 1.224646799147352961E-16 ) ) ;
#334 = TOROIDAL_SURFACE ( 'NONE', #154, 11.41499999999999915, 2.034999999999997922 ) ;
#335 = CIRCLE ( 'NONE', #328, 19.52000000000000313 ) ;
#336 = EDGE_LOOP ( 'NONE', ( #163, #329, #48, #340 ) ) ;
#337 = ADVANCED_FACE ( 'NONE', ( #77 ), #285, .T. ) ;
#338 = ORIENTED_EDGE ( 'NONE', *, *, #298, .F. ) ;
#339 = PERSON_AND_ORGANIZATION ( #400, #407 ) ;
#340 = ORIENTED_EDGE ( 'NONE', *, *, #122, .F. ) ;
#341 = AXIS2_PLACEMENT_3D ( 'NONE', #87, #114, #273 ) ;
#342 = DIRECTION ( 'NONE',  ( -1.224646799147353207E-16, 5.629680630014033300E-34, 1.000000000000000000 ) ) ;
#343 = AXIS2_PLACEMENT_3D ( 'NONE', #4, #7, #130 ) ;
#344 = EDGE_CURVE ( 'NONE', #82, #78, #370, .T. ) ;
#345 = DATE_AND_TIME ( #124, #185 ) ;
#346 = CARTESIAN_POINT ( 'NONE',  ( 2.390510551935632900E-15, -12.51999999999999957, 0.000000000000000000 ) ) ;
#347 = CARTESIAN_POINT ( 'NONE',  ( 2.390510551935632900E-15, -12.51999999999999957, 0.000000000000000000 ) ) ;
#348 = EDGE_CURVE ( 'NONE', #75, #307, #403, .T. ) ;
#349 = CARTESIAN_POINT ( 'NONE',  ( 2.390510551935632900E-15, -12.51999999999999957, 0.000000000000000000 ) ) ;
#350 = DIRECTION ( 'NONE',  ( 4.596983092540343816E-18, 1.000000000000000000, -0.000000000000000000 ) ) ;
#351 = DIRECTION ( 'NONE',  ( 0.000000000000000000, 0.000000000000000000, 1.000000000000000000 ) ) ;
#352 = EDGE_LOOP ( 'NONE', ( #172, #14 ) ) ;
#353 = ORIENTED_EDGE ( 'NONE', *, *, #399, .F. ) ;
#354 = EDGE_CURVE ( 'NONE', #78, #75, #191, .T. ) ;
#355 = AXIS2_PLACEMENT_3D ( 'NONE', #380, #155, #319 ) ;
#356 = DIRECTION ( 'NONE',  ( -1.000000000000000000, 0.000000000000000000, 0.000000000000000000 ) ) ;
#357 = ORIENTED_EDGE ( 'NONE', *, *, #122, .T. ) ;
#358 = DIRECTION ( 'NONE',  ( 4.596983092540343816E-18, 1.000000000000000000, -0.000000000000000000 ) ) ;
#359 = ORIENTED_EDGE ( 'NONE', *, *, #221, .F. ) ;
#360 = PRODUCT ( '3D_R365_26.9x2_173371112', '3D_R365_26.9x2_173371112', '', ( #312 ) ) ;
#361 = CC_DESIGN_DATE_AND_TIME_ASSIGNMENT ( #29, #244, ( #330 ) ) ;
#362 = AXIS2_PLACEMENT_3D ( 'NONE', #304, #59, #333 ) ;
#363 = ORIENTED_EDGE ( 'NONE', *, *, #354, .T. ) ;
#364 = CALENDAR_DATE ( 2024, 16, 7 ) ;
#365 = CARTESIAN_POINT ( 'NONE',  ( 2.451518249999037161E-15, 0.7512469972759134862, 0.000000000000000000 ) ) ;
#366 = CARTESIAN_POINT ( 'NONE',  ( 9.236488298952508525E-16, 0.000000000000000000, 0.000000000000000000 ) ) ;
#367 = DIRECTION ( 'NONE',  ( 4.596983092540343816E-18, 1.000000000000000000, -0.000000000000000000 ) ) ;
#368 = AXIS2_PLACEMENT_3D ( 'NONE', #366, #206, #118 ) ;
#369 = CC_DESIGN_PERSON_AND_ORGANIZATION_ASSIGNMENT ( #296, #49, ( #12 ) ) ;
#370 = CIRCLE ( 'NONE', #21, 11.44999999999999929 ) ;
#371 = CYLINDRICAL_SURFACE ( 'NONE', #283, 13.44999999999999929 ) ;
#372 = DIRECTION ( 'NONE',  ( -1.000000000000000000, 0.000000000000000000, 0.000000000000000000 ) ) ;
#373 = ADVANCED_FACE ( 'NONE', ( #132 ), #228, .F. ) ;
#374 = CIRCLE ( 'NONE', #362, 2.034999999999998810 ) ;
#375 = PERSON_AND_ORGANIZATION_ROLE ( 'design_supplier' ) ;
#376 = DIRECTION ( 'NONE',  ( 0.000000000000000000, 0.000000000000000000, 1.000000000000000000 ) ) ;
#377 = AXIS2_PLACEMENT_3D ( 'NONE', #65, #322, #158 ) ;
#378 = APPROVAL_STATUS ( 'not_yet_approved' ) ;
#379 = FACE_OUTER_BOUND ( 'NONE', #169, .T. ) ;
#380 = CARTESIAN_POINT ( 'NONE',  ( 9.236488298952508525E-16, 0.000000000000000000, 0.000000000000000000 ) ) ;
#381 = CARTESIAN_POINT ( 'NONE',  ( 1.398259099663858608E-15, 5.000000000000000888, 0.000000000000000000 ) ) ;
#382 = CARTESIAN_POINT ( 'NONE',  ( 9.269804235309061604E-16, 0.7247348029322253637, 0.000000000000000000 ) ) ;
#383 = VERTEX_POINT ( 'NONE', #388 ) ;
#384 = DIRECTION ( 'NONE',  ( -0.000000000000000000, 0.000000000000000000, -1.000000000000000000 ) ) ;
#385 = CC_DESIGN_PERSON_AND_ORGANIZATION_ASSIGNMENT ( #213, #90, ( #360 ) ) ;
#386 = ORIENTED_EDGE ( 'NONE', *, *, #68, .T. ) ;
#387 = AXIS2_PLACEMENT_3D ( 'NONE', #69, #215, #148 ) ;
#388 = CARTESIAN_POINT ( 'NONE',  ( 13.45000000000000107, 0.7247348029322252527, 1.647149944853189991E-15 ) ) ;
#389 = ORIENTED_EDGE ( 'NONE', *, *, #28, .T. ) ;
#390 = CIRCLE ( 'NONE', #355, 13.44999999999999929 ) ;
#391 = FACE_OUTER_BOUND ( 'NONE', #46, .T. ) ;
#392 = APPLICATION_CONTEXT ( 'configuration controlled 3d designs of mechanical parts and assemblies' ) ;
#393 = VERTEX_POINT ( 'NONE', #164 ) ;
#394 = LOCAL_TIME ( 8, 14, 51.00000000000000000, #275 ) ;
#395 = ORIENTED_EDGE ( 'NONE', *, *, #348, .F. ) ;
#396 = CIRCLE ( 'NONE', #42, 13.44999999999999929 ) ;
#397 = DIRECTION ( 'NONE',  ( -1.224646799147353207E-16, 5.629680630014033300E-34, 1.000000000000000000 ) ) ;
#398 = EDGE_LOOP ( 'NONE', ( #327, #165, #323 ) ) ;
#399 = EDGE_CURVE ( 'NONE', #383, #17, #396, .T. ) ;
#400 = PERSON ( 'UNSPECIFIED', 'UNSPECIFIED', 'UNSPECIFIED', ('UNSPECIFIED'), ('UNSPECIFIED'), ('UNSPECIFIED') ) ;
#401 = DIRECTION ( 'NONE',  ( -1.000000000000000000, 0.000000000000000000, 0.000000000000000000 ) ) ;
#402 = PERSON_AND_ORGANIZATION ( #400, #407 ) ;
#403 = CIRCLE ( 'NONE', #233, 11.44999999999999751 ) ;
#404 = CARTESIAN_POINT ( 'NONE',  ( 2.451518249999037161E-15, 0.7512469972759134862, 0.000000000000000000 ) ) ;
#405 = APPROVAL_STATUS ( 'not_yet_approved' ) ;
#406 = EDGE_CURVE ( 'NONE', #17, #383, #267, .T. ) ;
#407 = ORGANIZATION ( 'UNSPECIFIED', 'UNSPECIFIED', '' ) ;
#408 = CARTESIAN_POINT ( 'NONE',  ( -13.44999999999999751, 6.182942259466761416E-17, 0.000000000000000000 ) ) ;
#409 = PERSON_AND_ORGANIZATION ( #400, #407 ) ;
#410 = DIRECTION ( 'NONE',  ( 4.596983092540343816E-18, 1.000000000000000000, -0.000000000000000000 ) ) ;
#411 = VECTOR ( 'NONE', #218, 1000.000000000000000 ) ;
ENDSEC;
END-ISO-10303-21;
