ISO-10303-21;
HEADER;
FILE_DESCRIPTION (( 'STEP AP203' ),
    '1' );
FILE_NAME ('3D_R152_DN76.1_17305245.STEP',
    '2024-08-13T07:44:36',
    ( '' ),
    ( '' ),
    'SwSTEP 2.0',
    'SolidWorks 2024',
    '' );
FILE_SCHEMA (( 'CONFIG_CONTROL_DESIGN' ));
ENDSEC;

DATA;
#1 = ORIENTED_EDGE ( 'NONE', *, *, #147, .F. ) ;
#2 = FACE_OUTER_BOUND ( 'NONE', #126, .T. ) ;
#3 = DESIGN_CONTEXT ( 'detailed design', #221, 'design' ) ;
#4 = FACE_OUTER_BOUND ( 'NONE', #170, .T. ) ;
#5 = DIRECTION ( 'NONE',  ( 0.000000000000000000, 0.000000000000000000, -1.000000000000000000 ) ) ;
#6 = CARTESIAN_POINT ( 'NONE',  ( 0.000000000000000000, 8.000000000000000000, 0.000000000000000000 ) ) ;
#7 = CALENDAR_DATE ( 2024, 13, 8 ) ;
#8 = DATE_AND_TIME ( #47, #165 ) ;
#9 = CALENDAR_DATE ( 2024, 13, 8 ) ;
#10 = LOCAL_TIME ( 9, 44, 36.00000000000000000, #162 ) ;
#11 = PERSON_AND_ORGANIZATION ( #140, #104 ) ;
#12 = EDGE_CURVE ( 'NONE', #103, #72, #150, .T. ) ;
#13 = COORDINATED_UNIVERSAL_TIME_OFFSET ( 1, 0, .AHEAD. ) ;
#14 = CC_DESIGN_APPROVAL ( #189, ( #214 ) ) ;
#15 = CIRCLE ( 'NONE', #96, 137.5999999999999943 ) ;
#16 = EDGE_CURVE ( 'NONE', #191, #227, #192, .T. ) ;
#17 = VERTEX_POINT ( 'NONE', #209 ) ;
#18 = CC_DESIGN_SECURITY_CLASSIFICATION ( #214, ( #240 ) ) ;
#19 = FACE_BOUND ( 'NONE', #146, .T. ) ;
#20 = ORIENTED_EDGE ( 'NONE', *, *, #161, .T. ) ;
#21 = CIRCLE ( 'NONE', #42, 61.00000000000000000 ) ;
#22 = DIRECTION ( 'NONE',  ( 0.000000000000000000, 1.000000000000000000, 0.000000000000000000 ) ) ;
#23 = DIRECTION ( 'NONE',  ( 0.000000000000000000, 0.000000000000000000, 1.000000000000000000 ) ) ;
#24 = LINE ( 'NONE', #213, #202 ) ;
#25 = UNCERTAINTY_MEASURE_WITH_UNIT (LENGTH_MEASURE( 1.000000000000000082E-05 ), #64, 'distance_accuracy_value', 'NONE');
#26 = AXIS2_PLACEMENT_3D ( 'NONE', #66, #184, #178 ) ;
#27 = DIRECTION ( 'NONE',  ( 0.000000000000000000, 1.000000000000000000, 0.000000000000000000 ) ) ;
#28 = FACE_OUTER_BOUND ( 'NONE', #69, .T. ) ;
#29 = VECTOR ( 'NONE', #246, 1000.000000000000000 ) ;
#30 = PERSON_AND_ORGANIZATION ( #140, #104 ) ;
#31 = DATE_TIME_ROLE ( 'classification_date' ) ;
#32 = EDGE_CURVE ( 'NONE', #55, #205, #15, .T. ) ;
#33 = PERSON_AND_ORGANIZATION ( #140, #104 ) ;
#34 = ORIENTED_EDGE ( 'NONE', *, *, #61, .F. ) ;
#35 = ORIENTED_EDGE ( 'NONE', *, *, #182, .T. ) ;
#36 = DIRECTION ( 'NONE',  ( 0.000000000000000000, 1.000000000000000000, 0.000000000000000000 ) ) ;
#37 = FACE_OUTER_BOUND ( 'NONE', #193, .T. ) ;
#38 = CARTESIAN_POINT ( 'NONE',  ( 7.470345474798855081E-15, 8.000000000000000000, 61.00000000000000000 ) ) ;
#39 = DIRECTION ( 'NONE',  ( 0.000000000000000000, 0.000000000000000000, 1.000000000000000000 ) ) ;
#40 = ADVANCED_FACE ( 'NONE', ( #37, #19 ), #109, .F. ) ;
#41 = DIRECTION ( 'NONE',  ( 0.000000000000000000, 1.000000000000000000, 0.000000000000000000 ) ) ;
#42 = AXIS2_PLACEMENT_3D ( 'NONE', #59, #27, #153 ) ;
#43 = DIRECTION ( 'NONE',  ( 0.000000000000000000, 1.000000000000000000, 0.000000000000000000 ) ) ;
#44 =( NAMED_UNIT ( * ) SI_UNIT ( $, .STERADIAN. ) SOLID_ANGLE_UNIT ( ) );
#45 = DIRECTION ( 'NONE',  ( 0.000000000000000000, 1.000000000000000000, 0.000000000000000000 ) ) ;
#46 = CIRCLE ( 'NONE', #145, 137.5999999999999943 ) ;
#47 = CALENDAR_DATE ( 2024, 13, 8 ) ;
#48 = PERSON_AND_ORGANIZATION_ROLE ( 'design_owner' ) ;
#49 = CC_DESIGN_PERSON_AND_ORGANIZATION_ASSIGNMENT ( #11, #217, ( #240 ) ) ;
#50 = CIRCLE ( 'NONE', #181, 61.00000000000000000 ) ;
#51 = APPROVAL_ROLE ( '' ) ;
#52 = ORIENTED_EDGE ( 'NONE', *, *, #215, .T. ) ;
#53 = ORIENTED_EDGE ( 'NONE', *, *, #56, .F. ) ;
#54 = LOCAL_TIME ( 9, 44, 36.00000000000000000, #243 ) ;
#55 = VERTEX_POINT ( 'NONE', #228 ) ;
#56 = EDGE_CURVE ( 'NONE', #17, #204, #210, .T. ) ;
#57 = ORIENTED_EDGE ( 'NONE', *, *, #56, .T. ) ;
#58 = ORIENTED_EDGE ( 'NONE', *, *, #32, .T. ) ;
#59 = CARTESIAN_POINT ( 'NONE',  ( 0.000000000000000000, 8.000000000000000000, 0.000000000000000000 ) ) ;
#60 = VECTOR ( 'NONE', #245, 1000.000000000000000 ) ;
#61 = EDGE_CURVE ( 'NONE', #205, #55, #46, .T. ) ;
#62 = DIRECTION ( 'NONE',  ( -0.000000000000000000, -1.000000000000000000, -0.000000000000000000 ) ) ;
#63 = DIRECTION ( 'NONE',  ( -0.000000000000000000, -1.000000000000000000, -0.000000000000000000 ) ) ;
#64 =( LENGTH_UNIT ( ) NAMED_UNIT ( * ) SI_UNIT ( .MILLI., .METRE. ) );
#65 = DIRECTION ( 'NONE',  ( 0.000000000000000000, 1.000000000000000000, 0.000000000000000000 ) ) ;
#66 = CARTESIAN_POINT ( 'NONE',  ( 0.000000000000000000, 0.000000000000000000, 0.000000000000000000 ) ) ;
#67 = APPROVAL ( #123, 'UNSPECIFIED' ) ;
#68 = DATE_AND_TIME ( #242, #82 ) ;
#69 = EDGE_LOOP ( 'NONE', ( #53, #70, #166, #106 ) ) ;
#70 = ORIENTED_EDGE ( 'NONE', *, *, #147, .T. ) ;
#71 = DIRECTION ( 'NONE',  ( 0.000000000000000000, 0.000000000000000000, 1.000000000000000000 ) ) ;
#72 = VERTEX_POINT ( 'NONE', #111 ) ;
#73 = ORIENTED_EDGE ( 'NONE', *, *, #143, .T. ) ;
#74 = DIRECTION ( 'NONE',  ( -0.000000000000000000, -1.000000000000000000, -0.000000000000000000 ) ) ;
#75 = FACE_OUTER_BOUND ( 'NONE', #187, .T. ) ;
#76 = CARTESIAN_POINT ( 'NONE',  ( 0.000000000000000000, 0.000000000000000000, 0.000000000000000000 ) ) ;
#77 = APPROVAL ( #101, 'UNSPECIFIED' ) ;
#78 = DIRECTION ( 'NONE',  ( 0.000000000000000000, 0.000000000000000000, 1.000000000000000000 ) ) ;
#79 = VECTOR ( 'NONE', #63, 1000.000000000000000 ) ;
#80 = SECURITY_CLASSIFICATION_LEVEL ( 'unclassified' ) ;
#81 = APPROVAL_DATE_TIME ( #121, #77 ) ;
#82 = LOCAL_TIME ( 9, 44, 36.00000000000000000, #159 ) ;
#83 = PERSON_AND_ORGANIZATION ( #140, #104 ) ;
#84 = AXIS2_PLACEMENT_3D ( 'NONE', #131, #130, #87 ) ;
#85 = EDGE_LOOP ( 'NONE', ( #249, #1 ) ) ;
#86 = CARTESIAN_POINT ( 'NONE',  ( 0.000000000000000000, 0.000000000000000000, 0.000000000000000000 ) ) ;
#87 = DIRECTION ( 'NONE',  ( 0.000000000000000000, 0.000000000000000000, 1.000000000000000000 ) ) ;
#88 = ORIENTED_EDGE ( 'NONE', *, *, #12, .F. ) ;
#89 = FACE_OUTER_BOUND ( 'NONE', #107, .T. ) ;
#90 = CARTESIAN_POINT ( 'NONE',  ( 1.685113995626757911E-14, 8.000000000000000000, 137.5999999999999943 ) ) ;
#91 = CARTESIAN_POINT ( 'NONE',  ( 0.000000000000000000, 8.000000000000000000, 0.000000000000000000 ) ) ;
#92 = LOCAL_TIME ( 9, 44, 36.00000000000000000, #13 ) ;
#93 = CYLINDRICAL_SURFACE ( 'NONE', #156, 61.00000000000000000 ) ;
#94 = ADVANCED_FACE ( 'NONE', ( #89 ), #198, .F. ) ;
#95 = CARTESIAN_POINT ( 'NONE',  ( 0.000000000000000000, 8.000000000000000000, 0.000000000000000000 ) ) ;
#96 = AXIS2_PLACEMENT_3D ( 'NONE', #151, #223, #23 ) ;
#97 = PERSON_AND_ORGANIZATION ( #140, #104 ) ;
#98 = CC_DESIGN_PERSON_AND_ORGANIZATION_ASSIGNMENT ( #97, #219, ( #214 ) ) ;
#99 = PRODUCT_DEFINITION_SHAPE ( 'NONE', 'NONE',  #169 ) ;
#100 = PERSON_AND_ORGANIZATION ( #140, #104 ) ;
#101 = APPROVAL_STATUS ( 'not_yet_approved' ) ;
#102 =( GEOMETRIC_REPRESENTATION_CONTEXT ( 3 ) GLOBAL_UNCERTAINTY_ASSIGNED_CONTEXT ( ( #25 ) ) GLOBAL_UNIT_ASSIGNED_CONTEXT ( ( #64, #137, #44 ) ) REPRESENTATION_CONTEXT ( 'NONE', 'WORKASPACE' ) );
#103 = VERTEX_POINT ( 'NONE', #138 ) ;
#104 = ORGANIZATION ( 'UNSPECIFIED', 'UNSPECIFIED', '' ) ;
#105 = CC_DESIGN_PERSON_AND_ORGANIZATION_ASSIGNMENT ( #83, #48, ( #177 ) ) ;
#106 = ORIENTED_EDGE ( 'NONE', *, *, #143, .F. ) ;
#107 = EDGE_LOOP ( 'NONE', ( #185, #57, #128, #88 ) ) ;
#108 = AXIS2_PLACEMENT_3D ( 'NONE', #91, #45, #152 ) ;
#109 = PLANE ( 'NONE',  #244 ) ;
#110 = CLOSED_SHELL ( 'NONE', ( #94, #211, #235, #40, #127, #207 ) ) ;
#111 = CARTESIAN_POINT ( 'NONE',  ( 0.000000000000000000, 0.000000000000000000, -61.00000000000000000 ) ) ;
#112 = CYLINDRICAL_SURFACE ( 'NONE', #136, 137.5999999999999943 ) ;
#113 = DIRECTION ( 'NONE',  ( 0.000000000000000000, 1.000000000000000000, 0.000000000000000000 ) ) ;
#114 = AXIS2_PLACEMENT_3D ( 'NONE', #76, #41, #78 ) ;
#115 = DIRECTION ( 'NONE',  ( -0.000000000000000000, -1.000000000000000000, -0.000000000000000000 ) ) ;
#116 = EDGE_CURVE ( 'NONE', #205, #191, #230, .T. ) ;
#117 = CARTESIAN_POINT ( 'NONE',  ( 0.000000000000000000, 0.000000000000000000, 0.000000000000000000 ) ) ;
#118 = CC_DESIGN_PERSON_AND_ORGANIZATION_ASSIGNMENT ( #33, #237, ( #169 ) ) ;
#119 = CALENDAR_DATE ( 2024, 13, 8 ) ;
#120 = SHAPE_DEFINITION_REPRESENTATION ( #99, #231 ) ;
#121 = DATE_AND_TIME ( #9, #10 ) ;
#122 = AXIS2_PLACEMENT_3D ( 'NONE', #196, #43, #39 ) ;
#123 = APPROVAL_STATUS ( 'not_yet_approved' ) ;
#124 = CC_DESIGN_DATE_AND_TIME_ASSIGNMENT ( #163, #201, ( #169 ) ) ;
#125 = COORDINATED_UNIVERSAL_TIME_OFFSET ( 1, 0, .AHEAD. ) ;
#126 = EDGE_LOOP ( 'NONE', ( #168, #225, #20, #35 ) ) ;
#127 = ADVANCED_FACE ( 'NONE', ( #2 ), #133, .T. ) ;
#128 = ORIENTED_EDGE ( 'NONE', *, *, #215, .F. ) ;
#129 = ORIENTED_EDGE ( 'NONE', *, *, #182, .F. ) ;
#130 = DIRECTION ( 'NONE',  ( 0.000000000000000000, 1.000000000000000000, 0.000000000000000000 ) ) ;
#131 = CARTESIAN_POINT ( 'NONE',  ( 0.000000000000000000, 0.000000000000000000, 0.000000000000000000 ) ) ;
#132 = AXIS2_PLACEMENT_3D ( 'NONE', #236, #115, #155 ) ;
#133 = CYLINDRICAL_SURFACE ( 'NONE', #186, 137.5999999999999943 ) ;
#134 = DIRECTION ( 'NONE',  ( 0.000000000000000000, -0.000000000000000000, 1.000000000000000000 ) ) ;
#135 = DIRECTION ( 'NONE',  ( 0.000000000000000000, 0.000000000000000000, -1.000000000000000000 ) ) ;
#136 = AXIS2_PLACEMENT_3D ( 'NONE', #175, #62, #5 ) ;
#137 =( NAMED_UNIT ( * ) PLANE_ANGLE_UNIT ( ) SI_UNIT ( $, .RADIAN. ) );
#138 = CARTESIAN_POINT ( 'NONE',  ( 0.000000000000000000, 8.000000000000000000, -61.00000000000000000 ) ) ;
#139 = APPROVAL_ROLE ( '' ) ;
#140 = PERSON ( 'UNSPECIFIED', 'UNSPECIFIED', 'UNSPECIFIED', ('UNSPECIFIED'), ('UNSPECIFIED'), ('UNSPECIFIED') ) ;
#141 = PERSON_AND_ORGANIZATION ( #140, #104 ) ;
#142 = MECHANICAL_CONTEXT ( 'NONE', #238, 'mechanical' ) ;
#143 = EDGE_CURVE ( 'NONE', #204, #72, #200, .T. ) ;
#144 = APPROVAL_DATE_TIME ( #8, #189 ) ;
#145 = AXIS2_PLACEMENT_3D ( 'NONE', #247, #36, #71 ) ;
#146 = EDGE_LOOP ( 'NONE', ( #52, #73 ) ) ;
#147 = EDGE_CURVE ( 'NONE', #17, #103, #233, .T. ) ;
#148 = CARTESIAN_POINT ( 'NONE',  ( 0.000000000000000000, 8.000000000000000000, -61.00000000000000000 ) ) ;
#149 = ORIENTED_EDGE ( 'NONE', *, *, #161, .F. ) ;
#150 = LINE ( 'NONE', #148, #29 ) ;
#151 = CARTESIAN_POINT ( 'NONE',  ( 0.000000000000000000, 8.000000000000000000, 0.000000000000000000 ) ) ;
#152 = DIRECTION ( 'NONE',  ( 0.000000000000000000, 0.000000000000000000, 1.000000000000000000 ) ) ;
#153 = DIRECTION ( 'NONE',  ( 0.000000000000000000, 0.000000000000000000, 1.000000000000000000 ) ) ;
#154 = CC_DESIGN_DATE_AND_TIME_ASSIGNMENT ( #68, #31, ( #214 ) ) ;
#155 = DIRECTION ( 'NONE',  ( 0.000000000000000000, 0.000000000000000000, -1.000000000000000000 ) ) ;
#156 = AXIS2_PLACEMENT_3D ( 'NONE', #95, #212, #135 ) ;
#157 = CARTESIAN_POINT ( 'NONE',  ( 0.000000000000000000, 8.000000000000000000, 0.000000000000000000 ) ) ;
#158 = PERSON_AND_ORGANIZATION_ROLE ( 'design_supplier' ) ;
#159 = COORDINATED_UNIVERSAL_TIME_OFFSET ( 1, 0, .AHEAD. ) ;
#160 = APPROVAL_PERSON_ORGANIZATION ( #180, #67, #139 ) ;
#161 = EDGE_CURVE ( 'NONE', #55, #227, #24, .T. ) ;
#162 = COORDINATED_UNIVERSAL_TIME_OFFSET ( 1, 0, .AHEAD. ) ;
#163 = DATE_AND_TIME ( #7, #92 ) ;
#164 = ORIENTED_EDGE ( 'NONE', *, *, #61, .T. ) ;
#165 = LOCAL_TIME ( 9, 44, 36.00000000000000000, #125 ) ;
#166 = ORIENTED_EDGE ( 'NONE', *, *, #12, .T. ) ;
#167 = DIRECTION ( 'NONE',  ( 0.000000000000000000, -0.000000000000000000, 1.000000000000000000 ) ) ;
#168 = ORIENTED_EDGE ( 'NONE', *, *, #116, .F. ) ;
#169 = PRODUCT_DEFINITION ( 'UNKNOWN', '', #240, #3 ) ;
#170 = EDGE_LOOP ( 'NONE', ( #34, #222, #188, #149 ) ) ;
#171 = CARTESIAN_POINT ( 'NONE',  ( 1.685113995626757911E-14, 0.000000000000000000, 137.5999999999999943 ) ) ;
#172 = PLANE ( 'NONE',  #190 ) ;
#173 = CC_DESIGN_APPROVAL ( #77, ( #169 ) ) ;
#174 = CARTESIAN_POINT ( 'NONE',  ( 7.470345474798855081E-15, 0.000000000000000000, 61.00000000000000000 ) ) ;
#175 = CARTESIAN_POINT ( 'NONE',  ( 0.000000000000000000, 8.000000000000000000, 0.000000000000000000 ) ) ;
#176 = CARTESIAN_POINT ( 'NONE',  ( 0.000000000000000000, 0.000000000000000000, -137.5999999999999943 ) ) ;
#177 = PRODUCT ( '3D_R152_DN76.1_17305245', '3D_R152_DN76.1_17305245', '', ( #142 ) ) ;
#178 = DIRECTION ( 'NONE',  ( 1.000000000000000000, 0.000000000000000000, 0.000000000000000000 ) ) ;
#179 = APPROVAL_STATUS ( 'not_yet_approved' ) ;
#180 = PERSON_AND_ORGANIZATION ( #140, #104 ) ;
#181 = AXIS2_PLACEMENT_3D ( 'NONE', #117, #113, #216 ) ;
#182 = EDGE_CURVE ( 'NONE', #227, #191, #248, .T. ) ;
#183 = CC_DESIGN_APPROVAL ( #67, ( #240 ) ) ;
#184 = DIRECTION ( 'NONE',  ( 0.000000000000000000, 0.000000000000000000, 1.000000000000000000 ) ) ;
#185 = ORIENTED_EDGE ( 'NONE', *, *, #194, .T. ) ;
#186 = AXIS2_PLACEMENT_3D ( 'NONE', #6, #74, #197 ) ;
#187 = EDGE_LOOP ( 'NONE', ( #58, #164 ) ) ;
#188 = ORIENTED_EDGE ( 'NONE', *, *, #16, .T. ) ;
#189 = APPROVAL ( #179, 'UNSPECIFIED' ) ;
#190 = AXIS2_PLACEMENT_3D ( 'NONE', #157, #65, #134 ) ;
#191 = VERTEX_POINT ( 'NONE', #171 ) ;
#192 = CIRCLE ( 'NONE', #84, 137.5999999999999943 ) ;
#193 = EDGE_LOOP ( 'NONE', ( #129, #208 ) ) ;
#194 = EDGE_CURVE ( 'NONE', #103, #17, #21, .T. ) ;
#195 = FACE_BOUND ( 'NONE', #85, .T. ) ;
#196 = CARTESIAN_POINT ( 'NONE',  ( 0.000000000000000000, 0.000000000000000000, 0.000000000000000000 ) ) ;
#197 = DIRECTION ( 'NONE',  ( 0.000000000000000000, 0.000000000000000000, -1.000000000000000000 ) ) ;
#198 = CYLINDRICAL_SURFACE ( 'NONE', #132, 61.00000000000000000 ) ;
#199 = APPROVAL_DATE_TIME ( #220, #67 ) ;
#200 = CIRCLE ( 'NONE', #114, 61.00000000000000000 ) ;
#201 = DATE_TIME_ROLE ( 'creation_date' ) ;
#202 = VECTOR ( 'NONE', #232, 1000.000000000000000 ) ;
#203 = APPLICATION_PROTOCOL_DEFINITION ( 'international standard', 'config_control_design', 1994, #238 ) ;
#204 = VERTEX_POINT ( 'NONE', #174 ) ;
#205 = VERTEX_POINT ( 'NONE', #90 ) ;
#206 = APPROVAL_PERSON_ORGANIZATION ( #100, #77, #218 ) ;
#207 = ADVANCED_FACE ( 'NONE', ( #28 ), #93, .F. ) ;
#208 = ORIENTED_EDGE ( 'NONE', *, *, #16, .F. ) ;
#209 = CARTESIAN_POINT ( 'NONE',  ( 7.470345474798855081E-15, 8.000000000000000000, 61.00000000000000000 ) ) ;
#210 = LINE ( 'NONE', #38, #60 ) ;
#211 = ADVANCED_FACE ( 'NONE', ( #4 ), #112, .T. ) ;
#212 = DIRECTION ( 'NONE',  ( -0.000000000000000000, -1.000000000000000000, -0.000000000000000000 ) ) ;
#213 = CARTESIAN_POINT ( 'NONE',  ( 0.000000000000000000, 8.000000000000000000, -137.5999999999999943 ) ) ;
#214 = SECURITY_CLASSIFICATION ( '', '', #80 ) ;
#215 = EDGE_CURVE ( 'NONE', #72, #204, #50, .T. ) ;
#216 = DIRECTION ( 'NONE',  ( 0.000000000000000000, 0.000000000000000000, 1.000000000000000000 ) ) ;
#217 = PERSON_AND_ORGANIZATION_ROLE ( 'creator' ) ;
#218 = APPROVAL_ROLE ( '' ) ;
#219 = PERSON_AND_ORGANIZATION_ROLE ( 'classification_officer' ) ;
#220 = DATE_AND_TIME ( #119, #54 ) ;
#221 = APPLICATION_CONTEXT ( 'configuration controlled 3d designs of mechanical parts and assemblies' ) ;
#222 = ORIENTED_EDGE ( 'NONE', *, *, #116, .T. ) ;
#223 = DIRECTION ( 'NONE',  ( 0.000000000000000000, 1.000000000000000000, 0.000000000000000000 ) ) ;
#224 = PRODUCT_RELATED_PRODUCT_CATEGORY ( 'detail', '', ( #177 ) ) ;
#225 = ORIENTED_EDGE ( 'NONE', *, *, #32, .F. ) ;
#226 = APPROVAL_PERSON_ORGANIZATION ( #141, #189, #51 ) ;
#227 = VERTEX_POINT ( 'NONE', #176 ) ;
#228 = CARTESIAN_POINT ( 'NONE',  ( 0.000000000000000000, 8.000000000000000000, -137.5999999999999943 ) ) ;
#229 = CARTESIAN_POINT ( 'NONE',  ( 1.685113995626757911E-14, 8.000000000000000000, 137.5999999999999943 ) ) ;
#230 = LINE ( 'NONE', #229, #79 ) ;
#231 = ADVANCED_BREP_SHAPE_REPRESENTATION ( '3D_R152_DN76.1_17305245', ( #234, #26 ), #102 ) ;
#232 = DIRECTION ( 'NONE',  ( -0.000000000000000000, -1.000000000000000000, -0.000000000000000000 ) ) ;
#233 = CIRCLE ( 'NONE', #108, 61.00000000000000000 ) ;
#234 = MANIFOLD_SOLID_BREP ( 'Aufsatz-Linear austragen1', #110 ) ;
#235 = ADVANCED_FACE ( 'NONE', ( #75, #195 ), #172, .T. ) ;
#236 = CARTESIAN_POINT ( 'NONE',  ( 0.000000000000000000, 8.000000000000000000, 0.000000000000000000 ) ) ;
#237 = PERSON_AND_ORGANIZATION_ROLE ( 'creator' ) ;
#238 = APPLICATION_CONTEXT ( 'configuration controlled 3d designs of mechanical parts and assemblies' ) ;
#239 = CC_DESIGN_PERSON_AND_ORGANIZATION_ASSIGNMENT ( #30, #158, ( #240 ) ) ;
#240 = PRODUCT_DEFINITION_FORMATION_WITH_SPECIFIED_SOURCE ( 'ANY', '', #177, .NOT_KNOWN. ) ;
#241 = APPLICATION_PROTOCOL_DEFINITION ( 'international standard', 'config_control_design', 1994, #221 ) ;
#242 = CALENDAR_DATE ( 2024, 13, 8 ) ;
#243 = COORDINATED_UNIVERSAL_TIME_OFFSET ( 1, 0, .AHEAD. ) ;
#244 = AXIS2_PLACEMENT_3D ( 'NONE', #86, #22, #167 ) ;
#245 = DIRECTION ( 'NONE',  ( -0.000000000000000000, -1.000000000000000000, -0.000000000000000000 ) ) ;
#246 = DIRECTION ( 'NONE',  ( -0.000000000000000000, -1.000000000000000000, -0.000000000000000000 ) ) ;
#247 = CARTESIAN_POINT ( 'NONE',  ( 0.000000000000000000, 8.000000000000000000, 0.000000000000000000 ) ) ;
#248 = CIRCLE ( 'NONE', #122, 137.5999999999999943 ) ;
#249 = ORIENTED_EDGE ( 'NONE', *, *, #194, .F. ) ;
ENDSEC;
END-ISO-10303-21;
