ISO-10303-21;
HEADER;
FILE_DESCRIPTION (( 'STEP AP203' ),
    '1' );
FILE_NAME ('11-0206-06_outokumpu.step',
    '2015-08-11T09:47:03',
    ( '' ),
    ( '' ),
    'SwSTEP 2.0',
    'SolidWorks 2008',
    '' );
FILE_SCHEMA (( 'CONFIG_CONTROL_DESIGN' ));
ENDSEC;

DATA;
#1 = CARTESIAN_POINT ( 'NONE',  ( 0.0000000000000000000, 0.0000000000000000000, -34.47110748566272100 ) ) ;
#2 = DIRECTION ( 'NONE',  ( -0.0000000000000000000, -0.0000000000000000000, 1.000000000000000000 ) ) ;
#3 = AXIS2_PLACEMENT_3D ( 'NONE', #1, #2, #4 ) ;
#4 = DIRECTION ( 'NONE',  ( 1.000000000000000000, 0.0000000000000000000, 0.0000000000000000000 ) ) ;
#5 = CIRCLE ( 'NONE', #3, 15.14550000000000200 ) ;
#6 = DIRECTION ( 'NONE',  ( 0.0000000000000000000, 1.000000000000000000, 1.656078820095309600E-016 ) ) ;
#7 = DIRECTION ( 'NONE',  ( -0.0000000000000000000, 1.656078820095309600E-016, -1.000000000000000000 ) ) ;
#8 = CARTESIAN_POINT ( 'NONE',  ( 0.0000000000000000000, -3.469446951953615000E-015, 0.0000000000000000000 ) ) ;
#9 = AXIS2_PLACEMENT_3D ( 'NONE', #8, #7, #6 ) ;
#10 = DIRECTION ( 'NONE',  ( -1.000000000000000000, 0.0000000000000000000, -0.0000000000000000000 ) ) ;
#11 = DIRECTION ( 'NONE',  ( 0.0000000000000000000, 0.0000000000000000000, -1.000000000000000000 ) ) ;
#12 = AXIS2_PLACEMENT_3D ( 'NONE', #14, #11, #10 ) ;
#13 = CIRCLE ( 'NONE', #9, 13.65000000000000200 ) ;
#14 = CARTESIAN_POINT ( 'NONE',  ( 0.0000000000000000000, 15.14550000000000000, -2.168404344971008900E-016 ) ) ;
#15 = PLANE ( 'NONE',  #12 ) ;
#16 = FACE_OUTER_BOUND ( 'NONE', #119, .T. ) ;
#17 = DIRECTION ( 'NONE',  ( -1.000000000000000000, 0.0000000000000000000, 0.0000000000000000000 ) ) ;
#18 = DIRECTION ( 'NONE',  ( 0.0000000000000000000, 0.0000000000000000000, -1.000000000000000000 ) ) ;
#19 = CARTESIAN_POINT ( 'NONE',  ( 0.0000000000000000000, 0.0000000000000000000, -5.464289072506945500E-018 ) ) ;
#20 = AXIS2_PLACEMENT_3D ( 'NONE', #19, #18, #17 ) ;
#21 = FACE_BOUND ( 'NONE', #98, .T. ) ;
#22 = CONICAL_SURFACE ( 'NONE', #20, 14.61660748566283600, 0.7853981633974557200 ) ;
#23 = FACE_OUTER_BOUND ( 'NONE', #90, .T. ) ;
#24 = DIRECTION ( 'NONE',  ( 0.0000000000000000000, 1.000000000000000000, 0.0000000000000000000 ) ) ;
#25 = DIRECTION ( 'NONE',  ( -0.0000000000000000000, 1.656078820095309600E-016, -1.000000000000000000 ) ) ;
#26 = AXIS2_PLACEMENT_3D ( 'NONE', #33, #25, #24 ) ;
#27 = CIRCLE ( 'NONE', #26, 13.65000000000000400 ) ;
#28 = DIRECTION ( 'NONE',  ( 1.000000000000000000, 0.0000000000000000000, 0.0000000000000000000 ) ) ;
#29 = DIRECTION ( 'NONE',  ( -0.0000000000000000000, -0.0000000000000000000, 1.000000000000000000 ) ) ;
#30 = CARTESIAN_POINT ( 'NONE',  ( 0.0000000000000000000, 0.0000000000000000000, -35.00000000000000000 ) ) ;
#31 = AXIS2_PLACEMENT_3D ( 'NONE', #30, #29, #28 ) ;
#32 = CIRCLE ( 'NONE', #31, 14.61660748566271400 ) ;
#33 = CARTESIAN_POINT ( 'NONE',  ( 0.0000000000000000000, 2.326828918379969400E-015, -35.00000000000000000 ) ) ;
#34 = DIRECTION ( 'NONE',  ( 1.000000000000000000, 0.0000000000000000000, 0.0000000000000000000 ) ) ;
#35 = DIRECTION ( 'NONE',  ( -0.0000000000000000000, -0.0000000000000000000, 1.000000000000000000 ) ) ;
#36 = AXIS2_PLACEMENT_3D ( 'NONE', #38, #35, #34 ) ;
#37 = CONICAL_SURFACE ( 'NONE', #36, 15.14550000000000200, 0.7853981633974532800 ) ;
#38 = CARTESIAN_POINT ( 'NONE',  ( 0.0000000000000000000, 0.0000000000000000000, -34.47110748566272100 ) ) ;
#39 = FACE_OUTER_BOUND ( 'NONE', #80, .T. ) ;
#40 = CARTESIAN_POINT ( 'NONE',  ( 15.14550000000000200, 0.0000000000000000000, -34.47110748566272100 ) ) ;
#41 = DIRECTION ( 'NONE',  ( 1.000000000000000000, 0.0000000000000000000, 0.0000000000000000000 ) ) ;
#42 = DIRECTION ( 'NONE',  ( -0.0000000000000000000, -0.0000000000000000000, 1.000000000000000000 ) ) ;
#43 = CARTESIAN_POINT ( 'NONE',  ( 0.0000000000000000000, 0.0000000000000000000, -34.47110748566272100 ) ) ;
#44 = AXIS2_PLACEMENT_3D ( 'NONE', #43, #42, #41 ) ;
#45 = CIRCLE ( 'NONE', #44, 15.14550000000000200 ) ;
#46 = CARTESIAN_POINT ( 'NONE',  ( -15.14550000000000200, 1.854727553181681600E-015, -34.47110748566272100 ) ) ;
#47 = DIRECTION ( 'NONE',  ( -0.7071067811865510100, 8.659274570719398600E-017, 0.7071067811865441300 ) ) ;
#48 = VECTOR ( 'NONE', #47, 999.9999999999998900 ) ;
#49 = CARTESIAN_POINT ( 'NONE',  ( -15.14550000000000200, 1.854727553181681600E-015, -34.47110748566272100 ) ) ;
#50 = LINE ( 'NONE', #49, #48 ) ;
#51 = DIRECTION ( 'NONE',  ( -0.0000000000000000000, 1.656078820095309600E-016, -1.000000000000000000 ) ) ;
#52 = CARTESIAN_POINT ( 'NONE',  ( 0.0000000000000000000, -3.469446951953615000E-015, 0.0000000000000000000 ) ) ;
#53 = AXIS2_PLACEMENT_3D ( 'NONE', #52, #51, #211 ) ;
#54 = CIRCLE ( 'NONE', #53, 13.65000000000000200 ) ;
#55 = FACE_OUTER_BOUND ( 'NONE', #140, .T. ) ;
#56 = CARTESIAN_POINT ( 'NONE',  ( -14.61660748566283600, 0.0000000000000000000, -5.464289072506945500E-018 ) ) ;
#57 = CARTESIAN_POINT ( 'NONE',  ( 14.61660748566283600, 1.822343296504362200E-015, -5.464289072506945500E-018 ) ) ;
#58 = DIRECTION ( 'NONE',  ( 1.000000000000000000, 0.0000000000000000000, 0.0000000000000000000 ) ) ;
#59 = DIRECTION ( 'NONE',  ( -0.0000000000000000000, -0.0000000000000000000, 1.000000000000000000 ) ) ;
#60 = CARTESIAN_POINT ( 'NONE',  ( 0.0000000000000000000, 0.0000000000000000000, -5.464289072506945500E-018 ) ) ;
#61 = AXIS2_PLACEMENT_3D ( 'NONE', #60, #59, #58 ) ;
#62 = CIRCLE ( 'NONE', #61, 14.61660748566283600 ) ;
#63 = VERTEX_POINT ( 'NONE', #147 ) ;
#64 = ORIENTED_EDGE ( 'NONE', *, *, #65, .T. ) ;
#65 = EDGE_CURVE ( 'NONE', #63, #66, #50, .T. ) ;
#66 = VERTEX_POINT ( 'NONE', #46 ) ;
#67 = ORIENTED_EDGE ( 'NONE', *, *, #68, .F. ) ;
#68 = EDGE_CURVE ( 'NONE', #71, #66, #45, .T. ) ;
#69 = MANIFOLD_SOLID_BREP ( 'NONE', #78 ) ;
#70 = EDGE_LOOP ( 'NONE', ( #144, #64, #67, #141 ) ) ;
#71 = VERTEX_POINT ( 'NONE', #40 ) ;
#72 = ORIENTED_EDGE ( 'NONE', *, *, #180, .T. ) ;
#73 = ORIENTED_EDGE ( 'NONE', *, *, #134, .F. ) ;
#74 = ORIENTED_EDGE ( 'NONE', *, *, #65, .F. ) ;
#75 = ORIENTED_EDGE ( 'NONE', *, *, #84, .T. ) ;
#76 = ORIENTED_EDGE ( 'NONE', *, *, #142, .T. ) ;
#77 = ORIENTED_EDGE ( 'NONE', *, *, #158, .F. ) ;
#78 = CLOSED_SHELL ( 'NONE', ( #143, #139, #174, #166, #161, #148, #99, #121, #93, #79 ) ) ;
#79 = ADVANCED_FACE ( 'NONE', ( #39 ), #37, .T. ) ;
#80 = EDGE_LOOP ( 'NONE', ( #74, #75, #76, #77 ) ) ;
#81 = ORIENTED_EDGE ( 'NONE', *, *, #172, .F. ) ;
#82 = ORIENTED_EDGE ( 'NONE', *, *, #85, .F. ) ;
#83 = ORIENTED_EDGE ( 'NONE', *, *, #84, .F. ) ;
#84 = EDGE_CURVE ( 'NONE', #63, #146, #32, .T. ) ;
#85 = EDGE_CURVE ( 'NONE', #168, #170, #27, .T. ) ;
#86 = ORIENTED_EDGE ( 'NONE', *, *, #145, .F. ) ;
#87 = EDGE_LOOP ( 'NONE', ( #86, #83 ) ) ;
#88 = ORIENTED_EDGE ( 'NONE', *, *, #175, .T. ) ;
#89 = ORIENTED_EDGE ( 'NONE', *, *, #149, .T. ) ;
#90 = EDGE_LOOP ( 'NONE', ( #92, #91, #88, #89 ) ) ;
#91 = ORIENTED_EDGE ( 'NONE', *, *, #117, .F. ) ;
#92 = ORIENTED_EDGE ( 'NONE', *, *, #180, .F. ) ;
#93 = ADVANCED_FACE ( 'NONE', ( #23 ), #22, .T. ) ;
#94 = ORIENTED_EDGE ( 'NONE', *, *, #85, .T. ) ;
#95 = ORIENTED_EDGE ( 'NONE', *, *, #163, .T. ) ;
#96 = ORIENTED_EDGE ( 'NONE', *, *, #100, .F. ) ;
#97 = ORIENTED_EDGE ( 'NONE', *, *, #176, .F. ) ;
#98 = EDGE_LOOP ( 'NONE', ( #118, #101 ) ) ;
#99 = ADVANCED_FACE ( 'NONE', ( #21, #16 ), #15, .F. ) ;
#100 = EDGE_CURVE ( 'NONE', #133, #132, #13, .T. ) ;
#101 = ORIENTED_EDGE ( 'NONE', *, *, #138, .T. ) ;
#102 = CARTESIAN_POINT ( 'NONE',  ( 0.0000000000000000000, 13.64999999999999900, 2.260547589430098100E-015 ) ) ;
#103 = CARTESIAN_POINT ( 'NONE',  ( 1.671587672967545700E-015, -13.65000000000000600, -2.260547589430097800E-015 ) ) ;
#104 = DIRECTION ( 'NONE',  ( 0.0000000000000000000, 1.000000000000000000, 0.0000000000000000000 ) ) ;
#105 = DIRECTION ( 'NONE',  ( -0.0000000000000000000, 1.656078820095309600E-016, -1.000000000000000000 ) ) ;
#106 = AXIS2_PLACEMENT_3D ( 'NONE', #109, #105, #104 ) ;
#107 = CYLINDRICAL_SURFACE ( 'NONE', #106, 13.65000000000000200 ) ;
#108 = CARTESIAN_POINT ( 'NONE',  ( -15.14550000000000200, 1.854727553181681600E-015, -0.5288925143371565600 ) ) ;
#109 = CARTESIAN_POINT ( 'NONE',  ( 0.0000000000000000000, 2.326828918379978100E-015, -35.00000000000005700 ) ) ;
#110 = DIRECTION ( 'NONE',  ( 1.000000000000000000, 0.0000000000000000000, 0.0000000000000000000 ) ) ;
#111 = DIRECTION ( 'NONE',  ( -0.0000000000000000000, -0.0000000000000000000, 1.000000000000000000 ) ) ;
#112 = CARTESIAN_POINT ( 'NONE',  ( 0.0000000000000000000, 0.0000000000000000000, -5.464289072506945500E-018 ) ) ;
#113 = AXIS2_PLACEMENT_3D ( 'NONE', #112, #111, #110 ) ;
#114 = CIRCLE ( 'NONE', #113, 14.61660748566283600 ) ;
#115 = FACE_OUTER_BOUND ( 'NONE', #122, .T. ) ;
#116 = ORIENTED_EDGE ( 'NONE', *, *, #117, .T. ) ;
#117 = EDGE_CURVE ( 'NONE', #136, #135, #114, .T. ) ;
#118 = ORIENTED_EDGE ( 'NONE', *, *, #100, .T. ) ;
#119 = EDGE_LOOP ( 'NONE', ( #116, #120 ) ) ;
#120 = ORIENTED_EDGE ( 'NONE', *, *, #134, .T. ) ;
#121 = ADVANCED_FACE ( 'NONE', ( #115 ), #107, .F. ) ;
#122 = EDGE_LOOP ( 'NONE', ( #97, #96, #95, #94 ) ) ;
#123 = DIRECTION ( 'NONE',  ( -0.0000000000000000000, -0.0000000000000000000, 1.000000000000000000 ) ) ;
#124 = VECTOR ( 'NONE', #123, 1000.000000000000000 ) ;
#125 = CARTESIAN_POINT ( 'NONE',  ( -15.14549999999999800, 1.854727553181681600E-015, -4.336808689942017700E-016 ) ) ;
#126 = LINE ( 'NONE', #125, #124 ) ;
#127 = DIRECTION ( 'NONE',  ( 1.000000000000000000, 0.0000000000000000000, 0.0000000000000000000 ) ) ;
#128 = DIRECTION ( 'NONE',  ( -0.0000000000000000000, -0.0000000000000000000, 1.000000000000000000 ) ) ;
#129 = AXIS2_PLACEMENT_3D ( 'NONE', #185, #128, #127 ) ;
#130 = CIRCLE ( 'NONE', #129, 15.14550000000000000 ) ;
#131 = VERTEX_POINT ( 'NONE', #108 ) ;
#132 = VERTEX_POINT ( 'NONE', #103 ) ;
#133 = VERTEX_POINT ( 'NONE', #102 ) ;
#134 = EDGE_CURVE ( 'NONE', #135, #136, #62, .T. ) ;
#135 = VERTEX_POINT ( 'NONE', #57 ) ;
#136 = VERTEX_POINT ( 'NONE', #56 ) ;
#137 = ORIENTED_EDGE ( 'NONE', *, *, #176, .T. ) ;
#138 = EDGE_CURVE ( 'NONE', #132, #133, #54, .T. ) ;
#139 = ADVANCED_FACE ( 'NONE', ( #55 ), #209, .T. ) ;
#140 = EDGE_LOOP ( 'NONE', ( #73, #72, #177, #179 ) ) ;
#141 = ORIENTED_EDGE ( 'NONE', *, *, #142, .F. ) ;
#142 = EDGE_CURVE ( 'NONE', #146, #71, #205, .T. ) ;
#143 = ADVANCED_FACE ( 'NONE', ( #201 ), #200, .T. ) ;
#144 = ORIENTED_EDGE ( 'NONE', *, *, #145, .T. ) ;
#145 = EDGE_CURVE ( 'NONE', #146, #63, #199, .T. ) ;
#146 = VERTEX_POINT ( 'NONE', #190 ) ;
#147 = CARTESIAN_POINT ( 'NONE',  ( -14.61660748566271400, 1.822343296504354700E-015, -35.00000000000000000 ) ) ;
#148 = ADVANCED_FACE ( 'NONE', ( #189, #188 ), #187, .F. ) ;
#149 = EDGE_CURVE ( 'NONE', #131, #181, #130, .T. ) ;
#150 = EDGE_LOOP ( 'NONE', ( #82, #81 ) ) ;
#151 = ORIENTED_EDGE ( 'NONE', *, *, #149, .F. ) ;
#152 = ORIENTED_EDGE ( 'NONE', *, *, #160, .T. ) ;
#153 = EDGE_CURVE ( 'NONE', #66, #131, #126, .T. ) ;
#154 = ORIENTED_EDGE ( 'NONE', *, *, #153, .T. ) ;
#155 = ORIENTED_EDGE ( 'NONE', *, *, #178, .F. ) ;
#156 = ORIENTED_EDGE ( 'NONE', *, *, #160, .F. ) ;
#157 = ORIENTED_EDGE ( 'NONE', *, *, #158, .T. ) ;
#158 = EDGE_CURVE ( 'NONE', #66, #71, #5, .T. ) ;
#159 = ORIENTED_EDGE ( 'NONE', *, *, #153, .F. ) ;
#160 = EDGE_CURVE ( 'NONE', #71, #181, #241, .T. ) ;
#161 = ADVANCED_FACE ( 'NONE', ( #237 ), #236, .T. ) ;
#162 = EDGE_LOOP ( 'NONE', ( #159, #157, #152, #151 ) ) ;
#163 = EDGE_CURVE ( 'NONE', #133, #168, #231, .T. ) ;
#164 = EDGE_LOOP ( 'NONE', ( #165, #154, #155, #156 ) ) ;
#165 = ORIENTED_EDGE ( 'NONE', *, *, #68, .T. ) ;
#166 = ADVANCED_FACE ( 'NONE', ( #227 ), #226, .T. ) ;
#167 = ORIENTED_EDGE ( 'NONE', *, *, #163, .F. ) ;
#168 = VERTEX_POINT ( 'NONE', #225 ) ;
#169 = EDGE_LOOP ( 'NONE', ( #173, #137, #171, #167 ) ) ;
#170 = VERTEX_POINT ( 'NONE', #220 ) ;
#171 = ORIENTED_EDGE ( 'NONE', *, *, #172, .T. ) ;
#172 = EDGE_CURVE ( 'NONE', #170, #168, #219, .T. ) ;
#173 = ORIENTED_EDGE ( 'NONE', *, *, #138, .F. ) ;
#174 = ADVANCED_FACE ( 'NONE', ( #214 ), #212, .F. ) ;
#175 = EDGE_CURVE ( 'NONE', #136, #131, #264, .T. ) ;
#176 = EDGE_CURVE ( 'NONE', #132, #170, #260, .T. ) ;
#177 = ORIENTED_EDGE ( 'NONE', *, *, #178, .T. ) ;
#178 = EDGE_CURVE ( 'NONE', #181, #131, #256, .T. ) ;
#179 = ORIENTED_EDGE ( 'NONE', *, *, #175, .F. ) ;
#180 = EDGE_CURVE ( 'NONE', #135, #181, #251, .T. ) ;
#181 = VERTEX_POINT ( 'NONE', #247 ) ;
#182 = DIRECTION ( 'NONE',  ( 1.000000000000000000, 0.0000000000000000000, 0.0000000000000000000 ) ) ;
#183 = DIRECTION ( 'NONE',  ( 0.0000000000000000000, -0.0000000000000000000, 1.000000000000000000 ) ) ;
#184 = AXIS2_PLACEMENT_3D ( 'NONE', #186, #183, #182 ) ;
#185 = CARTESIAN_POINT ( 'NONE',  ( 0.0000000000000000000, 0.0000000000000000000, -0.5288925143371565600 ) ) ;
#186 = CARTESIAN_POINT ( 'NONE',  ( 0.0000000000000000000, 15.14549999999999800, -35.00000000000000000 ) ) ;
#187 = PLANE ( 'NONE',  #184 ) ;
#188 = FACE_OUTER_BOUND ( 'NONE', #87, .T. ) ;
#189 = FACE_BOUND ( 'NONE', #150, .T. ) ;
#190 = CARTESIAN_POINT ( 'NONE',  ( 14.61660748566271400, 0.0000000000000000000, -35.00000000000000000 ) ) ;
#191 = DIRECTION ( 'NONE',  ( 1.000000000000000000, 0.0000000000000000000, 0.0000000000000000000 ) ) ;
#192 = DIRECTION ( 'NONE',  ( -0.0000000000000000000, -0.0000000000000000000, 1.000000000000000000 ) ) ;
#193 = CARTESIAN_POINT ( 'NONE',  ( 0.0000000000000000000, 0.0000000000000000000, -35.00000000000000000 ) ) ;
#194 = AXIS2_PLACEMENT_3D ( 'NONE', #193, #192, #191 ) ;
#195 = DIRECTION ( 'NONE',  ( 1.000000000000000000, 0.0000000000000000000, 0.0000000000000000000 ) ) ;
#196 = DIRECTION ( 'NONE',  ( -0.0000000000000000000, -0.0000000000000000000, 1.000000000000000000 ) ) ;
#197 = CARTESIAN_POINT ( 'NONE',  ( 0.0000000000000000000, 0.0000000000000000000, -34.47110748566272100 ) ) ;
#198 = AXIS2_PLACEMENT_3D ( 'NONE', #197, #196, #195 ) ;
#199 = CIRCLE ( 'NONE', #194, 14.61660748566271400 ) ;
#200 = CONICAL_SURFACE ( 'NONE', #198, 15.14550000000000200, 0.7853981633974532800 ) ;
#201 = FACE_OUTER_BOUND ( 'NONE', #70, .T. ) ;
#202 = DIRECTION ( 'NONE',  ( 0.7071067811865510100, 0.0000000000000000000, 0.7071067811865441300 ) ) ;
#203 = VECTOR ( 'NONE', #202, 999.9999999999998900 ) ;
#204 = CARTESIAN_POINT ( 'NONE',  ( 15.14550000000000200, 0.0000000000000000000, -34.47110748566272100 ) ) ;
#205 = LINE ( 'NONE', #204, #203 ) ;
#206 = DIRECTION ( 'NONE',  ( -1.000000000000000000, 0.0000000000000000000, 0.0000000000000000000 ) ) ;
#207 = DIRECTION ( 'NONE',  ( 0.0000000000000000000, 0.0000000000000000000, -1.000000000000000000 ) ) ;
#208 = AXIS2_PLACEMENT_3D ( 'NONE', #210, #207, #206 ) ;
#209 = CONICAL_SURFACE ( 'NONE', #208, 14.61660748566283600, 0.7853981633974557200 ) ;
#210 = CARTESIAN_POINT ( 'NONE',  ( 0.0000000000000000000, 0.0000000000000000000, -5.464289072506945500E-018 ) ) ;
#211 = DIRECTION ( 'NONE',  ( 0.0000000000000000000, 1.000000000000000000, 1.656078820095309600E-016 ) ) ;
#212 = CYLINDRICAL_SURFACE ( 'NONE', #213, 13.65000000000000200 ) ;
#213 = AXIS2_PLACEMENT_3D ( 'NONE', #267, #266, #265 ) ;
#214 = FACE_OUTER_BOUND ( 'NONE', #169, .T. ) ;
#215 = DIRECTION ( 'NONE',  ( 0.0000000000000000000, 1.000000000000000000, 0.0000000000000000000 ) ) ;
#216 = DIRECTION ( 'NONE',  ( -0.0000000000000000000, 1.656078820095309600E-016, -1.000000000000000000 ) ) ;
#217 = CARTESIAN_POINT ( 'NONE',  ( 0.0000000000000000000, 2.326828918379969400E-015, -35.00000000000000000 ) ) ;
#218 = AXIS2_PLACEMENT_3D ( 'NONE', #217, #216, #215 ) ;
#219 = CIRCLE ( 'NONE', #218, 13.65000000000000400 ) ;
#220 = CARTESIAN_POINT ( 'NONE',  ( 1.671587672967545300E-015, -13.65000000000000200, -35.00000000000000000 ) ) ;
#221 = DIRECTION ( 'NONE',  ( 1.000000000000000000, 0.0000000000000000000, 0.0000000000000000000 ) ) ;
#222 = DIRECTION ( 'NONE',  ( -0.0000000000000000000, -0.0000000000000000000, 1.000000000000000000 ) ) ;
#223 = CARTESIAN_POINT ( 'NONE',  ( 0.0000000000000000000, 0.0000000000000000000, -4.336808689942017700E-016 ) ) ;
#224 = AXIS2_PLACEMENT_3D ( 'NONE', #223, #222, #221 ) ;
#225 = CARTESIAN_POINT ( 'NONE',  ( 0.0000000000000000000, 13.65000000000000600, -35.00000000000000000 ) ) ;
#226 = CYLINDRICAL_SURFACE ( 'NONE', #224, 15.14549999999999800 ) ;
#227 = FACE_OUTER_BOUND ( 'NONE', #164, .T. ) ;
#228 = DIRECTION ( 'NONE',  ( -0.0000000000000000000, 1.656078820095309600E-016, -1.000000000000000000 ) ) ;
#229 = VECTOR ( 'NONE', #228, 1000.000000000000000 ) ;
#230 = CARTESIAN_POINT ( 'NONE',  ( 0.0000000000000000000, 13.65000000000000400, -35.00000000000005700 ) ) ;
#231 = LINE ( 'NONE', #230, #229 ) ;
#232 = DIRECTION ( 'NONE',  ( 1.000000000000000000, 0.0000000000000000000, 0.0000000000000000000 ) ) ;
#233 = DIRECTION ( 'NONE',  ( -0.0000000000000000000, -0.0000000000000000000, 1.000000000000000000 ) ) ;
#234 = CARTESIAN_POINT ( 'NONE',  ( 0.0000000000000000000, 0.0000000000000000000, -4.336808689942017700E-016 ) ) ;
#235 = AXIS2_PLACEMENT_3D ( 'NONE', #234, #233, #232 ) ;
#236 = CYLINDRICAL_SURFACE ( 'NONE', #235, 15.14549999999999800 ) ;
#237 = FACE_OUTER_BOUND ( 'NONE', #162, .T. ) ;
#238 = DIRECTION ( 'NONE',  ( -0.0000000000000000000, -0.0000000000000000000, 1.000000000000000000 ) ) ;
#239 = VECTOR ( 'NONE', #238, 1000.000000000000000 ) ;
#240 = CARTESIAN_POINT ( 'NONE',  ( 15.14549999999999800, 0.0000000000000000000, -4.336808689942017700E-016 ) ) ;
#241 = LINE ( 'NONE', #240, #239 ) ;
#242 = UNCERTAINTY_MEASURE_WITH_UNIT (LENGTH_MEASURE( 1.000000000000000100E-005 ), #245, 'distance_accuracy_value', 'NONE');
#243 =( NAMED_UNIT ( * ) SI_UNIT ( $, .STERADIAN. ) SOLID_ANGLE_UNIT ( ) );
#244 =( NAMED_UNIT ( * ) PLANE_ANGLE_UNIT ( ) SI_UNIT ( $, .RADIAN. ) );
#245 =( LENGTH_UNIT ( ) NAMED_UNIT ( * ) SI_UNIT ( .MILLI., .METRE. ) );
#246 = AXIS2_PLACEMENT_3D ( 'NONE', #271, #270, #269 ) ;
#247 = CARTESIAN_POINT ( 'NONE',  ( 15.14550000000000000, 0.0000000000000000000, -0.5288925143371565600 ) ) ;
#248 = DIRECTION ( 'NONE',  ( 0.7071067811865527900, 8.659274570719419500E-017, -0.7071067811865422400 ) ) ;
#249 = VECTOR ( 'NONE', #248, 1000.000000000000000 ) ;
#250 = CARTESIAN_POINT ( 'NONE',  ( 14.61660748566283600, 1.789959039827043200E-015, -5.464289072506945500E-018 ) ) ;
#251 = LINE ( 'NONE', #250, #249 ) ;
#252 = DIRECTION ( 'NONE',  ( 1.000000000000000000, 0.0000000000000000000, 0.0000000000000000000 ) ) ;
#253 = DIRECTION ( 'NONE',  ( -0.0000000000000000000, -0.0000000000000000000, 1.000000000000000000 ) ) ;
#254 = CARTESIAN_POINT ( 'NONE',  ( 0.0000000000000000000, 0.0000000000000000000, -0.5288925143371565600 ) ) ;
#255 = AXIS2_PLACEMENT_3D ( 'NONE', #254, #253, #252 ) ;
#256 = CIRCLE ( 'NONE', #255, 15.14550000000000000 ) ;
#257 = DIRECTION ( 'NONE',  ( -0.0000000000000000000, 1.656078820095309600E-016, -1.000000000000000000 ) ) ;
#258 = VECTOR ( 'NONE', #257, 1000.000000000000000 ) ;
#259 = CARTESIAN_POINT ( 'NONE',  ( 1.671587672967545300E-015, -13.65000000000000000, -35.00000000000005700 ) ) ;
#260 = LINE ( 'NONE', #259, #258 ) ;
#261 = DIRECTION ( 'NONE',  ( -0.7071067811865527900, 0.0000000000000000000, -0.7071067811865422400 ) ) ;
#262 = VECTOR ( 'NONE', #261, 1000.000000000000000 ) ;
#263 = CARTESIAN_POINT ( 'NONE',  ( -14.61660748566283600, 0.0000000000000000000, -5.464289072506945500E-018 ) ) ;
#264 = LINE ( 'NONE', #263, #262 ) ;
#265 = DIRECTION ( 'NONE',  ( 0.0000000000000000000, 1.000000000000000000, 0.0000000000000000000 ) ) ;
#266 = DIRECTION ( 'NONE',  ( -0.0000000000000000000, 1.656078820095309600E-016, -1.000000000000000000 ) ) ;
#267 = CARTESIAN_POINT ( 'NONE',  ( 0.0000000000000000000, 2.326828918379978100E-015, -35.00000000000005700 ) ) ;
#268 = APPLICATION_CONTEXT ( 'configuration controlled 3d designs of mechanical parts and assemblies' ) ;
#269 = DIRECTION ( 'NONE',  ( 1.000000000000000000, 0.0000000000000000000, 0.0000000000000000000 ) ) ;
#270 = DIRECTION ( 'NONE',  ( 0.0000000000000000000, 0.0000000000000000000, 1.000000000000000000 ) ) ;
#271 = CARTESIAN_POINT ( 'NONE',  ( 0.0000000000000000000, 0.0000000000000000000, 0.0000000000000000000 ) ) ;
#272 = SHAPE_DEFINITION_REPRESENTATION ( #331, #273 ) ;
#273 = ADVANCED_BREP_SHAPE_REPRESENTATION ( '11-0206-06_outokumpu', ( #69, #246 ), #274 ) ;
#274 =( GEOMETRIC_REPRESENTATION_CONTEXT ( 3 ) GLOBAL_UNCERTAINTY_ASSIGNED_CONTEXT ( ( #242 ) ) GLOBAL_UNIT_ASSIGNED_CONTEXT ( ( #245, #244, #243 ) ) REPRESENTATION_CONTEXT ( 'NONE', 'WORKASPACE' ) );
#275 = CC_DESIGN_PERSON_AND_ORGANIZATION_ASSIGNMENT ( #277, #276, ( #280 ) ) ;
#276 = PERSON_AND_ORGANIZATION_ROLE ( 'design_owner' ) ;
#277 = PERSON_AND_ORGANIZATION ( #279, #278 ) ;
#278 = ORGANIZATION ( 'UNSPECIFIED', 'UNSPECIFIED', '' ) ;
#279 = PERSON ( 'UNSPECIFIED', 'UNSPECIFIED', 'UNSPECIFIED', ('UNSPECIFIED'), ('UNSPECIFIED'), ('UNSPECIFIED') ) ;
#280 = PRODUCT ( '11-0206-06_outokumpu', '11-0206-06_outokumpu', '', ( #281 ) ) ;
#281 = MECHANICAL_CONTEXT ( 'NONE', #268, 'mechanical' ) ;
#282 = APPLICATION_PROTOCOL_DEFINITION ( 'international standard', 'config_control_design', 1994, #268 ) ;
#283 = COORDINATED_UNIVERSAL_TIME_OFFSET ( 1, 0, .AHEAD. ) ;
#284 = CC_DESIGN_PERSON_AND_ORGANIZATION_ASSIGNMENT ( #286, #285, ( #287 ) ) ;
#285 = PERSON_AND_ORGANIZATION_ROLE ( 'classification_officer' ) ;
#286 = PERSON_AND_ORGANIZATION ( #279, #278 ) ;
#287 = SECURITY_CLASSIFICATION ( '', '', #288 ) ;
#288 = SECURITY_CLASSIFICATION_LEVEL ( 'unclassified' ) ;
#289 = CC_DESIGN_PERSON_AND_ORGANIZATION_ASSIGNMENT ( #291, #290, ( #306 ) ) ;
#290 = PERSON_AND_ORGANIZATION_ROLE ( 'design_supplier' ) ;
#291 = PERSON_AND_ORGANIZATION ( #279, #278 ) ;
#292 = CC_DESIGN_PERSON_AND_ORGANIZATION_ASSIGNMENT ( #294, #293, ( #306 ) ) ;
#293 = PERSON_AND_ORGANIZATION_ROLE ( 'creator' ) ;
#294 = PERSON_AND_ORGANIZATION ( #279, #278 ) ;
#295 = CC_DESIGN_APPROVAL ( #303, ( #306 ) ) ;
#296 = APPROVAL_DATE_TIME ( #297, #303 ) ;
#297 = DATE_AND_TIME ( #298, #299 ) ;
#298 = CALENDAR_DATE ( 2015, 11, 8 ) ;
#299 = LOCAL_TIME ( 11, 47, 3.000000000000000000, #300 ) ;
#300 = COORDINATED_UNIVERSAL_TIME_OFFSET ( 1, 0, .AHEAD. ) ;
#301 = APPROVAL_PERSON_ORGANIZATION ( #305, #303, #302 ) ;
#302 = APPROVAL_ROLE ( '' ) ;
#303 = APPROVAL ( #304, 'UNSPECIFIED' ) ;
#304 = APPROVAL_STATUS ( 'not_yet_approved' ) ;
#305 = PERSON_AND_ORGANIZATION ( #279, #278 ) ;
#306 = PRODUCT_DEFINITION_FORMATION_WITH_SPECIFIED_SOURCE ( 'ANY', '', #280, .NOT_KNOWN. ) ;
#307 = CC_DESIGN_DATE_AND_TIME_ASSIGNMENT ( #309, #308, ( #327 ) ) ;
#308 = DATE_TIME_ROLE ( 'creation_date' ) ;
#309 = DATE_AND_TIME ( #310, #311 ) ;
#310 = CALENDAR_DATE ( 2015, 11, 8 ) ;
#311 = LOCAL_TIME ( 11, 47, 3.000000000000000000, #312 ) ;
#312 = COORDINATED_UNIVERSAL_TIME_OFFSET ( 1, 0, .AHEAD. ) ;
#313 = CC_DESIGN_PERSON_AND_ORGANIZATION_ASSIGNMENT ( #315, #314, ( #327 ) ) ;
#314 = PERSON_AND_ORGANIZATION_ROLE ( 'creator' ) ;
#315 = PERSON_AND_ORGANIZATION ( #279, #278 ) ;
#316 = CC_DESIGN_APPROVAL ( #324, ( #327 ) ) ;
#317 = APPROVAL_DATE_TIME ( #318, #324 ) ;
#318 = DATE_AND_TIME ( #319, #320 ) ;
#319 = CALENDAR_DATE ( 2015, 11, 8 ) ;
#320 = LOCAL_TIME ( 11, 47, 3.000000000000000000, #321 ) ;
#321 = COORDINATED_UNIVERSAL_TIME_OFFSET ( 1, 0, .AHEAD. ) ;
#322 = APPROVAL_PERSON_ORGANIZATION ( #326, #324, #323 ) ;
#323 = APPROVAL_ROLE ( '' ) ;
#324 = APPROVAL ( #325, 'UNSPECIFIED' ) ;
#325 = APPROVAL_STATUS ( 'not_yet_approved' ) ;
#326 = PERSON_AND_ORGANIZATION ( #279, #278 ) ;
#327 = PRODUCT_DEFINITION ( 'UNKNOWN', '', #306, #328 ) ;
#328 = DESIGN_CONTEXT ( 'detailed design', #330, 'design' ) ;
#329 = APPLICATION_PROTOCOL_DEFINITION ( 'international standard', 'config_control_design', 1994, #330 ) ;
#330 = APPLICATION_CONTEXT ( 'configuration controlled 3d designs of mechanical parts and assemblies' ) ;
#331 = PRODUCT_DEFINITION_SHAPE ( 'NONE', 'NONE',  #327 ) ;
#332 = PRODUCT_RELATED_PRODUCT_CATEGORY ( 'detail', '', ( #280 ) ) ;
#333 = CC_DESIGN_SECURITY_CLASSIFICATION ( #287, ( #306 ) ) ;
#334 = CC_DESIGN_APPROVAL ( #342, ( #287 ) ) ;
#335 = APPROVAL_DATE_TIME ( #336, #342 ) ;
#336 = DATE_AND_TIME ( #337, #338 ) ;
#337 = CALENDAR_DATE ( 2015, 11, 8 ) ;
#338 = LOCAL_TIME ( 11, 47, 3.000000000000000000, #339 ) ;
#339 = COORDINATED_UNIVERSAL_TIME_OFFSET ( 1, 0, .AHEAD. ) ;
#340 = APPROVAL_PERSON_ORGANIZATION ( #344, #342, #341 ) ;
#341 = APPROVAL_ROLE ( '' ) ;
#342 = APPROVAL ( #343, 'UNSPECIFIED' ) ;
#343 = APPROVAL_STATUS ( 'not_yet_approved' ) ;
#344 = PERSON_AND_ORGANIZATION ( #279, #278 ) ;
#345 = CC_DESIGN_DATE_AND_TIME_ASSIGNMENT ( #347, #346, ( #287 ) ) ;
#346 = DATE_TIME_ROLE ( 'classification_date' ) ;
#347 = DATE_AND_TIME ( #348, #349 ) ;
#348 = CALENDAR_DATE ( 2015, 11, 8 ) ;
#349 = LOCAL_TIME ( 11, 47, 3.000000000000000000, #283 ) ;
ENDSEC;
END-ISO-10303-21;
