ISO-10303-21;
HEADER;
FILE_DESCRIPTION (( 'STEP AP203' ),
    '1' );
FILE_NAME ('3D_R1651_13.5x2.3_17352130.STEP',
    '2024-08-05T06:45:45',
    ( '' ),
    ( '' ),
    'SwSTEP 2.0',
    'SolidWorks 2024',
    '' );
FILE_SCHEMA (( 'CONFIG_CONTROL_DESIGN' ));
ENDSEC;

DATA;
#1 = DATE_AND_TIME ( #81, #139 ) ;
#2 = AXIS2_PLACEMENT_3D ( 'NONE', #48, #118, #69 ) ;
#3 = DIRECTION ( 'NONE',  ( 2.943923360032083473E-15, 0.000000000000000000, 1.000000000000000000 ) ) ;
#4 = ADVANCED_FACE ( 'NONE', ( #206, #34 ), #221, .T. ) ;
#5 = ORGANIZATION ( 'UNSPECIFIED', 'UNSPECIFIED', '' ) ;
#6 = VERTEX_POINT ( 'NONE', #200 ) ;
#7 = PRODUCT_DEFINITION_SHAPE ( 'NONE', 'NONE',  #23 ) ;
#8 = CALENDAR_DATE ( 2024, 5, 8 ) ;
#9 = EDGE_LOOP ( 'NONE', ( #28, #146 ) ) ;
#10 = VERTEX_POINT ( 'NONE', #100 ) ;
#11 = EDGE_LOOP ( 'NONE', ( #242, #220, #124, #121 ) ) ;
#12 = DIRECTION ( 'NONE',  ( -2.259334488757228089E-16, 0.000000000000000000, 1.000000000000000000 ) ) ;
#13 = AXIS2_PLACEMENT_3D ( 'NONE', #65, #234, #3 ) ;
#14 = DIRECTION ( 'NONE',  ( 0.000000000000000000, 0.000000000000000000, 1.000000000000000000 ) ) ;
#15 = TOROIDAL_SURFACE ( 'NONE', #246, 20.00000000000000000, 6.749999999999999112 ) ;
#16 = DIRECTION ( 'NONE',  ( 0.000000000000000000, 0.000000000000000000, 1.000000000000000000 ) ) ;
#17 = CARTESIAN_POINT ( 'NONE',  ( -5.972319578071406330E-14, 0.000000000000000000, -20.00000000000000000 ) ) ;
#18 = EDGE_CURVE ( 'NONE', #10, #6, #29, .T. ) ;
#19 = DIRECTION ( 'NONE',  ( 0.000000000000000000, 0.000000000000000000, 1.000000000000000000 ) ) ;
#20 = CC_DESIGN_APPROVAL ( #26, ( #166 ) ) ;
#21 = CARTESIAN_POINT ( 'NONE',  ( 0.000000000000000000, 0.000000000000000000, 0.000000000000000000 ) ) ;
#22 = CALENDAR_DATE ( 2024, 5, 8 ) ;
#23 = PRODUCT_DEFINITION ( 'UNKNOWN', '', #166, #123 ) ;
#24 = APPROVAL_STATUS ( 'not_yet_approved' ) ;
#25 = CIRCLE ( 'NONE', #52, 26.75000000000000000 ) ;
#26 = APPROVAL ( #165, 'UNSPECIFIED' ) ;
#27 = CC_DESIGN_APPROVAL ( #70, ( #23 ) ) ;
#28 = ORIENTED_EDGE ( 'NONE', *, *, #18, .F. ) ;
#29 = CIRCLE ( 'NONE', #143, 6.749999999999999112 ) ;
#30 = ORIENTED_EDGE ( 'NONE', *, *, #159, .F. ) ;
#31 = EDGE_LOOP ( 'NONE', ( #84, #53, #167, #144 ) ) ;
#32 = EDGE_LOOP ( 'NONE', ( #184, #227 ) ) ;
#33 = LOCAL_TIME ( 8, 45, 45.00000000000000000, #44 ) ;
#34 = FACE_OUTER_BOUND ( 'NONE', #204, .T. ) ;
#35 = ADVANCED_FACE ( 'NONE', ( #57 ), #15, .T. ) ;
#36 = CARTESIAN_POINT ( 'NONE',  ( -5.887846720064166157E-14, 0.000000000000000000, -20.00000000000000000 ) ) ;
#37 = CARTESIAN_POINT ( 'NONE',  ( -20.00000000000000000, 0.000000000000000000, -3.673940397442063911E-15 ) ) ;
#38 = TOROIDAL_SURFACE ( 'NONE', #173, 20.00000000000000000, 6.749999999999999112 ) ;
#39 = DIRECTION ( 'NONE',  ( 2.943923360032083078E-15, 0.000000000000000000, 1.000000000000000000 ) ) ;
#40 = CARTESIAN_POINT ( 'NONE',  ( -20.00000000000000000, 0.000000000000000000, -4.518668977514456179E-15 ) ) ;
#41 = DATE_AND_TIME ( #214, #33 ) ;
#42 = ADVANCED_FACE ( 'NONE', ( #171 ), #38, .T. ) ;
#43 = PERSON_AND_ORGANIZATION_ROLE ( 'creator' ) ;
#44 = COORDINATED_UNIVERSAL_TIME_OFFSET ( 1, 0, .AHEAD. ) ;
#45 = APPLICATION_PROTOCOL_DEFINITION ( 'international standard', 'config_control_design', 1994, #122 ) ;
#46 = CC_DESIGN_PERSON_AND_ORGANIZATION_ASSIGNMENT ( #116, #197, ( #23 ) ) ;
#47 =( NAMED_UNIT ( * ) PLANE_ANGLE_UNIT ( ) SI_UNIT ( $, .RADIAN. ) );
#48 = CARTESIAN_POINT ( 'NONE',  ( -20.00000000000000000, 0.000000000000000000, -3.673940397442063911E-15 ) ) ;
#49 = PRODUCT ( '3D_R1651_13.5x2.3_17352130', '3D_R1651_13.5x2.3_17352130', '', ( #217 ) ) ;
#50 = EDGE_LOOP ( 'NONE', ( #225, #71 ) ) ;
#51 = ORIENTED_EDGE ( 'NONE', *, *, #186, .F. ) ;
#52 = AXIS2_PLACEMENT_3D ( 'NONE', #125, #232, #19 ) ;
#53 = ORIENTED_EDGE ( 'NONE', *, *, #159, .T. ) ;
#54 = CC_DESIGN_PERSON_AND_ORGANIZATION_ASSIGNMENT ( #178, #136, ( #49 ) ) ;
#55 = ORIENTED_EDGE ( 'NONE', *, *, #85, .T. ) ;
#56 = CC_DESIGN_SECURITY_CLASSIFICATION ( #112, ( #166 ) ) ;
#57 = FACE_OUTER_BOUND ( 'NONE', #244, .T. ) ;
#58 = DIRECTION ( 'NONE',  ( -2.259334488757228089E-16, 0.000000000000000000, 1.000000000000000000 ) ) ;
#59 = CARTESIAN_POINT ( 'NONE',  ( -5.972319578071406330E-14, 0.000000000000000000, -20.00000000000000000 ) ) ;
#60 = DIRECTION ( 'NONE',  ( 0.000000000000000000, 1.000000000000000000, 0.000000000000000000 ) ) ;
#61 = DIRECTION ( 'NONE',  ( 2.943923360032083078E-15, 0.000000000000000000, 1.000000000000000000 ) ) ;
#62 = AXIS2_PLACEMENT_3D ( 'NONE', #229, #58, #208 ) ;
#63 = PERSON_AND_ORGANIZATION_ROLE ( 'classification_officer' ) ;
#64 = TOROIDAL_SURFACE ( 'NONE', #160, 20.00000000000000000, 4.449999999999999289 ) ;
#65 = CARTESIAN_POINT ( 'NONE',  ( -5.887846720064166157E-14, 0.000000000000000000, -20.00000000000000000 ) ) ;
#66 = PERSON_AND_ORGANIZATION ( #128, #5 ) ;
#67 =( LENGTH_UNIT ( ) NAMED_UNIT ( * ) SI_UNIT ( .MILLI., .METRE. ) );
#68 = APPROVAL_ROLE ( '' ) ;
#69 = DIRECTION ( 'NONE',  ( 1.000000000000000000, 0.000000000000000000, 2.259334488757228089E-16 ) ) ;
#70 = APPROVAL ( #163, 'UNSPECIFIED' ) ;
#71 = ORIENTED_EDGE ( 'NONE', *, *, #247, .T. ) ;
#72 = AXIS2_PLACEMENT_3D ( 'NONE', #17, #211, #39 ) ;
#73 = ORIENTED_EDGE ( 'NONE', *, *, #194, .T. ) ;
#74 = FACE_OUTER_BOUND ( 'NONE', #240, .T. ) ;
#75 = CARTESIAN_POINT ( 'NONE',  ( 0.000000000000000000, 0.000000000000000000, 0.000000000000000000 ) ) ;
#76 = CARTESIAN_POINT ( 'NONE',  ( 0.000000000000000000, 0.000000000000000000, 0.000000000000000000 ) ) ;
#77 = DIRECTION ( 'NONE',  ( 0.000000000000000000, 1.000000000000000000, 0.000000000000000000 ) ) ;
#78 = EDGE_CURVE ( 'NONE', #185, #168, #180, .T. ) ;
#79 = SECURITY_CLASSIFICATION_LEVEL ( 'unclassified' ) ;
#80 = CLOSED_SHELL ( 'NONE', ( #150, #42, #35, #4, #183, #101 ) ) ;
#81 = CALENDAR_DATE ( 2024, 5, 8 ) ;
#82 =( NAMED_UNIT ( * ) SI_UNIT ( $, .STERADIAN. ) SOLID_ANGLE_UNIT ( ) );
#83 = CALENDAR_DATE ( 2024, 5, 8 ) ;
#84 = ORIENTED_EDGE ( 'NONE', *, *, #18, .T. ) ;
#85 = EDGE_CURVE ( 'NONE', #6, #10, #107, .T. ) ;
#86 = ORIENTED_EDGE ( 'NONE', *, *, #126, .T. ) ;
#87 = AXIS2_PLACEMENT_3D ( 'NONE', #36, #89, #213 ) ;
#88 = CARTESIAN_POINT ( 'NONE',  ( -15.55000000000000071, 0.000000000000000000, -3.513265130017489521E-15 ) ) ;
#89 = DIRECTION ( 'NONE',  ( -1.000000000000000000, 0.000000000000000000, 2.943923360032083078E-15 ) ) ;
#90 = CIRCLE ( 'NONE', #236, 6.749999999999999112 ) ;
#91 = CIRCLE ( 'NONE', #145, 4.449999999999999289 ) ;
#92 = CARTESIAN_POINT ( 'NONE',  ( 0.000000000000000000, 0.000000000000000000, 0.000000000000000000 ) ) ;
#93 = CARTESIAN_POINT ( 'NONE',  ( -13.25000000000000178, 0.000000000000000000, -2.148889617530934951E-15 ) ) ;
#94 = PRODUCT_RELATED_PRODUCT_CATEGORY ( 'detail', '', ( #49 ) ) ;
#95 = AXIS2_PLACEMENT_3D ( 'NONE', #21, #96, #140 ) ;
#96 = DIRECTION ( 'NONE',  ( 0.000000000000000000, 0.000000000000000000, 1.000000000000000000 ) ) ;
#97 = APPROVAL_ROLE ( '' ) ;
#98 = APPLICATION_CONTEXT ( 'configuration controlled 3d designs of mechanical parts and assemblies' ) ;
#99 = EDGE_CURVE ( 'NONE', #148, #185, #210, .T. ) ;
#100 = CARTESIAN_POINT ( 'NONE',  ( -3.985171310049749937E-14, 0.000000000000000000, -13.25000000000000178 ) ) ;
#101 = ADVANCED_FACE ( 'NONE', ( #74 ), #64, .F. ) ;
#102 = VERTEX_POINT ( 'NONE', #127 ) ;
#103 = VERTEX_POINT ( 'NONE', #187 ) ;
#104 = ORIENTED_EDGE ( 'NONE', *, *, #126, .F. ) ;
#105 = DIRECTION ( 'NONE',  ( 1.000000000000000000, 0.000000000000000000, 2.259334488757228582E-16 ) ) ;
#106 = CC_DESIGN_PERSON_AND_ORGANIZATION_ASSIGNMENT ( #215, #43, ( #166 ) ) ;
#107 = CIRCLE ( 'NONE', #72, 6.749999999999999112 ) ;
#108 = DIRECTION ( 'NONE',  ( 0.000000000000000000, 1.000000000000000000, 0.000000000000000000 ) ) ;
#109 = AXIS2_PLACEMENT_3D ( 'NONE', #129, #228, #250 ) ;
#110 = DIRECTION ( 'NONE',  ( 1.000000000000000000, 0.000000000000000000, 2.259334488757228582E-16 ) ) ;
#111 = DIRECTION ( 'NONE',  ( -2.259334488757228089E-16, 0.000000000000000000, 1.000000000000000000 ) ) ;
#112 = SECURITY_CLASSIFICATION ( '', '', #79 ) ;
#113 = COORDINATED_UNIVERSAL_TIME_OFFSET ( 1, 0, .AHEAD. ) ;
#114 = DATE_TIME_ROLE ( 'classification_date' ) ;
#115 = LOCAL_TIME ( 8, 45, 45.00000000000000000, #113 ) ;
#116 = PERSON_AND_ORGANIZATION ( #128, #5 ) ;
#117 = EDGE_CURVE ( 'NONE', #103, #168, #202, .T. ) ;
#118 = DIRECTION ( 'NONE',  ( -2.259334488757228089E-16, 0.000000000000000000, 1.000000000000000000 ) ) ;
#119 = TOROIDAL_SURFACE ( 'NONE', #109, 20.00000000000000000, 4.449999999999999289 ) ;
#120 = SHAPE_DEFINITION_REPRESENTATION ( #7, #222 ) ;
#121 = ORIENTED_EDGE ( 'NONE', *, *, #117, .F. ) ;
#122 = APPLICATION_CONTEXT ( 'configuration controlled 3d designs of mechanical parts and assemblies' ) ;
#123 = DESIGN_CONTEXT ( 'detailed design', #122, 'design' ) ;
#124 = ORIENTED_EDGE ( 'NONE', *, *, #78, .T. ) ;
#125 = CARTESIAN_POINT ( 'NONE',  ( 0.000000000000000000, 0.000000000000000000, 0.000000000000000000 ) ) ;
#126 = EDGE_CURVE ( 'NONE', #102, #170, #90, .T. ) ;
#127 = CARTESIAN_POINT ( 'NONE',  ( -26.75000000000000000, 0.000000000000000000, -5.198991177353192871E-15 ) ) ;
#128 = PERSON ( 'UNSPECIFIED', 'UNSPECIFIED', 'UNSPECIFIED', ('UNSPECIFIED'), ('UNSPECIFIED'), ('UNSPECIFIED') ) ;
#129 = CARTESIAN_POINT ( 'NONE',  ( 0.000000000000000000, 0.000000000000000000, 0.000000000000000000 ) ) ;
#130 = AXIS2_PLACEMENT_3D ( 'NONE', #175, #151, #131 ) ;
#131 = DIRECTION ( 'NONE',  ( 0.000000000000000000, 0.000000000000000000, 1.000000000000000000 ) ) ;
#132 = CARTESIAN_POINT ( 'NONE',  ( -24.44999999999999929, 0.000000000000000000, -5.524072825011422836E-15 ) ) ;
#133 =( GEOMETRIC_REPRESENTATION_CONTEXT ( 3 ) GLOBAL_UNCERTAINTY_ASSIGNED_CONTEXT ( ( #149 ) ) GLOBAL_UNIT_ASSIGNED_CONTEXT ( ( #67, #47, #82 ) ) REPRESENTATION_CONTEXT ( 'NONE', 'WORKASPACE' ) );
#134 = APPLICATION_PROTOCOL_DEFINITION ( 'international standard', 'config_control_design', 1994, #98 ) ;
#135 = AXIS2_PLACEMENT_3D ( 'NONE', #209, #111, #245 ) ;
#136 = PERSON_AND_ORGANIZATION_ROLE ( 'design_owner' ) ;
#137 = APPROVAL ( #24, 'UNSPECIFIED' ) ;
#138 = COORDINATED_UNIVERSAL_TIME_OFFSET ( 1, 0, .AHEAD. ) ;
#139 = LOCAL_TIME ( 8, 45, 45.00000000000000000, #195 ) ;
#140 = DIRECTION ( 'NONE',  ( 1.000000000000000000, 0.000000000000000000, 0.000000000000000000 ) ) ;
#141 = CC_DESIGN_DATE_AND_TIME_ASSIGNMENT ( #219, #157, ( #23 ) ) ;
#142 = CARTESIAN_POINT ( 'NONE',  ( -5.972319578071406330E-14, 0.000000000000000000, -20.00000000000000000 ) ) ;
#143 = AXIS2_PLACEMENT_3D ( 'NONE', #142, #174, #61 ) ;
#144 = ORIENTED_EDGE ( 'NONE', *, *, #201, .F. ) ;
#145 = AXIS2_PLACEMENT_3D ( 'NONE', #40, #12, #105 ) ;
#146 = ORIENTED_EDGE ( 'NONE', *, *, #85, .F. ) ;
#147 = DATE_AND_TIME ( #8, #115 ) ;
#148 = VERTEX_POINT ( 'NONE', #191 ) ;
#149 = UNCERTAINTY_MEASURE_WITH_UNIT (LENGTH_MEASURE( 1.000000000000000082E-05 ), #67, 'distance_accuracy_value', 'NONE');
#150 = ADVANCED_FACE ( 'NONE', ( #188 ), #119, .F. ) ;
#151 = DIRECTION ( 'NONE',  ( 0.000000000000000000, 1.000000000000000000, 0.000000000000000000 ) ) ;
#152 = APPROVAL_PERSON_ORGANIZATION ( #158, #70, #192 ) ;
#153 = DIRECTION ( 'NONE',  ( 0.000000000000000000, 0.000000000000000000, 1.000000000000000000 ) ) ;
#154 = FACE_BOUND ( 'NONE', #50, .T. ) ;
#155 = CARTESIAN_POINT ( 'NONE',  ( 0.000000000000000000, 0.000000000000000000, 0.000000000000000000 ) ) ;
#156 = DIRECTION ( 'NONE',  ( 0.000000000000000000, 0.000000000000000000, 1.000000000000000000 ) ) ;
#157 = DATE_TIME_ROLE ( 'creation_date' ) ;
#158 = PERSON_AND_ORGANIZATION ( #128, #5 ) ;
#159 = EDGE_CURVE ( 'NONE', #6, #102, #25, .T. ) ;
#160 = AXIS2_PLACEMENT_3D ( 'NONE', #92, #60, #16 ) ;
#161 = PERSON_AND_ORGANIZATION ( #128, #5 ) ;
#162 = AXIS2_PLACEMENT_3D ( 'NONE', #172, #248, #153 ) ;
#163 = APPROVAL_STATUS ( 'not_yet_approved' ) ;
#164 = CC_DESIGN_PERSON_AND_ORGANIZATION_ASSIGNMENT ( #66, #63, ( #112 ) ) ;
#165 = APPROVAL_STATUS ( 'not_yet_approved' ) ;
#166 = PRODUCT_DEFINITION_FORMATION_WITH_SPECIFIED_SOURCE ( 'ANY', '', #49, .NOT_KNOWN. ) ;
#167 = ORIENTED_EDGE ( 'NONE', *, *, #224, .F. ) ;
#168 = VERTEX_POINT ( 'NONE', #88 ) ;
#169 = APPROVAL_DATE_TIME ( #147, #137 ) ;
#170 = VERTEX_POINT ( 'NONE', #93 ) ;
#171 = FACE_OUTER_BOUND ( 'NONE', #31, .T. ) ;
#172 = CARTESIAN_POINT ( 'NONE',  ( 0.000000000000000000, -8.266365894244633347E-16, 0.000000000000000000 ) ) ;
#173 = AXIS2_PLACEMENT_3D ( 'NONE', #76, #190, #249 ) ;
#174 = DIRECTION ( 'NONE',  ( -1.000000000000000000, 0.000000000000000000, 2.943923360032083078E-15 ) ) ;
#175 = CARTESIAN_POINT ( 'NONE',  ( 0.000000000000000000, -5.449678256205720798E-16, 0.000000000000000000 ) ) ;
#176 = FACE_OUTER_BOUND ( 'NONE', #9, .T. ) ;
#177 = APPROVAL_PERSON_ORGANIZATION ( #196, #137, #97 ) ;
#178 = PERSON_AND_ORGANIZATION ( #128, #5 ) ;
#179 = DATE_AND_TIME ( #22, #189 ) ;
#180 = CIRCLE ( 'NONE', #135, 4.449999999999999289 ) ;
#181 = CC_DESIGN_PERSON_AND_ORGANIZATION_ASSIGNMENT ( #161, #237, ( #166 ) ) ;
#182 = ORIENTED_EDGE ( 'NONE', *, *, #224, .T. ) ;
#183 = ADVANCED_FACE ( 'NONE', ( #154, #176 ), #251, .F. ) ;
#184 = ORIENTED_EDGE ( 'NONE', *, *, #194, .F. ) ;
#185 = VERTEX_POINT ( 'NONE', #132 ) ;
#186 = EDGE_CURVE ( 'NONE', #103, #148, #198, .T. ) ;
#187 = CARTESIAN_POINT ( 'NONE',  ( -4.577800824849889124E-14, 0.000000000000000000, -15.55000000000000071 ) ) ;
#188 = FACE_OUTER_BOUND ( 'NONE', #11, .T. ) ;
#189 = LOCAL_TIME ( 8, 45, 45.00000000000000000, #138 ) ;
#190 = DIRECTION ( 'NONE',  ( 0.000000000000000000, 1.000000000000000000, 0.000000000000000000 ) ) ;
#191 = CARTESIAN_POINT ( 'NONE',  ( -7.197892615278442559E-14, 0.000000000000000000, -24.44999999999999929 ) ) ;
#192 = APPROVAL_ROLE ( '' ) ;
#193 = APPROVAL_PERSON_ORGANIZATION ( #216, #26, #68 ) ;
#194 = EDGE_CURVE ( 'NONE', #168, #185, #91, .T. ) ;
#195 = COORDINATED_UNIVERSAL_TIME_OFFSET ( 1, 0, .AHEAD. ) ;
#196 = PERSON_AND_ORGANIZATION ( #128, #5 ) ;
#197 = PERSON_AND_ORGANIZATION_ROLE ( 'creator' ) ;
#198 = CIRCLE ( 'NONE', #87, 4.449999999999999289 ) ;
#199 = CIRCLE ( 'NONE', #13, 4.449999999999999289 ) ;
#200 = CARTESIAN_POINT ( 'NONE',  ( -7.959467846093062723E-14, 0.000000000000000000, -26.75000000000000000 ) ) ;
#201 = EDGE_CURVE ( 'NONE', #10, #170, #238, .T. ) ;
#202 = CIRCLE ( 'NONE', #130, 15.55000000000000071 ) ;
#203 = MANIFOLD_SOLID_BREP ( 'Wandung1', #80 ) ;
#204 = EDGE_LOOP ( 'NONE', ( #182, #86 ) ) ;
#205 = ORIENTED_EDGE ( 'NONE', *, *, #99, .F. ) ;
#206 = FACE_BOUND ( 'NONE', #32, .T. ) ;
#207 = DIRECTION ( 'NONE',  ( -1.000000000000000000, 0.000000000000000000, 2.943923360032083078E-15 ) ) ;
#208 = DIRECTION ( 'NONE',  ( 1.000000000000000000, 0.000000000000000000, 2.259334488757228582E-16 ) ) ;
#209 = CARTESIAN_POINT ( 'NONE',  ( -20.00000000000000000, 0.000000000000000000, -4.518668977514456179E-15 ) ) ;
#210 = CIRCLE ( 'NONE', #243, 24.44999999999999929 ) ;
#211 = DIRECTION ( 'NONE',  ( -1.000000000000000000, 0.000000000000000000, 2.943923360032083078E-15 ) ) ;
#212 = AXIS2_PLACEMENT_3D ( 'NONE', #59, #207, #233 ) ;
#213 = DIRECTION ( 'NONE',  ( 2.943923360032083473E-15, 0.000000000000000000, 1.000000000000000000 ) ) ;
#214 = CALENDAR_DATE ( 2024, 5, 8 ) ;
#215 = PERSON_AND_ORGANIZATION ( #128, #5 ) ;
#216 = PERSON_AND_ORGANIZATION ( #128, #5 ) ;
#217 = MECHANICAL_CONTEXT ( 'NONE', #98, 'mechanical' ) ;
#218 = LOCAL_TIME ( 8, 45, 45.00000000000000000, #253 ) ;
#219 = DATE_AND_TIME ( #83, #218 ) ;
#220 = ORIENTED_EDGE ( 'NONE', *, *, #99, .T. ) ;
#221 = PLANE ( 'NONE',  #2 ) ;
#222 = ADVANCED_BREP_SHAPE_REPRESENTATION ( '3D_R1651_13.5x2.3_17352130', ( #203, #95 ), #133 ) ;
#223 = ORIENTED_EDGE ( 'NONE', *, *, #117, .T. ) ;
#224 = EDGE_CURVE ( 'NONE', #170, #102, #226, .T. ) ;
#225 = ORIENTED_EDGE ( 'NONE', *, *, #186, .T. ) ;
#226 = CIRCLE ( 'NONE', #62, 6.749999999999999112 ) ;
#227 = ORIENTED_EDGE ( 'NONE', *, *, #78, .F. ) ;
#228 = DIRECTION ( 'NONE',  ( 0.000000000000000000, 1.000000000000000000, 0.000000000000000000 ) ) ;
#229 = CARTESIAN_POINT ( 'NONE',  ( -20.00000000000000000, 0.000000000000000000, -3.673940397442063911E-15 ) ) ;
#230 = CC_DESIGN_DATE_AND_TIME_ASSIGNMENT ( #41, #114, ( #112 ) ) ;
#231 = DIRECTION ( 'NONE',  ( -2.259334488757228089E-16, 0.000000000000000000, 1.000000000000000000 ) ) ;
#232 = DIRECTION ( 'NONE',  ( 0.000000000000000000, 1.000000000000000000, 0.000000000000000000 ) ) ;
#233 = DIRECTION ( 'NONE',  ( 2.943923360032083078E-15, 0.000000000000000000, 1.000000000000000000 ) ) ;
#234 = DIRECTION ( 'NONE',  ( -1.000000000000000000, 0.000000000000000000, 2.943923360032083078E-15 ) ) ;
#235 = APPROVAL_DATE_TIME ( #179, #70 ) ;
#236 = AXIS2_PLACEMENT_3D ( 'NONE', #37, #231, #110 ) ;
#237 = PERSON_AND_ORGANIZATION_ROLE ( 'design_supplier' ) ;
#238 = CIRCLE ( 'NONE', #162, 13.25000000000000178 ) ;
#239 = CC_DESIGN_APPROVAL ( #137, ( #112 ) ) ;
#240 = EDGE_LOOP ( 'NONE', ( #205, #51, #223, #73 ) ) ;
#241 = ORIENTED_EDGE ( 'NONE', *, *, #201, .T. ) ;
#242 = ORIENTED_EDGE ( 'NONE', *, *, #247, .F. ) ;
#243 = AXIS2_PLACEMENT_3D ( 'NONE', #75, #77, #156 ) ;
#244 = EDGE_LOOP ( 'NONE', ( #30, #55, #241, #104 ) ) ;
#245 = DIRECTION ( 'NONE',  ( 1.000000000000000000, 0.000000000000000000, 2.259334488757228582E-16 ) ) ;
#246 = AXIS2_PLACEMENT_3D ( 'NONE', #155, #108, #14 ) ;
#247 = EDGE_CURVE ( 'NONE', #148, #103, #199, .T. ) ;
#248 = DIRECTION ( 'NONE',  ( 0.000000000000000000, 1.000000000000000000, 0.000000000000000000 ) ) ;
#249 = DIRECTION ( 'NONE',  ( 0.000000000000000000, 0.000000000000000000, 1.000000000000000000 ) ) ;
#250 = DIRECTION ( 'NONE',  ( 0.000000000000000000, 0.000000000000000000, 1.000000000000000000 ) ) ;
#251 = PLANE ( 'NONE',  #212 ) ;
#252 = APPROVAL_DATE_TIME ( #1, #26 ) ;
#253 = COORDINATED_UNIVERSAL_TIME_OFFSET ( 1, 0, .AHEAD. ) ;
ENDSEC;
END-ISO-10303-21;
