ISO-10303-21;
HEADER;
/* Generated by software containing ST-Developer
 * from STEP Tools, Inc. (www.steptools.com) 
 */
/* OPTION: using custom renumber hook */

FILE_DESCRIPTION(
/* description */ ('STEP AP203'),
/* implementation_level */ '2;1');

FILE_NAME(
/* name */ '07300025CH',
/* time_stamp */ '2024-03-19T17:25:44+01:00',
/* author */ ('License CC BY-ND 4.0'),
/* organization */ ('CADENAS'),
/* preprocessor_version */ 'ST-DEVELOPER v19.3',
/* originating_system */ 'PARTsolutions',
/* authorisation */ '  ');

FILE_SCHEMA (('CONFIG_CONTROL_DESIGN'));
ENDSEC;

DATA;
#10=PROPERTY_DEFINITION_REPRESENTATION(#14,#12);
#11=PROPERTY_DEFINITION_REPRESENTATION(#15,#13);
#12=REPRESENTATION('',(#16),#544);
#13=REPRESENTATION('',(#17),#544);
#14=PROPERTY_DEFINITION('pmi validation property','',#549);
#15=PROPERTY_DEFINITION('pmi validation property','',#549);
#16=VALUE_REPRESENTATION_ITEM('number of annotations',COUNT_MEASURE(0.));
#17=VALUE_REPRESENTATION_ITEM('number of views',COUNT_MEASURE(0.));
#18=SHAPE_REPRESENTATION_RELATIONSHIP('','',#275,#19);
#19=ADVANCED_BREP_SHAPE_REPRESENTATION('',(#273),#544);
#20=ELLIPSE('',#294,20.5060966544099,14.5);
#21=PLANE('',#282);
#22=PLANE('',#286);
#23=PLANE('',#287);
#24=PLANE('',#291);
#25=PLANE('',#293);
#26=PLANE('',#295);
#27=PLANE('',#299);
#28=PLANE('',#303);
#29=PLANE('',#311);
#30=PLANE('',#312);
#31=PLANE('',#315);
#32=PLANE('',#318);
#33=CIRCLE('',#278,14.5);
#34=CIRCLE('',#280,15.);
#35=CIRCLE('',#281,15.);
#36=CIRCLE('',#284,17.5);
#37=CIRCLE('',#285,17.5);
#38=CIRCLE('',#289,21.5);
#39=CIRCLE('',#290,21.5);
#40=CIRCLE('',#292,17.5);
#41=CIRCLE('',#296,17.5);
#42=CIRCLE('',#298,17.5);
#43=CIRCLE('',#300,15.);
#44=CIRCLE('',#302,15.);
#45=CIRCLE('',#304,14.5);
#46=CIRCLE('',#307,17.5);
#47=CIRCLE('',#309,35.);
#48=CIRCLE('',#310,35.);
#49=CIRCLE('',#314,9.);
#50=CIRCLE('',#317,9.);
#51=ORIENTED_EDGE('',*,*,#95,.T.);
#52=ORIENTED_EDGE('',*,*,#96,.F.);
#53=ORIENTED_EDGE('',*,*,#97,.F.);
#54=ORIENTED_EDGE('',*,*,#98,.F.);
#55=ORIENTED_EDGE('',*,*,#99,.T.);
#56=ORIENTED_EDGE('',*,*,#96,.T.);
#57=ORIENTED_EDGE('',*,*,#99,.F.);
#58=ORIENTED_EDGE('',*,*,#100,.F.);
#59=ORIENTED_EDGE('',*,*,#101,.T.);
#60=ORIENTED_EDGE('',*,*,#100,.T.);
#61=ORIENTED_EDGE('',*,*,#98,.T.);
#62=ORIENTED_EDGE('',*,*,#101,.F.);
#63=ORIENTED_EDGE('',*,*,#102,.T.);
#64=ORIENTED_EDGE('',*,*,#103,.F.);
#65=ORIENTED_EDGE('',*,*,#97,.T.);
#66=ORIENTED_EDGE('',*,*,#104,.F.);
#67=ORIENTED_EDGE('',*,*,#103,.T.);
#68=ORIENTED_EDGE('',*,*,#105,.T.);
#69=ORIENTED_EDGE('',*,*,#102,.F.);
#70=ORIENTED_EDGE('',*,*,#106,.F.);
#71=ORIENTED_EDGE('',*,*,#106,.T.);
#72=ORIENTED_EDGE('',*,*,#107,.F.);
#73=ORIENTED_EDGE('',*,*,#108,.F.);
#74=ORIENTED_EDGE('',*,*,#107,.T.);
#75=ORIENTED_EDGE('',*,*,#108,.T.);
#76=ORIENTED_EDGE('',*,*,#109,.F.);
#77=ORIENTED_EDGE('',*,*,#110,.F.);
#78=ORIENTED_EDGE('',*,*,#109,.T.);
#79=ORIENTED_EDGE('',*,*,#111,.T.);
#80=ORIENTED_EDGE('',*,*,#110,.T.);
#81=ORIENTED_EDGE('',*,*,#105,.F.);
#82=ORIENTED_EDGE('',*,*,#112,.F.);
#83=ORIENTED_EDGE('',*,*,#104,.T.);
#84=ORIENTED_EDGE('',*,*,#113,.F.);
#85=ORIENTED_EDGE('',*,*,#114,.T.);
#86=ORIENTED_EDGE('',*,*,#113,.T.);
#87=ORIENTED_EDGE('',*,*,#112,.T.);
#88=ORIENTED_EDGE('',*,*,#114,.F.);
#89=ORIENTED_EDGE('',*,*,#115,.T.);
#90=ORIENTED_EDGE('',*,*,#95,.F.);
#91=ORIENTED_EDGE('',*,*,#115,.F.);
#92=ORIENTED_EDGE('',*,*,#116,.T.);
#93=ORIENTED_EDGE('',*,*,#111,.F.);
#94=ORIENTED_EDGE('',*,*,#116,.F.);
#95=EDGE_CURVE('',#117,#117,#139,.T.);
#96=EDGE_CURVE('',#118,#118,#33,.T.);
#97=EDGE_CURVE('',#119,#119,#140,.T.);
#98=EDGE_CURVE('',#120,#120,#34,.T.);
#99=EDGE_CURVE('',#121,#121,#35,.T.);
#100=EDGE_CURVE('',#122,#122,#36,.T.);
#101=EDGE_CURVE('',#123,#123,#37,.T.);
#102=EDGE_CURVE('',#124,#124,#38,.T.);
#103=EDGE_CURVE('',#125,#125,#39,.T.);
#104=EDGE_CURVE('',#126,#126,#40,.T.);
#105=EDGE_CURVE('',#127,#127,#20,.T.);
#106=EDGE_CURVE('',#128,#128,#41,.T.);
#107=EDGE_CURVE('',#129,#129,#42,.T.);
#108=EDGE_CURVE('',#130,#130,#43,.T.);
#109=EDGE_CURVE('',#131,#131,#44,.T.);
#110=EDGE_CURVE('',#132,#132,#45,.T.);
#111=EDGE_CURVE('',#133,#133,#141,.T.);
#112=EDGE_CURVE('',#134,#134,#46,.T.);
#113=EDGE_CURVE('',#135,#135,#47,.T.);
#114=EDGE_CURVE('',#136,#136,#48,.T.);
#115=EDGE_CURVE('',#137,#137,#49,.T.);
#116=EDGE_CURVE('',#138,#138,#50,.T.);
#117=VERTEX_POINT('',#427);
#118=VERTEX_POINT('',#429);
#119=VERTEX_POINT('',#462);
#120=VERTEX_POINT('',#465);
#121=VERTEX_POINT('',#467);
#122=VERTEX_POINT('',#471);
#123=VERTEX_POINT('',#473);
#124=VERTEX_POINT('',#478);
#125=VERTEX_POINT('',#480);
#126=VERTEX_POINT('',#483);
#127=VERTEX_POINT('',#486);
#128=VERTEX_POINT('',#489);
#129=VERTEX_POINT('',#492);
#130=VERTEX_POINT('',#495);
#131=VERTEX_POINT('',#498);
#132=VERTEX_POINT('',#501);
#133=VERTEX_POINT('',#524);
#134=VERTEX_POINT('',#527);
#135=VERTEX_POINT('',#530);
#136=VERTEX_POINT('',#532);
#137=VERTEX_POINT('',#537);
#138=VERTEX_POINT('',#541);
#139=B_SPLINE_CURVE_WITH_KNOTS('',3,(#407,#408,#409,#410,#411,#412,#413,
#414,#415,#416,#417,#418,#419,#420,#421,#422,#423,#424,#425,#426),
 .UNSPECIFIED.,.T.,.F.,(1,1,1,1,1,1,1,1,1,1,1,1,1,1,1,1,1,1,1,1,1,1,1,1),
(-0.00722089967746518,-0.00361044983873259,-0.00180522491936629,0.,0.00361044983873259,
0.00722089967746517,0.0108313495161978,0.0144417993549303,0.0180522491936629,
0.0216626990323955,0.0252731488711281,0.0288835987098607,0.0324940485485933,
0.0361044983873259,0.0397149482260585,0.043325398064791,0.0469358479035236,
0.0505462977422562,0.0541567475809888,0.0559619725003551,0.0577671974197214,
0.061377647258454,0.0649880970971866,0.0685985469359192),.UNSPECIFIED.);
#140=B_SPLINE_CURVE_WITH_KNOTS('',3,(#430,#431,#432,#433,#434,#435,#436,
#437,#438,#439,#440,#441,#442,#443,#444,#445,#446,#447,#448,#449,#450,#451,
#452,#453,#454,#455,#456,#457,#458,#459,#460,#461),.UNSPECIFIED.,.T.,.F.,
(1,1,1,1,1,1,1,1,1,1,1,1,1,1,1,1,1,1,1,1,1,1,1,1,1,1,1,1,1,1,1,1,1,1,1,
1),(-0.00717122273103077,-0.00358561136551538,-0.00179280568275769,0.,0.00358561136551538,
0.00717122273103077,0.0107568340965462,0.0143424454620615,0.0179280568275769,
0.0215136681930923,0.0286848909241231,0.0322705022896385,0.0358561136551538,
0.0394417250206692,0.0430273363861846,0.0466129477517,0.0501985591172154,
0.0573697818482462,0.0645410045792769,0.0681266159447923,0.0717122273103077,
0.0752978386758231,0.0788834500413385,0.0824690614068539,0.0860546727723692,
0.0932258955034,0.0968115068689154,0.100397118234431,0.103982729599946,
0.107568340965462,0.111153952330977,0.112946758013735,0.114739563696492,
0.118325175062008,0.121910786427523,0.125496397793038),.UNSPECIFIED.);
#141=B_SPLINE_CURVE_WITH_KNOTS('',3,(#503,#504,#505,#506,#507,#508,#509,
#510,#511,#512,#513,#514,#515,#516,#517,#518,#519,#520,#521,#522,#523),
 .UNSPECIFIED.,.T.,.F.,(1,1,1,1,1,1,1,1,1,1,1,1,1,1,1,1,1,1,1,1,1,1,1,1,
1),(-0.00541974020200055,-0.00361316013466704,-0.00180658006733352,0.,0.00361316013466704,
0.00722632026933407,0.0108394804040011,0.0144526405386681,0.0180658006733352,
0.0216789608080022,0.0252921209426693,0.0289052810773363,0.0325184412120033,
0.0361316013466704,0.0397447614813374,0.0433579216160044,0.0469710817506715,
0.0505842418853385,0.052390821952672,0.0541974020200056,0.0560039820873391,
0.0578105621546726,0.0614237222893396,0.0650368824240067,0.0686500425586737),
 .UNSPECIFIED.);
#142=EDGE_LOOP('',(#51));
#143=EDGE_LOOP('',(#52));
#144=EDGE_LOOP('',(#53));
#145=EDGE_LOOP('',(#54));
#146=EDGE_LOOP('',(#55));
#147=EDGE_LOOP('',(#56));
#148=EDGE_LOOP('',(#57));
#149=EDGE_LOOP('',(#58));
#150=EDGE_LOOP('',(#59));
#151=EDGE_LOOP('',(#60));
#152=EDGE_LOOP('',(#61));
#153=EDGE_LOOP('',(#62));
#154=EDGE_LOOP('',(#63));
#155=EDGE_LOOP('',(#64));
#156=EDGE_LOOP('',(#65));
#157=EDGE_LOOP('',(#66));
#158=EDGE_LOOP('',(#67));
#159=EDGE_LOOP('',(#68));
#160=EDGE_LOOP('',(#69));
#161=EDGE_LOOP('',(#70));
#162=EDGE_LOOP('',(#71));
#163=EDGE_LOOP('',(#72));
#164=EDGE_LOOP('',(#73));
#165=EDGE_LOOP('',(#74));
#166=EDGE_LOOP('',(#75));
#167=EDGE_LOOP('',(#76));
#168=EDGE_LOOP('',(#77));
#169=EDGE_LOOP('',(#78));
#170=EDGE_LOOP('',(#79));
#171=EDGE_LOOP('',(#80));
#172=EDGE_LOOP('',(#81));
#173=EDGE_LOOP('',(#82));
#174=EDGE_LOOP('',(#83));
#175=EDGE_LOOP('',(#84));
#176=EDGE_LOOP('',(#85));
#177=EDGE_LOOP('',(#86));
#178=EDGE_LOOP('',(#87));
#179=EDGE_LOOP('',(#88));
#180=EDGE_LOOP('',(#89));
#181=EDGE_LOOP('',(#90));
#182=EDGE_LOOP('',(#91));
#183=EDGE_LOOP('',(#92));
#184=EDGE_LOOP('',(#93));
#185=EDGE_LOOP('',(#94));
#186=FACE_BOUND('',#142,.T.);
#187=FACE_BOUND('',#143,.T.);
#188=FACE_BOUND('',#144,.T.);
#189=FACE_BOUND('',#145,.T.);
#190=FACE_BOUND('',#146,.T.);
#191=FACE_BOUND('',#147,.T.);
#192=FACE_BOUND('',#148,.T.);
#193=FACE_BOUND('',#149,.T.);
#194=FACE_BOUND('',#150,.T.);
#195=FACE_BOUND('',#151,.T.);
#196=FACE_BOUND('',#152,.T.);
#197=FACE_BOUND('',#153,.T.);
#198=FACE_BOUND('',#154,.T.);
#199=FACE_BOUND('',#155,.T.);
#200=FACE_BOUND('',#156,.T.);
#201=FACE_BOUND('',#157,.T.);
#202=FACE_BOUND('',#158,.T.);
#203=FACE_BOUND('',#159,.T.);
#204=FACE_BOUND('',#160,.T.);
#205=FACE_BOUND('',#161,.T.);
#206=FACE_BOUND('',#162,.T.);
#207=FACE_BOUND('',#163,.T.);
#208=FACE_BOUND('',#164,.T.);
#209=FACE_BOUND('',#165,.T.);
#210=FACE_BOUND('',#166,.T.);
#211=FACE_BOUND('',#167,.T.);
#212=FACE_BOUND('',#168,.T.);
#213=FACE_BOUND('',#169,.T.);
#214=FACE_BOUND('',#170,.T.);
#215=FACE_BOUND('',#171,.T.);
#216=FACE_BOUND('',#172,.T.);
#217=FACE_BOUND('',#173,.T.);
#218=FACE_BOUND('',#174,.T.);
#219=FACE_BOUND('',#175,.T.);
#220=FACE_BOUND('',#176,.T.);
#221=FACE_BOUND('',#177,.T.);
#222=FACE_BOUND('',#178,.T.);
#223=FACE_BOUND('',#179,.T.);
#224=FACE_BOUND('',#180,.T.);
#225=FACE_BOUND('',#181,.T.);
#226=FACE_BOUND('',#182,.T.);
#227=FACE_BOUND('',#183,.T.);
#228=FACE_BOUND('',#184,.T.);
#229=FACE_BOUND('',#185,.T.);
#230=CYLINDRICAL_SURFACE('',#277,14.5);
#231=CYLINDRICAL_SURFACE('',#279,15.);
#232=CYLINDRICAL_SURFACE('',#283,17.5);
#233=CYLINDRICAL_SURFACE('',#288,21.5);
#234=CYLINDRICAL_SURFACE('',#297,17.5);
#235=CYLINDRICAL_SURFACE('',#301,15.);
#236=CYLINDRICAL_SURFACE('',#305,14.5);
#237=CYLINDRICAL_SURFACE('',#306,17.5);
#238=CYLINDRICAL_SURFACE('',#308,35.);
#239=CYLINDRICAL_SURFACE('',#313,9.);
#240=CYLINDRICAL_SURFACE('',#316,9.);
#241=ADVANCED_FACE('',(#186,#187,#188),#230,.T.);
#242=ADVANCED_FACE('',(#189,#190),#231,.T.);
#243=ADVANCED_FACE('',(#191,#192),#21,.F.);
#244=ADVANCED_FACE('',(#193,#194),#232,.T.);
#245=ADVANCED_FACE('',(#195),#22,.T.);
#246=ADVANCED_FACE('',(#196,#197),#23,.F.);
#247=ADVANCED_FACE('',(#198,#199,#200),#233,.T.);
#248=ADVANCED_FACE('',(#201,#202),#24,.T.);
#249=ADVANCED_FACE('',(#203,#204),#25,.F.);
#250=ADVANCED_FACE('',(#205),#26,.F.);
#251=ADVANCED_FACE('',(#206,#207),#234,.T.);
#252=ADVANCED_FACE('',(#208,#209),#27,.T.);
#253=ADVANCED_FACE('',(#210,#211),#235,.T.);
#254=ADVANCED_FACE('',(#212,#213),#28,.T.);
#255=ADVANCED_FACE('',(#214,#215,#216),#236,.T.);
#256=ADVANCED_FACE('',(#217,#218),#237,.T.);
#257=ADVANCED_FACE('',(#219,#220),#238,.T.);
#258=ADVANCED_FACE('',(#221),#29,.T.);
#259=ADVANCED_FACE('',(#222,#223),#30,.F.);
#260=ADVANCED_FACE('',(#224,#225),#239,.T.);
#261=ADVANCED_FACE('',(#226),#31,.F.);
#262=ADVANCED_FACE('',(#227,#228),#240,.T.);
#263=ADVANCED_FACE('',(#229),#32,.F.);
#264=CLOSED_SHELL('',(#241,#242,#243,#244,#245,#246,#247,#248,#249,#250,
#251,#252,#253,#254,#255,#256,#257,#258,#259,#260,#261,#262,#263));
#265=STYLED_ITEM('',(#266),#273);
#266=PRESENTATION_STYLE_ASSIGNMENT((#267));
#267=SURFACE_STYLE_USAGE(.BOTH.,#268);
#268=SURFACE_SIDE_STYLE('',(#269));
#269=SURFACE_STYLE_FILL_AREA(#270);
#270=FILL_AREA_STYLE('',(#271));
#271=FILL_AREA_STYLE_COLOUR('',#272);
#272=COLOUR_RGB('',0.689999997615814,0.689999997615814,0.689999997615814);
#273=MANIFOLD_SOLID_BREP('07300025CH',#264);
#274=SHAPE_DEFINITION_REPRESENTATION(#549,#275);
#275=SHAPE_REPRESENTATION('07300025CH',(#276),#544);
#276=AXIS2_PLACEMENT_3D('',#405,#319,#320);
#277=AXIS2_PLACEMENT_3D('',#406,#321,#322);
#278=AXIS2_PLACEMENT_3D('',#428,#323,#324);
#279=AXIS2_PLACEMENT_3D('',#463,#325,#326);
#280=AXIS2_PLACEMENT_3D('',#464,#327,#328);
#281=AXIS2_PLACEMENT_3D('',#466,#329,#330);
#282=AXIS2_PLACEMENT_3D('',#468,#331,#332);
#283=AXIS2_PLACEMENT_3D('',#469,#333,#334);
#284=AXIS2_PLACEMENT_3D('',#470,#335,#336);
#285=AXIS2_PLACEMENT_3D('',#472,#337,#338);
#286=AXIS2_PLACEMENT_3D('',#474,#339,#340);
#287=AXIS2_PLACEMENT_3D('',#475,#341,#342);
#288=AXIS2_PLACEMENT_3D('',#476,#343,#344);
#289=AXIS2_PLACEMENT_3D('',#477,#345,#346);
#290=AXIS2_PLACEMENT_3D('',#479,#347,#348);
#291=AXIS2_PLACEMENT_3D('',#481,#349,#350);
#292=AXIS2_PLACEMENT_3D('',#482,#351,#352);
#293=AXIS2_PLACEMENT_3D('',#484,#353,#354);
#294=AXIS2_PLACEMENT_3D('',#485,#355,#356);
#295=AXIS2_PLACEMENT_3D('',#487,#357,#358);
#296=AXIS2_PLACEMENT_3D('',#488,#359,#360);
#297=AXIS2_PLACEMENT_3D('',#490,#361,#362);
#298=AXIS2_PLACEMENT_3D('',#491,#363,#364);
#299=AXIS2_PLACEMENT_3D('',#493,#365,#366);
#300=AXIS2_PLACEMENT_3D('',#494,#367,#368);
#301=AXIS2_PLACEMENT_3D('',#496,#369,#370);
#302=AXIS2_PLACEMENT_3D('',#497,#371,#372);
#303=AXIS2_PLACEMENT_3D('',#499,#373,#374);
#304=AXIS2_PLACEMENT_3D('',#500,#375,#376);
#305=AXIS2_PLACEMENT_3D('',#502,#377,#378);
#306=AXIS2_PLACEMENT_3D('',#525,#379,#380);
#307=AXIS2_PLACEMENT_3D('',#526,#381,#382);
#308=AXIS2_PLACEMENT_3D('',#528,#383,#384);
#309=AXIS2_PLACEMENT_3D('',#529,#385,#386);
#310=AXIS2_PLACEMENT_3D('',#531,#387,#388);
#311=AXIS2_PLACEMENT_3D('',#533,#389,#390);
#312=AXIS2_PLACEMENT_3D('',#534,#391,#392);
#313=AXIS2_PLACEMENT_3D('',#535,#393,#394);
#314=AXIS2_PLACEMENT_3D('',#536,#395,#396);
#315=AXIS2_PLACEMENT_3D('',#538,#397,#398);
#316=AXIS2_PLACEMENT_3D('',#539,#399,#400);
#317=AXIS2_PLACEMENT_3D('',#540,#401,#402);
#318=AXIS2_PLACEMENT_3D('',#542,#403,#404);
#319=DIRECTION('',(0.,0.,1.));
#320=DIRECTION('',(1.,0.,0.));
#321=DIRECTION('',(-1.,0.,0.));
#322=DIRECTION('',(0.,0.,1.));
#323=DIRECTION('',(1.,0.,0.));
#324=DIRECTION('',(0.,0.,-1.));
#325=DIRECTION('',(-1.,0.,0.));
#326=DIRECTION('',(0.,0.,1.));
#327=DIRECTION('',(1.,0.,0.));
#328=DIRECTION('',(0.,0.,-1.));
#329=DIRECTION('',(1.,0.,0.));
#330=DIRECTION('',(0.,0.,-1.));
#331=DIRECTION('',(1.,0.,0.));
#332=DIRECTION('',(0.,0.,-1.));
#333=DIRECTION('',(-1.,0.,0.));
#334=DIRECTION('',(0.,0.,1.));
#335=DIRECTION('',(1.,0.,0.));
#336=DIRECTION('',(0.,0.,-1.));
#337=DIRECTION('',(1.,0.,0.));
#338=DIRECTION('',(0.,0.,-1.));
#339=DIRECTION('',(1.,0.,0.));
#340=DIRECTION('',(0.,0.,-1.));
#341=DIRECTION('',(1.,0.,0.));
#342=DIRECTION('',(0.,0.,-1.));
#343=DIRECTION('',(-0.707106781186547,0.,-0.707106781186547));
#344=DIRECTION('',(-0.707106781186548,0.,0.707106781186548));
#345=DIRECTION('',(0.707106781186548,0.,0.707106781186548));
#346=DIRECTION('',(0.707106781186548,0.,-0.707106781186548));
#347=DIRECTION('',(0.707106781186548,0.,0.707106781186548));
#348=DIRECTION('',(0.707106781186548,0.,-0.707106781186548));
#349=DIRECTION('',(0.707106781186548,0.,0.707106781186548));
#350=DIRECTION('',(0.707106781186548,0.,-0.707106781186548));
#351=DIRECTION('',(0.707106781186548,0.,0.707106781186548));
#352=DIRECTION('',(0.707106781186548,0.,-0.707106781186548));
#353=DIRECTION('',(0.707106781186548,0.,0.707106781186548));
#354=DIRECTION('',(0.707106781186548,0.,-0.707106781186548));
#355=DIRECTION('',(0.707106781186548,0.,0.707106781186548));
#356=DIRECTION('',(-0.707106781186548,0.,0.707106781186548));
#357=DIRECTION('',(1.,0.,0.));
#358=DIRECTION('',(0.,0.,-1.));
#359=DIRECTION('',(1.,0.,0.));
#360=DIRECTION('',(0.,0.,-1.));
#361=DIRECTION('',(1.,0.,0.));
#362=DIRECTION('',(0.,0.,-1.));
#363=DIRECTION('',(1.,0.,0.));
#364=DIRECTION('',(0.,0.,-1.));
#365=DIRECTION('',(1.,0.,0.));
#366=DIRECTION('',(0.,0.,-1.));
#367=DIRECTION('',(1.,0.,0.));
#368=DIRECTION('',(0.,0.,-1.));
#369=DIRECTION('',(1.,0.,0.));
#370=DIRECTION('',(0.,0.,-1.));
#371=DIRECTION('',(1.,0.,0.));
#372=DIRECTION('',(0.,0.,-1.));
#373=DIRECTION('',(1.,0.,0.));
#374=DIRECTION('',(0.,0.,-1.));
#375=DIRECTION('',(1.,0.,0.));
#376=DIRECTION('',(0.,0.,-1.));
#377=DIRECTION('',(-1.,0.,0.));
#378=DIRECTION('',(0.,0.,1.));
#379=DIRECTION('',(-0.707106781186548,0.,-0.707106781186548));
#380=DIRECTION('',(-0.707106781186548,0.,0.707106781186548));
#381=DIRECTION('',(0.707106781186548,0.,0.707106781186548));
#382=DIRECTION('',(0.707106781186548,0.,-0.707106781186548));
#383=DIRECTION('',(-0.707106781186548,0.,-0.707106781186548));
#384=DIRECTION('',(-0.707106781186548,0.,0.707106781186548));
#385=DIRECTION('',(0.707106781186548,0.,0.707106781186548));
#386=DIRECTION('',(0.707106781186548,0.,-0.707106781186548));
#387=DIRECTION('',(0.707106781186548,0.,0.707106781186548));
#388=DIRECTION('',(0.707106781186548,0.,-0.707106781186548));
#389=DIRECTION('',(0.707106781186548,0.,0.707106781186548));
#390=DIRECTION('',(0.707106781186548,0.,-0.707106781186548));
#391=DIRECTION('',(0.707106781186548,0.,0.707106781186548));
#392=DIRECTION('',(0.707106781186548,0.,-0.707106781186548));
#393=DIRECTION('',(0.,1.,0.));
#394=DIRECTION('',(0.,0.,1.));
#395=DIRECTION('',(0.,1.,0.));
#396=DIRECTION('',(1.,0.,0.));
#397=DIRECTION('',(0.,1.,0.));
#398=DIRECTION('',(0.,0.,1.));
#399=DIRECTION('',(0.,0.,1.));
#400=DIRECTION('',(1.,0.,0.));
#401=DIRECTION('',(0.,0.,1.));
#402=DIRECTION('',(1.,0.,0.));
#403=DIRECTION('',(0.,0.,1.));
#404=DIRECTION('',(1.,0.,0.));
#405=CARTESIAN_POINT('',(0.,0.,0.));
#406=CARTESIAN_POINT('',(35.5,0.,0.));
#407=CARTESIAN_POINT('',(17.6637294607499,-11.4709569794393,8.87345539933859));
#408=CARTESIAN_POINT('',(20.1192642985282,-11.2653345566046,9.12644525183785));
#409=CARTESIAN_POINT('',(23.1079740094965,-11.7894591068932,8.4947157367664));
#410=CARTESIAN_POINT('',(25.9923121025601,-13.0379684751055,6.54059091427624));
#411=CARTESIAN_POINT('',(27.980511602605,-14.170068970343,3.65230432715311));
#412=CARTESIAN_POINT('',(28.7527709407398,-14.6608036837355,0.0439703884736096));
#413=CARTESIAN_POINT('',(28.0079294494198,-14.1864213530888,-3.60164723986502));
#414=CARTESIAN_POINT('',(26.0169128985676,-13.0516638851842,-6.51369324388049));
#415=CARTESIAN_POINT('',(23.1617099211217,-11.8059667085591,-8.47374605322927));
#416=CARTESIAN_POINT('',(19.5388140918463,-11.1565967415727,-9.25470106698381));
#417=CARTESIAN_POINT('',(15.9116595208704,-11.7809314663944,-8.50696569740077));
#418=CARTESIAN_POINT('',(13.0202439407678,-13.0316895227579,-6.55313545609298));
#419=CARTESIAN_POINT('',(11.0206327435131,-14.1691431521172,-3.66028135265958));
#420=CARTESIAN_POINT('',(10.246570483312,-14.6610895457537,-0.038084684479107));
#421=CARTESIAN_POINT('',(10.9934911353552,-14.1862467820674,3.60326980071183));
#422=CARTESIAN_POINT('',(12.9875074943065,-13.0465078322298,6.52383248733238));
#423=CARTESIAN_POINT('',(15.3893572384345,-12.0094725894887,8.15578931830296));
#424=CARTESIAN_POINT('',(17.6637294607499,-11.4709569794393,8.87345539933859));
#425=CARTESIAN_POINT('',(20.1192642985282,-11.2653345566046,9.12644525183785));
#426=CARTESIAN_POINT('',(23.1079740094965,-11.7894591068932,8.4947157367664));
#427=CARTESIAN_POINT('',(19.5,-11.3688170009021,9.));
#428=CARTESIAN_POINT('',(35.5,0.,0.));
#429=CARTESIAN_POINT('',(35.5,0.,-14.5));
#430=CARTESIAN_POINT('',(24.3058569445546,-1.80340178612357,14.4234520705088));
#431=CARTESIAN_POINT('',(24.6079014869646,0.604506092395914,14.5777990622582));
#432=CARTESIAN_POINT('',(23.8334757598692,3.57645409905465,14.1825480871323));
#433=CARTESIAN_POINT('',(21.7758909834409,6.38079100586899,13.1152993090439));
#434=CARTESIAN_POINT('',(19.2616982482863,8.57579574822776,11.7754053330659));
#435=CARTESIAN_POINT('',(16.5242854029395,10.3219942218382,10.2628013067627));
#436=CARTESIAN_POINT('',(13.697379864314,11.7194212461058,8.6267069364238));
#437=CARTESIAN_POINT('',(9.81999171501518,13.2179435108291,6.2370087451108));
#438=CARTESIAN_POINT('',(6.01130757103602,14.185738020446,3.60458619199364));
#439=CARTESIAN_POINT('',(2.39118032542671,14.5633122000768,0.47367190747467));
#440=CARTESIAN_POINT('',(-0.0634233642423023,14.4289680051753,-2.1572551481455));
#441=CARTESIAN_POINT('',(-2.06855249150475,13.7101502339602,-5.0671457857259));
#442=CARTESIAN_POINT('',(-3.42795526117941,12.2070771361361,-8.0791800505041));
#443=CARTESIAN_POINT('',(-4.14314851252432,9.90997692019656,-10.7848392555082));
#444=CARTESIAN_POINT('',(-4.53568099241376,5.99358916405431,-13.5848751995929));
#445=CARTESIAN_POINT('',(-4.55030927831023,0.00895638713187101,-15.1068910561799));
#446=CARTESIAN_POINT('',(-4.53543224734367,-5.96529348934325,-13.5944306445601));
#447=CARTESIAN_POINT('',(-4.1488862509789,-9.87846767909257,-10.8140583259734));
#448=CARTESIAN_POINT('',(-3.43675106567281,-12.1902870244614,-8.10516389590026));
#449=CARTESIAN_POINT('',(-2.08640825473401,-13.700278125369,-5.09684669219951));
#450=CARTESIAN_POINT('',(-0.0689574896665826,-14.4285301958952,-2.16352612428189));
#451=CARTESIAN_POINT('',(2.37076075474294,-14.5633622781987,0.453410768420513));
#452=CARTESIAN_POINT('',(5.99637411260916,-14.1898777137613,3.59469364862359));
#453=CARTESIAN_POINT('',(9.81260582694485,-13.2191105293722,6.23160332188758));
#454=CARTESIAN_POINT('',(13.6730363449944,-11.7303478851131,8.61231447264413));
#455=CARTESIAN_POINT('',(16.5268284305203,-10.3215067455732,10.2644052266142));
#456=CARTESIAN_POINT('',(19.2628655144818,-8.57416338226039,11.7760213480619));
#457=CARTESIAN_POINT('',(21.7816200008114,-6.37809462557796,13.1182598109499));
#458=CARTESIAN_POINT('',(23.4859478741699,-4.03782456773437,14.0024301548567));
#459=CARTESIAN_POINT('',(24.3058569445546,-1.80340178612357,14.4234520705088));
#460=CARTESIAN_POINT('',(24.6079014869646,0.604506092395914,14.5777990622582));
#461=CARTESIAN_POINT('',(23.8334757598692,3.57645409905465,14.1825480871323));
#462=CARTESIAN_POINT('',(24.4555915910215,0.,14.5));
#463=CARTESIAN_POINT('',(68.,0.,0.));
#464=CARTESIAN_POINT('',(68.,0.,0.));
#465=CARTESIAN_POINT('',(68.,0.,-15.));
#466=CARTESIAN_POINT('',(35.5,0.,0.));
#467=CARTESIAN_POINT('',(35.5,0.,-15.));
#468=CARTESIAN_POINT('',(35.5,0.,0.));
#469=CARTESIAN_POINT('',(73.,0.,0.));
#470=CARTESIAN_POINT('',(73.,0.,0.));
#471=CARTESIAN_POINT('',(73.,0.,-17.5));
#472=CARTESIAN_POINT('',(68.,0.,0.));
#473=CARTESIAN_POINT('',(68.,0.,-17.5));
#474=CARTESIAN_POINT('',(73.,0.,0.));
#475=CARTESIAN_POINT('',(68.,0.,0.));
#476=CARTESIAN_POINT('',(18.4408729652601,0.,38.8908729652601));
#477=CARTESIAN_POINT('',(-20.45,0.,0.));
#478=CARTESIAN_POINT('',(-5.24720420448923,0.,-15.2027957955108));
#479=CARTESIAN_POINT('',(18.4408729652601,0.,38.8908729652601));
#480=CARTESIAN_POINT('',(33.6436687607709,0.,23.6880771697493));
#481=CARTESIAN_POINT('',(18.4408729652601,0.,38.8908729652601));
#482=CARTESIAN_POINT('',(18.4408729652601,0.,38.8908729652601));
#483=CARTESIAN_POINT('',(30.8152416360247,0.,26.5165042944955));
#484=CARTESIAN_POINT('',(-20.45,0.,0.));
#485=CARTESIAN_POINT('',(-20.45,0.,0.));
#486=CARTESIAN_POINT('',(-34.95,0.,14.5));
#487=CARTESIAN_POINT('',(-73.,0.,0.));
#488=CARTESIAN_POINT('',(-73.,0.,0.));
#489=CARTESIAN_POINT('',(-73.,0.,-17.5));
#490=CARTESIAN_POINT('',(-73.,0.,0.));
#491=CARTESIAN_POINT('',(-68.,0.,0.));
#492=CARTESIAN_POINT('',(-68.,0.,-17.5));
#493=CARTESIAN_POINT('',(-68.,0.,0.));
#494=CARTESIAN_POINT('',(-68.,0.,0.));
#495=CARTESIAN_POINT('',(-68.,0.,-15.));
#496=CARTESIAN_POINT('',(-68.,0.,0.));
#497=CARTESIAN_POINT('',(-35.5,0.,0.));
#498=CARTESIAN_POINT('',(-35.5,0.,-15.));
#499=CARTESIAN_POINT('',(-35.5,0.,0.));
#500=CARTESIAN_POINT('',(-35.5,0.,0.));
#501=CARTESIAN_POINT('',(-35.5,0.,-14.5));
#502=CARTESIAN_POINT('',(35.5,0.,0.));
#503=CARTESIAN_POINT('',(-11.6289237202101,-1.84375849528804,-14.4193971891995));
#504=CARTESIAN_POINT('',(-11.3722568274689,0.622038271117786,-14.5804857588631));
#505=CARTESIAN_POINT('',(-12.005069951729,3.62044803638008,-14.1786422242349));
#506=CARTESIAN_POINT('',(-13.9998698081359,6.53186134891182,-13.043095287912));
#507=CARTESIAN_POINT('',(-16.8571233348747,8.48125744741571,-11.7996773441794));
#508=CARTESIAN_POINT('',(-20.4815234669342,9.25434619655566,-11.1570250359357));
#509=CARTESIAN_POINT('',(-24.0996486856383,8.50123072547022,-11.7852250878342));
#510=CARTESIAN_POINT('',(-26.9866070733236,6.54615004417977,-13.0352381765868));
#511=CARTESIAN_POINT('',(-28.9820259811175,3.65296648713685,-14.170791511549));
#512=CARTESIAN_POINT('',(-29.7524626470682,0.0356590574174492,-14.6606698291932));
#513=CARTESIAN_POINT('',(-29.0077720489951,-3.60079745278494,-14.1863110731812));
#514=CARTESIAN_POINT('',(-27.0136224621447,-6.51886507735701,-13.0497456599313));
#515=CARTESIAN_POINT('',(-24.1478565998847,-8.48113790900877,-11.8004668550502));
#516=CARTESIAN_POINT('',(-20.5184046147768,-9.2536628107391,-11.1570718732556));
#517=CARTESIAN_POINT('',(-16.9003677097527,-8.50407338804231,-11.7842564758187));
#518=CARTESIAN_POINT('',(-14.4795022096873,-6.85725236840719,-12.8343376207084));
#519=CARTESIAN_POINT('',(-13.013429308206,-5.09638122693279,-13.6041215275951));
#520=CARTESIAN_POINT('',(-12.1601271454053,-3.53401473656528,-14.0962438064939));
#521=CARTESIAN_POINT('',(-11.6289237202101,-1.84375849528804,-14.4193971891995));
#522=CARTESIAN_POINT('',(-11.3722568274689,0.622038271117786,-14.5804857588631));
#523=CARTESIAN_POINT('',(-12.005069951729,3.62044803638008,-14.1786422242349));
#524=CARTESIAN_POINT('',(-11.5,0.,-14.5));
#525=CARTESIAN_POINT('',(79.2654911761457,0.,99.7154911761457));
#526=CARTESIAN_POINT('',(79.2654911761457,0.,99.7154911761457));
#527=CARTESIAN_POINT('',(91.6398598469103,0.,87.3411225053812));
#528=CARTESIAN_POINT('',(82.8010250820785,0.,103.251025082079));
#529=CARTESIAN_POINT('',(82.8010250820785,0.,103.251025082079));
#530=CARTESIAN_POINT('',(107.549762423608,0.,78.5022877405493));
#531=CARTESIAN_POINT('',(79.2654911761458,0.,99.7154911761458));
#532=CARTESIAN_POINT('',(104.014228517675,0.,74.9667538346166));
#533=CARTESIAN_POINT('',(82.8010250820785,0.,103.251025082079));
#534=CARTESIAN_POINT('',(79.2654911761458,0.,99.7154911761458));
#535=CARTESIAN_POINT('',(19.5,-19.5,0.));
#536=CARTESIAN_POINT('',(19.5,-19.5,0.));
#537=CARTESIAN_POINT('',(28.5,-19.5,0.));
#538=CARTESIAN_POINT('',(19.5,-19.5,0.));
#539=CARTESIAN_POINT('',(-20.5,0.,-22.5));
#540=CARTESIAN_POINT('',(-20.5,0.,-22.5));
#541=CARTESIAN_POINT('',(-11.5,0.,-22.5));
#542=CARTESIAN_POINT('',(-20.5,0.,-22.5));
#543=MECHANICAL_DESIGN_GEOMETRIC_PRESENTATION_REPRESENTATION('',(#265),
#544);
#544=(
GEOMETRIC_REPRESENTATION_CONTEXT(3)
GLOBAL_UNCERTAINTY_ASSIGNED_CONTEXT((#545))
GLOBAL_UNIT_ASSIGNED_CONTEXT((#548,#547,#546))
REPRESENTATION_CONTEXT('07300025CH','TOP_LEVEL_ASSEMBLY_PART')
);
#545=UNCERTAINTY_MEASURE_WITH_UNIT(LENGTH_MEASURE(0.005),#548,
'DISTANCE_ACCURACY_VALUE','Maximum Tolerance applied to model');
#546=(
NAMED_UNIT(*)
SI_UNIT($,.STERADIAN.)
SOLID_ANGLE_UNIT()
);
#547=(
NAMED_UNIT(*)
PLANE_ANGLE_UNIT()
SI_UNIT($,.RADIAN.)
);
#548=(
LENGTH_UNIT()
NAMED_UNIT(*)
SI_UNIT(.MILLI.,.METRE.)
);
#549=PRODUCT_DEFINITION_SHAPE('','',#550);
#550=PRODUCT_DEFINITION('','',#552,#551);
#551=DESIGN_CONTEXT('',#558,'design');
#552=PRODUCT_DEFINITION_FORMATION_WITH_SPECIFIED_SOURCE('','',#554,
 .NOT_KNOWN.);
#553=PRODUCT_RELATED_PRODUCT_CATEGORY('','',(#554));
#554=PRODUCT('07300025CH','07300025CH','07300025CH',(#556));
#555=PRODUCT_CATEGORY('','');
#556=MECHANICAL_CONTEXT('',#558,'mechanical');
#557=APPLICATION_PROTOCOL_DEFINITION('international standard',
'config_control_design',2010,#558);
#558=APPLICATION_CONTEXT(
'configuration controlled 3D designs of mechanical parts and assemblie
s');
ENDSEC;
END-ISO-10303-21;
