ISO-10303-21;
HEADER;
/* Generated by software containing ST-Developer
 * from STEP Tools, Inc. (www.steptools.com) 
 */

FILE_DESCRIPTION(
/* description */ ('ADATTORE "VICTAULIC" 76-54 STEEL'),
/* implementation_level */ '2;1');

FILE_NAME(
/* name */ 
'R:\\Disegni3D_Area_Manager\\Steelpres.step\\322_STEELPRES\\322076054_
Steelpres.stp',
/* time_stamp */ '2022-10-24T08:32:42+02:00',
/* author */ ('Vault'),
/* organization */ ('Raccorderie metalliche s.p.a. '),
/* preprocessor_version */ 'ST-DEVELOPER v18.1',
/* originating_system */ 'Autodesk Inventor 2020',
/* authorisation */ 'Raccorderie metalliche s.p.a. ');

FILE_SCHEMA (('AUTOMOTIVE_DESIGN { 1 0 10303 214 3 1 1 }'));
ENDSEC;

DATA;
#10=MECHANICAL_DESIGN_GEOMETRIC_PRESENTATION_REPRESENTATION('',(#13),#591);
#11=SHAPE_REPRESENTATION_RELATIONSHIP('SRR','None',#597,#12);
#12=ADVANCED_BREP_SHAPE_REPRESENTATION('',(#14),#590);
#13=STYLED_ITEM('',(#606),#14);
#14=MANIFOLD_SOLID_BREP('Solido1',#315);
#15=CYLINDRICAL_SURFACE('',#342,3.81);
#16=CYLINDRICAL_SURFACE('',#349,3.81);
#17=CYLINDRICAL_SURFACE('',#362,3.31);
#18=CYLINDRICAL_SURFACE('',#371,2.7);
#19=CYLINDRICAL_SURFACE('',#377,2.55);
#20=CYLINDRICAL_SURFACE('',#380,3.615);
#21=FACE_BOUND('',#49,.T.);
#22=FACE_BOUND('',#54,.T.);
#23=FACE_BOUND('',#57,.T.);
#24=FACE_BOUND('',#62,.T.);
#25=PLANE('',#339);
#26=PLANE('',#352);
#27=PLANE('',#357);
#28=PLANE('',#369);
#29=FACE_OUTER_BOUND('',#47,.T.);
#30=FACE_OUTER_BOUND('',#48,.T.);
#31=FACE_OUTER_BOUND('',#50,.T.);
#32=FACE_OUTER_BOUND('',#51,.T.);
#33=FACE_OUTER_BOUND('',#52,.T.);
#34=FACE_OUTER_BOUND('',#53,.T.);
#35=FACE_OUTER_BOUND('',#55,.T.);
#36=FACE_OUTER_BOUND('',#56,.T.);
#37=FACE_OUTER_BOUND('',#58,.T.);
#38=FACE_OUTER_BOUND('',#59,.T.);
#39=FACE_OUTER_BOUND('',#60,.T.);
#40=FACE_OUTER_BOUND('',#61,.T.);
#41=FACE_OUTER_BOUND('',#63,.T.);
#42=FACE_OUTER_BOUND('',#64,.T.);
#43=FACE_OUTER_BOUND('',#65,.T.);
#44=FACE_OUTER_BOUND('',#66,.T.);
#45=FACE_OUTER_BOUND('',#67,.T.);
#46=FACE_OUTER_BOUND('',#68,.T.);
#47=EDGE_LOOP('',(#201,#202,#203,#204,#205));
#48=EDGE_LOOP('',(#206));
#49=EDGE_LOOP('',(#207,#208));
#50=EDGE_LOOP('',(#209,#210,#211,#212,#213,#214));
#51=EDGE_LOOP('',(#215,#216,#217,#218,#219));
#52=EDGE_LOOP('',(#220,#221,#222,#223,#224,#225));
#53=EDGE_LOOP('',(#226));
#54=EDGE_LOOP('',(#227,#228));
#55=EDGE_LOOP('',(#229,#230,#231,#232,#233));
#56=EDGE_LOOP('',(#234));
#57=EDGE_LOOP('',(#235));
#58=EDGE_LOOP('',(#236,#237,#238,#239,#240));
#59=EDGE_LOOP('',(#241,#242,#243,#244,#245,#246));
#60=EDGE_LOOP('',(#247,#248,#249,#250,#251));
#61=EDGE_LOOP('',(#252));
#62=EDGE_LOOP('',(#253));
#63=EDGE_LOOP('',(#254,#255,#256,#257,#258,#259));
#64=EDGE_LOOP('',(#260,#261,#262,#263,#264));
#65=EDGE_LOOP('',(#265,#266,#267,#268,#269,#270));
#66=EDGE_LOOP('',(#271,#272,#273,#274,#275,#276));
#67=EDGE_LOOP('',(#277,#278,#279,#280,#281,#282));
#68=EDGE_LOOP('',(#283,#284,#285,#286,#287,#288));
#69=LINE('',#502,#83);
#70=LINE('',#514,#84);
#71=LINE('',#519,#85);
#72=LINE('',#525,#86);
#73=LINE('',#536,#87);
#74=LINE('',#543,#88);
#75=LINE('',#551,#89);
#76=LINE('',#557,#90);
#77=LINE('',#566,#91);
#78=LINE('',#575,#92);
#79=LINE('',#578,#93);
#80=LINE('',#583,#94);
#81=LINE('',#585,#95);
#82=LINE('',#587,#96);
#83=VECTOR('',#391,3.785);
#84=VECTOR('',#406,3.81);
#85=VECTOR('',#411,3.785);
#86=VECTOR('',#418,3.81);
#87=VECTOR('',#431,3.785);
#88=VECTOR('',#440,3.335);
#89=VECTOR('',#449,3.31);
#90=VECTOR('',#456,2.675);
#91=VECTOR('',#467,2.7);
#92=VECTOR('',#478,2.575);
#93=VECTOR('',#481,2.55);
#94=VECTOR('',#488,3.615);
#95=VECTOR('',#491,3.255);
#96=VECTOR('',#494,2.93);
#97=CIRCLE('',#336,3.81);
#98=CIRCLE('',#337,3.81);
#99=CIRCLE('',#338,3.76);
#100=CIRCLE('',#340,3.615);
#101=CIRCLE('',#341,3.615);
#102=CIRCLE('',#343,3.81);
#103=CIRCLE('',#344,3.81);
#104=CIRCLE('',#346,3.76);
#105=CIRCLE('',#347,3.81);
#106=CIRCLE('',#348,3.81);
#107=CIRCLE('',#350,3.81);
#108=CIRCLE('',#351,3.81);
#109=CIRCLE('',#353,3.615);
#110=CIRCLE('',#354,3.615);
#111=CIRCLE('',#356,3.76);
#112=CIRCLE('',#358,3.36);
#113=CIRCLE('',#360,3.31);
#114=CIRCLE('',#361,3.31);
#115=CIRCLE('',#363,3.31);
#116=CIRCLE('',#364,3.31);
#117=CIRCLE('',#366,2.65);
#118=CIRCLE('',#367,2.7);
#119=CIRCLE('',#368,2.7);
#120=CIRCLE('',#370,2.6);
#121=CIRCLE('',#372,2.7);
#122=CIRCLE('',#373,2.7);
#123=CIRCLE('',#375,2.55);
#124=CIRCLE('',#376,2.55);
#125=CIRCLE('',#378,2.55);
#126=CIRCLE('',#379,2.55);
#127=VERTEX_POINT('',#497);
#128=VERTEX_POINT('',#498);
#129=VERTEX_POINT('',#501);
#130=VERTEX_POINT('',#505);
#131=VERTEX_POINT('',#506);
#132=VERTEX_POINT('',#510);
#133=VERTEX_POINT('',#511);
#134=VERTEX_POINT('',#516);
#135=VERTEX_POINT('',#518);
#136=VERTEX_POINT('',#520);
#137=VERTEX_POINT('',#524);
#138=VERTEX_POINT('',#526);
#139=VERTEX_POINT('',#530);
#140=VERTEX_POINT('',#531);
#141=VERTEX_POINT('',#535);
#142=VERTEX_POINT('',#539);
#143=VERTEX_POINT('',#542);
#144=VERTEX_POINT('',#544);
#145=VERTEX_POINT('',#548);
#146=VERTEX_POINT('',#549);
#147=VERTEX_POINT('',#554);
#148=VERTEX_POINT('',#556);
#149=VERTEX_POINT('',#558);
#150=VERTEX_POINT('',#562);
#151=VERTEX_POINT('',#565);
#152=VERTEX_POINT('',#567);
#153=VERTEX_POINT('',#571);
#154=VERTEX_POINT('',#572);
#155=VERTEX_POINT('',#577);
#156=VERTEX_POINT('',#579);
#157=EDGE_CURVE('',#127,#128,#97,.T.);
#158=EDGE_CURVE('',#128,#127,#98,.T.);
#159=EDGE_CURVE('',#127,#129,#69,.T.);
#160=EDGE_CURVE('',#129,#129,#99,.T.);
#161=EDGE_CURVE('',#130,#131,#100,.T.);
#162=EDGE_CURVE('',#131,#130,#101,.T.);
#163=EDGE_CURVE('',#132,#133,#102,.T.);
#164=EDGE_CURVE('',#133,#132,#103,.T.);
#165=EDGE_CURVE('',#133,#128,#70,.T.);
#166=EDGE_CURVE('',#134,#134,#104,.T.);
#167=EDGE_CURVE('',#134,#135,#71,.T.);
#168=EDGE_CURVE('',#135,#136,#105,.T.);
#169=EDGE_CURVE('',#136,#135,#106,.T.);
#170=EDGE_CURVE('',#136,#137,#72,.T.);
#171=EDGE_CURVE('',#138,#137,#107,.T.);
#172=EDGE_CURVE('',#137,#138,#108,.T.);
#173=EDGE_CURVE('',#139,#140,#109,.T.);
#174=EDGE_CURVE('',#140,#139,#110,.T.);
#175=EDGE_CURVE('',#138,#141,#73,.T.);
#176=EDGE_CURVE('',#141,#141,#111,.T.);
#177=EDGE_CURVE('',#142,#142,#112,.T.);
#178=EDGE_CURVE('',#142,#143,#74,.T.);
#179=EDGE_CURVE('',#143,#144,#113,.T.);
#180=EDGE_CURVE('',#144,#143,#114,.T.);
#181=EDGE_CURVE('',#145,#146,#115,.T.);
#182=EDGE_CURVE('',#146,#144,#75,.T.);
#183=EDGE_CURVE('',#146,#145,#116,.T.);
#184=EDGE_CURVE('',#147,#147,#117,.T.);
#185=EDGE_CURVE('',#147,#148,#76,.T.);
#186=EDGE_CURVE('',#148,#149,#118,.T.);
#187=EDGE_CURVE('',#149,#148,#119,.T.);
#188=EDGE_CURVE('',#150,#150,#120,.T.);
#189=EDGE_CURVE('',#149,#151,#77,.T.);
#190=EDGE_CURVE('',#151,#152,#121,.T.);
#191=EDGE_CURVE('',#152,#151,#122,.T.);
#192=EDGE_CURVE('',#153,#154,#123,.T.);
#193=EDGE_CURVE('',#154,#153,#124,.T.);
#194=EDGE_CURVE('',#153,#150,#78,.T.);
#195=EDGE_CURVE('',#154,#155,#79,.T.);
#196=EDGE_CURVE('',#156,#155,#125,.T.);
#197=EDGE_CURVE('',#155,#156,#126,.T.);
#198=EDGE_CURVE('',#131,#140,#80,.T.);
#199=EDGE_CURVE('',#151,#133,#81,.T.);
#200=EDGE_CURVE('',#155,#146,#82,.T.);
#201=ORIENTED_EDGE('',*,*,#157,.T.);
#202=ORIENTED_EDGE('',*,*,#158,.T.);
#203=ORIENTED_EDGE('',*,*,#159,.T.);
#204=ORIENTED_EDGE('',*,*,#160,.T.);
#205=ORIENTED_EDGE('',*,*,#159,.F.);
#206=ORIENTED_EDGE('',*,*,#160,.F.);
#207=ORIENTED_EDGE('',*,*,#161,.T.);
#208=ORIENTED_EDGE('',*,*,#162,.T.);
#209=ORIENTED_EDGE('',*,*,#163,.F.);
#210=ORIENTED_EDGE('',*,*,#164,.F.);
#211=ORIENTED_EDGE('',*,*,#165,.T.);
#212=ORIENTED_EDGE('',*,*,#157,.F.);
#213=ORIENTED_EDGE('',*,*,#158,.F.);
#214=ORIENTED_EDGE('',*,*,#165,.F.);
#215=ORIENTED_EDGE('',*,*,#166,.T.);
#216=ORIENTED_EDGE('',*,*,#167,.T.);
#217=ORIENTED_EDGE('',*,*,#168,.T.);
#218=ORIENTED_EDGE('',*,*,#169,.T.);
#219=ORIENTED_EDGE('',*,*,#167,.F.);
#220=ORIENTED_EDGE('',*,*,#168,.F.);
#221=ORIENTED_EDGE('',*,*,#169,.F.);
#222=ORIENTED_EDGE('',*,*,#170,.T.);
#223=ORIENTED_EDGE('',*,*,#171,.F.);
#224=ORIENTED_EDGE('',*,*,#172,.F.);
#225=ORIENTED_EDGE('',*,*,#170,.F.);
#226=ORIENTED_EDGE('',*,*,#166,.F.);
#227=ORIENTED_EDGE('',*,*,#173,.F.);
#228=ORIENTED_EDGE('',*,*,#174,.F.);
#229=ORIENTED_EDGE('',*,*,#171,.T.);
#230=ORIENTED_EDGE('',*,*,#172,.T.);
#231=ORIENTED_EDGE('',*,*,#175,.T.);
#232=ORIENTED_EDGE('',*,*,#176,.T.);
#233=ORIENTED_EDGE('',*,*,#175,.F.);
#234=ORIENTED_EDGE('',*,*,#176,.F.);
#235=ORIENTED_EDGE('',*,*,#177,.F.);
#236=ORIENTED_EDGE('',*,*,#177,.T.);
#237=ORIENTED_EDGE('',*,*,#178,.T.);
#238=ORIENTED_EDGE('',*,*,#179,.T.);
#239=ORIENTED_EDGE('',*,*,#180,.T.);
#240=ORIENTED_EDGE('',*,*,#178,.F.);
#241=ORIENTED_EDGE('',*,*,#181,.T.);
#242=ORIENTED_EDGE('',*,*,#182,.T.);
#243=ORIENTED_EDGE('',*,*,#179,.F.);
#244=ORIENTED_EDGE('',*,*,#180,.F.);
#245=ORIENTED_EDGE('',*,*,#182,.F.);
#246=ORIENTED_EDGE('',*,*,#183,.T.);
#247=ORIENTED_EDGE('',*,*,#184,.T.);
#248=ORIENTED_EDGE('',*,*,#185,.T.);
#249=ORIENTED_EDGE('',*,*,#186,.T.);
#250=ORIENTED_EDGE('',*,*,#187,.T.);
#251=ORIENTED_EDGE('',*,*,#185,.F.);
#252=ORIENTED_EDGE('',*,*,#184,.F.);
#253=ORIENTED_EDGE('',*,*,#188,.F.);
#254=ORIENTED_EDGE('',*,*,#186,.F.);
#255=ORIENTED_EDGE('',*,*,#187,.F.);
#256=ORIENTED_EDGE('',*,*,#189,.T.);
#257=ORIENTED_EDGE('',*,*,#190,.T.);
#258=ORIENTED_EDGE('',*,*,#191,.T.);
#259=ORIENTED_EDGE('',*,*,#189,.F.);
#260=ORIENTED_EDGE('',*,*,#192,.T.);
#261=ORIENTED_EDGE('',*,*,#193,.T.);
#262=ORIENTED_EDGE('',*,*,#194,.T.);
#263=ORIENTED_EDGE('',*,*,#188,.T.);
#264=ORIENTED_EDGE('',*,*,#194,.F.);
#265=ORIENTED_EDGE('',*,*,#192,.F.);
#266=ORIENTED_EDGE('',*,*,#193,.F.);
#267=ORIENTED_EDGE('',*,*,#195,.T.);
#268=ORIENTED_EDGE('',*,*,#196,.F.);
#269=ORIENTED_EDGE('',*,*,#197,.F.);
#270=ORIENTED_EDGE('',*,*,#195,.F.);
#271=ORIENTED_EDGE('',*,*,#161,.F.);
#272=ORIENTED_EDGE('',*,*,#162,.F.);
#273=ORIENTED_EDGE('',*,*,#198,.T.);
#274=ORIENTED_EDGE('',*,*,#174,.T.);
#275=ORIENTED_EDGE('',*,*,#173,.T.);
#276=ORIENTED_EDGE('',*,*,#198,.F.);
#277=ORIENTED_EDGE('',*,*,#191,.F.);
#278=ORIENTED_EDGE('',*,*,#190,.F.);
#279=ORIENTED_EDGE('',*,*,#199,.T.);
#280=ORIENTED_EDGE('',*,*,#164,.T.);
#281=ORIENTED_EDGE('',*,*,#163,.T.);
#282=ORIENTED_EDGE('',*,*,#199,.F.);
#283=ORIENTED_EDGE('',*,*,#196,.T.);
#284=ORIENTED_EDGE('',*,*,#200,.T.);
#285=ORIENTED_EDGE('',*,*,#181,.F.);
#286=ORIENTED_EDGE('',*,*,#183,.F.);
#287=ORIENTED_EDGE('',*,*,#200,.F.);
#288=ORIENTED_EDGE('',*,*,#197,.T.);
#289=CONICAL_SURFACE('',#335,3.785,0.785398163397448);
#290=CONICAL_SURFACE('',#345,3.785,0.785398163397446);
#291=CONICAL_SURFACE('',#355,3.785,0.785398163397446);
#292=CONICAL_SURFACE('',#359,3.335,0.785398163397446);
#293=CONICAL_SURFACE('',#365,2.675,0.785398163397439);
#294=CONICAL_SURFACE('',#374,2.575,0.785398163397444);
#295=CONICAL_SURFACE('',#381,3.255,0.523598775598299);
#296=CONICAL_SURFACE('',#382,2.93,0.523598775598298);
#297=ADVANCED_FACE('',(#29),#289,.T.);
#298=ADVANCED_FACE('',(#30,#21),#25,.T.);
#299=ADVANCED_FACE('',(#31),#15,.T.);
#300=ADVANCED_FACE('',(#32),#290,.T.);
#301=ADVANCED_FACE('',(#33),#16,.T.);
#302=ADVANCED_FACE('',(#34,#22),#26,.T.);
#303=ADVANCED_FACE('',(#35),#291,.T.);
#304=ADVANCED_FACE('',(#36,#23),#27,.T.);
#305=ADVANCED_FACE('',(#37),#292,.F.);
#306=ADVANCED_FACE('',(#38),#17,.F.);
#307=ADVANCED_FACE('',(#39),#293,.T.);
#308=ADVANCED_FACE('',(#40,#24),#28,.T.);
#309=ADVANCED_FACE('',(#41),#18,.T.);
#310=ADVANCED_FACE('',(#42),#294,.F.);
#311=ADVANCED_FACE('',(#43),#19,.F.);
#312=ADVANCED_FACE('',(#44),#20,.T.);
#313=ADVANCED_FACE('',(#45),#295,.T.);
#314=ADVANCED_FACE('',(#46),#296,.F.);
#315=CLOSED_SHELL('',(#297,#298,#299,#300,#301,#302,#303,#304,#305,#306,
#307,#308,#309,#310,#311,#312,#313,#314));
#316=DERIVED_UNIT_ELEMENT(#318,1.);
#317=DERIVED_UNIT_ELEMENT(#592,3.);
#318=(
MASS_UNIT()
NAMED_UNIT(*)
SI_UNIT($,.GRAM.)
);
#319=DERIVED_UNIT((#316,#317));
#320=MEASURE_REPRESENTATION_ITEM('density measure',
POSITIVE_RATIO_MEASURE(1.),#319);
#321=PROPERTY_DEFINITION_REPRESENTATION(#326,#323);
#322=PROPERTY_DEFINITION_REPRESENTATION(#327,#324);
#323=REPRESENTATION('material name',(#325),#590);
#324=REPRESENTATION('density',(#320),#590);
#325=DESCRIPTIVE_REPRESENTATION_ITEM('Generico','Generico');
#326=PROPERTY_DEFINITION('material property','material name',#599);
#327=PROPERTY_DEFINITION('material property','density of part',#599);
#328=DATE_TIME_ROLE('creation_date');
#329=APPLIED_DATE_AND_TIME_ASSIGNMENT(#330,#328,(#599));
#330=DATE_AND_TIME(#331,#332);
#331=CALENDAR_DATE(2015,23,12);
#332=LOCAL_TIME(10,28,39.,#333);
#333=COORDINATED_UNIVERSAL_TIME_OFFSET(0,0,.BEHIND.);
#334=AXIS2_PLACEMENT_3D('placement',#495,#383,#384);
#335=AXIS2_PLACEMENT_3D('',#496,#385,#386);
#336=AXIS2_PLACEMENT_3D('',#499,#387,#388);
#337=AXIS2_PLACEMENT_3D('',#500,#389,#390);
#338=AXIS2_PLACEMENT_3D('',#503,#392,#393);
#339=AXIS2_PLACEMENT_3D('',#504,#394,#395);
#340=AXIS2_PLACEMENT_3D('',#507,#396,#397);
#341=AXIS2_PLACEMENT_3D('',#508,#398,#399);
#342=AXIS2_PLACEMENT_3D('',#509,#400,#401);
#343=AXIS2_PLACEMENT_3D('',#512,#402,#403);
#344=AXIS2_PLACEMENT_3D('',#513,#404,#405);
#345=AXIS2_PLACEMENT_3D('',#515,#407,#408);
#346=AXIS2_PLACEMENT_3D('',#517,#409,#410);
#347=AXIS2_PLACEMENT_3D('',#521,#412,#413);
#348=AXIS2_PLACEMENT_3D('',#522,#414,#415);
#349=AXIS2_PLACEMENT_3D('',#523,#416,#417);
#350=AXIS2_PLACEMENT_3D('',#527,#419,#420);
#351=AXIS2_PLACEMENT_3D('',#528,#421,#422);
#352=AXIS2_PLACEMENT_3D('',#529,#423,#424);
#353=AXIS2_PLACEMENT_3D('',#532,#425,#426);
#354=AXIS2_PLACEMENT_3D('',#533,#427,#428);
#355=AXIS2_PLACEMENT_3D('',#534,#429,#430);
#356=AXIS2_PLACEMENT_3D('',#537,#432,#433);
#357=AXIS2_PLACEMENT_3D('',#538,#434,#435);
#358=AXIS2_PLACEMENT_3D('',#540,#436,#437);
#359=AXIS2_PLACEMENT_3D('',#541,#438,#439);
#360=AXIS2_PLACEMENT_3D('',#545,#441,#442);
#361=AXIS2_PLACEMENT_3D('',#546,#443,#444);
#362=AXIS2_PLACEMENT_3D('',#547,#445,#446);
#363=AXIS2_PLACEMENT_3D('',#550,#447,#448);
#364=AXIS2_PLACEMENT_3D('',#552,#450,#451);
#365=AXIS2_PLACEMENT_3D('',#553,#452,#453);
#366=AXIS2_PLACEMENT_3D('',#555,#454,#455);
#367=AXIS2_PLACEMENT_3D('',#559,#457,#458);
#368=AXIS2_PLACEMENT_3D('',#560,#459,#460);
#369=AXIS2_PLACEMENT_3D('',#561,#461,#462);
#370=AXIS2_PLACEMENT_3D('',#563,#463,#464);
#371=AXIS2_PLACEMENT_3D('',#564,#465,#466);
#372=AXIS2_PLACEMENT_3D('',#568,#468,#469);
#373=AXIS2_PLACEMENT_3D('',#569,#470,#471);
#374=AXIS2_PLACEMENT_3D('',#570,#472,#473);
#375=AXIS2_PLACEMENT_3D('',#573,#474,#475);
#376=AXIS2_PLACEMENT_3D('',#574,#476,#477);
#377=AXIS2_PLACEMENT_3D('',#576,#479,#480);
#378=AXIS2_PLACEMENT_3D('',#580,#482,#483);
#379=AXIS2_PLACEMENT_3D('',#581,#484,#485);
#380=AXIS2_PLACEMENT_3D('',#582,#486,#487);
#381=AXIS2_PLACEMENT_3D('',#584,#489,#490);
#382=AXIS2_PLACEMENT_3D('',#586,#492,#493);
#383=DIRECTION('axis',(0.,0.,1.));
#384=DIRECTION('refdir',(1.,0.,0.));
#385=DIRECTION('center_axis',(1.,0.,0.));
#386=DIRECTION('ref_axis',(0.,-1.,0.));
#387=DIRECTION('center_axis',(-1.,0.,0.));
#388=DIRECTION('ref_axis',(0.,-1.,0.));
#389=DIRECTION('center_axis',(-1.,0.,0.));
#390=DIRECTION('ref_axis',(0.,-1.,0.));
#391=DIRECTION('',(-0.707106781186548,-0.707106781186548,-8.65956056235493E-17));
#392=DIRECTION('center_axis',(1.,0.,0.));
#393=DIRECTION('ref_axis',(0.,-1.,0.));
#394=DIRECTION('center_axis',(-1.,0.,0.));
#395=DIRECTION('ref_axis',(0.,0.,1.));
#396=DIRECTION('center_axis',(1.,0.,0.));
#397=DIRECTION('ref_axis',(0.,1.,0.));
#398=DIRECTION('center_axis',(1.,0.,0.));
#399=DIRECTION('ref_axis',(0.,1.,0.));
#400=DIRECTION('center_axis',(1.,0.,0.));
#401=DIRECTION('ref_axis',(0.,1.,0.));
#402=DIRECTION('center_axis',(1.,0.,0.));
#403=DIRECTION('ref_axis',(0.,1.,0.));
#404=DIRECTION('center_axis',(1.,0.,0.));
#405=DIRECTION('ref_axis',(0.,1.,0.));
#406=DIRECTION('',(-1.,0.,0.));
#407=DIRECTION('center_axis',(-1.,0.,0.));
#408=DIRECTION('ref_axis',(0.,-1.,0.));
#409=DIRECTION('center_axis',(-1.,0.,0.));
#410=DIRECTION('ref_axis',(0.,-1.,0.));
#411=DIRECTION('',(-0.707106781186549,0.707106781186546,8.65956056235491E-17));
#412=DIRECTION('center_axis',(1.,0.,0.));
#413=DIRECTION('ref_axis',(0.,-1.,0.));
#414=DIRECTION('center_axis',(1.,0.,0.));
#415=DIRECTION('ref_axis',(0.,-1.,0.));
#416=DIRECTION('center_axis',(1.,0.,0.));
#417=DIRECTION('ref_axis',(0.,1.,0.));
#418=DIRECTION('',(-1.,0.,0.));
#419=DIRECTION('center_axis',(-1.,0.,0.));
#420=DIRECTION('ref_axis',(0.,-1.,0.));
#421=DIRECTION('center_axis',(-1.,0.,0.));
#422=DIRECTION('ref_axis',(0.,-1.,0.));
#423=DIRECTION('center_axis',(1.,0.,0.));
#424=DIRECTION('ref_axis',(0.,0.,-1.));
#425=DIRECTION('center_axis',(1.,0.,0.));
#426=DIRECTION('ref_axis',(0.,1.,0.));
#427=DIRECTION('center_axis',(1.,0.,0.));
#428=DIRECTION('ref_axis',(0.,1.,0.));
#429=DIRECTION('center_axis',(1.,0.,0.));
#430=DIRECTION('ref_axis',(0.,-1.,0.));
#431=DIRECTION('',(-0.707106781186549,-0.707106781186546,-8.65956056235491E-17));
#432=DIRECTION('center_axis',(1.,0.,0.));
#433=DIRECTION('ref_axis',(0.,-1.,0.));
#434=DIRECTION('center_axis',(-1.,0.,0.));
#435=DIRECTION('ref_axis',(0.,0.,1.));
#436=DIRECTION('center_axis',(-1.,0.,0.));
#437=DIRECTION('ref_axis',(0.,-1.,0.));
#438=DIRECTION('center_axis',(-1.,0.,0.));
#439=DIRECTION('ref_axis',(0.,-1.,0.));
#440=DIRECTION('',(0.707106781186549,-0.707106781186546,8.65956056235491E-17));
#441=DIRECTION('center_axis',(1.,0.,0.));
#442=DIRECTION('ref_axis',(0.,-1.,0.));
#443=DIRECTION('center_axis',(1.,0.,0.));
#444=DIRECTION('ref_axis',(0.,-1.,0.));
#445=DIRECTION('center_axis',(1.,0.,0.));
#446=DIRECTION('ref_axis',(0.,1.,0.));
#447=DIRECTION('center_axis',(1.,0.,0.));
#448=DIRECTION('ref_axis',(0.,1.,0.));
#449=DIRECTION('',(-1.,0.,0.));
#450=DIRECTION('center_axis',(1.,0.,0.));
#451=DIRECTION('ref_axis',(0.,1.,0.));
#452=DIRECTION('center_axis',(-1.,0.,0.));
#453=DIRECTION('ref_axis',(0.,-1.,0.));
#454=DIRECTION('center_axis',(-1.,0.,0.));
#455=DIRECTION('ref_axis',(0.,-1.,0.));
#456=DIRECTION('',(-0.707106781186554,0.707106781186541,8.65956056235486E-17));
#457=DIRECTION('center_axis',(1.,0.,0.));
#458=DIRECTION('ref_axis',(0.,-1.,0.));
#459=DIRECTION('center_axis',(1.,0.,0.));
#460=DIRECTION('ref_axis',(0.,-1.,0.));
#461=DIRECTION('center_axis',(1.,0.,0.));
#462=DIRECTION('ref_axis',(0.,0.,-1.));
#463=DIRECTION('center_axis',(1.,0.,0.));
#464=DIRECTION('ref_axis',(0.,-1.,0.));
#465=DIRECTION('center_axis',(1.,0.,0.));
#466=DIRECTION('ref_axis',(0.,1.,0.));
#467=DIRECTION('',(-1.,0.,0.));
#468=DIRECTION('center_axis',(1.,0.,0.));
#469=DIRECTION('ref_axis',(0.,1.,0.));
#470=DIRECTION('center_axis',(1.,0.,0.));
#471=DIRECTION('ref_axis',(0.,1.,0.));
#472=DIRECTION('center_axis',(1.,0.,0.));
#473=DIRECTION('ref_axis',(0.,-1.,0.));
#474=DIRECTION('center_axis',(-1.,0.,0.));
#475=DIRECTION('ref_axis',(0.,-1.,0.));
#476=DIRECTION('center_axis',(-1.,0.,0.));
#477=DIRECTION('ref_axis',(0.,-1.,0.));
#478=DIRECTION('',(0.707106781186551,0.707106781186544,-8.65956056235489E-17));
#479=DIRECTION('center_axis',(1.,0.,0.));
#480=DIRECTION('ref_axis',(0.,1.,0.));
#481=DIRECTION('',(-1.,0.,0.));
#482=DIRECTION('center_axis',(1.,0.,0.));
#483=DIRECTION('ref_axis',(0.,1.,0.));
#484=DIRECTION('center_axis',(1.,0.,0.));
#485=DIRECTION('ref_axis',(0.,1.,0.));
#486=DIRECTION('center_axis',(1.,0.,0.));
#487=DIRECTION('ref_axis',(0.,1.,0.));
#488=DIRECTION('',(-1.,0.,0.));
#489=DIRECTION('center_axis',(-1.,0.,0.));
#490=DIRECTION('ref_axis',(0.,1.,0.));
#491=DIRECTION('',(-0.866025403784439,-0.5,-6.12323399573676E-17));
#492=DIRECTION('center_axis',(-1.,0.,0.));
#493=DIRECTION('ref_axis',(0.,1.,0.));
#494=DIRECTION('',(-0.866025403784439,-0.499999999999999,-6.12323399573676E-17));
#495=CARTESIAN_POINT('',(0.,0.,0.));
#496=CARTESIAN_POINT('Origin',(2.405,0.,0.));
#497=CARTESIAN_POINT('',(2.43,3.81,-4.66575020806326E-16));
#498=CARTESIAN_POINT('',(2.43,-3.81,-4.66590430475142E-16));
#499=CARTESIAN_POINT('Origin',(2.43,0.,0.));
#500=CARTESIAN_POINT('Origin',(2.43,0.,0.));
#501=CARTESIAN_POINT('',(2.38,3.76,4.60451989037214E-16));
#502=CARTESIAN_POINT('',(2.405,3.785,4.63528813477273E-16));
#503=CARTESIAN_POINT('Origin',(2.38,0.,0.));
#504=CARTESIAN_POINT('Origin',(2.38,3.7125,0.));
#505=CARTESIAN_POINT('',(2.38,3.615,0.));
#506=CARTESIAN_POINT('',(2.38,-3.615,-4.42709817891768E-16));
#507=CARTESIAN_POINT('Origin',(2.38,0.,0.));
#508=CARTESIAN_POINT('Origin',(2.38,0.,0.));
#509=CARTESIAN_POINT('Origin',(2.94,0.,0.));
#510=CARTESIAN_POINT('',(3.5,3.81,0.));
#511=CARTESIAN_POINT('',(3.5,-3.81,-4.66590430475142E-16));
#512=CARTESIAN_POINT('Origin',(3.5,0.,0.));
#513=CARTESIAN_POINT('Origin',(3.5,0.,0.));
#514=CARTESIAN_POINT('',(2.94,-3.81,-4.66590430475142E-16));
#515=CARTESIAN_POINT('Origin',(1.565,0.,0.));
#516=CARTESIAN_POINT('',(1.59,3.76,-4.60451989037214E-16));
#517=CARTESIAN_POINT('Origin',(1.59,0.,0.));
#518=CARTESIAN_POINT('',(1.54,3.81,4.66575020806326E-16));
#519=CARTESIAN_POINT('',(1.565,3.785,4.63528813477273E-16));
#520=CARTESIAN_POINT('',(1.54,-3.81,-4.66590430475142E-16));
#521=CARTESIAN_POINT('Origin',(1.54,0.,0.));
#522=CARTESIAN_POINT('Origin',(1.54,0.,0.));
#523=CARTESIAN_POINT('Origin',(0.795,0.,0.));
#524=CARTESIAN_POINT('',(0.05,-3.81,-4.66590430475142E-16));
#525=CARTESIAN_POINT('',(0.795,-3.81,-4.66590430475142E-16));
#526=CARTESIAN_POINT('',(0.05,3.81,-4.66575020806326E-16));
#527=CARTESIAN_POINT('Origin',(0.05,0.,0.));
#528=CARTESIAN_POINT('Origin',(0.05,0.,0.));
#529=CARTESIAN_POINT('Origin',(1.59,3.7125,0.));
#530=CARTESIAN_POINT('',(1.59,3.615,0.));
#531=CARTESIAN_POINT('',(1.59,-3.615,-4.42709817891768E-16));
#532=CARTESIAN_POINT('Origin',(1.59,0.,0.));
#533=CARTESIAN_POINT('Origin',(1.59,0.,0.));
#534=CARTESIAN_POINT('Origin',(0.025,0.,0.));
#535=CARTESIAN_POINT('',(0.,3.76,4.60451989037214E-16));
#536=CARTESIAN_POINT('',(0.025,3.785,4.63528813477273E-16));
#537=CARTESIAN_POINT('Origin',(0.,0.,0.));
#538=CARTESIAN_POINT('Origin',(0.,3.56,0.));
#539=CARTESIAN_POINT('',(0.,3.36,-4.11467734884319E-16));
#540=CARTESIAN_POINT('Origin',(0.,0.,0.));
#541=CARTESIAN_POINT('Origin',(0.025,0.,0.));
#542=CARTESIAN_POINT('',(0.05,3.31,4.05344703115207E-16));
#543=CARTESIAN_POINT('',(0.025,3.335,-4.08419707515642E-16));
#544=CARTESIAN_POINT('',(0.05,-3.31,-4.05358090517774E-16));
#545=CARTESIAN_POINT('Origin',(0.05,0.,0.));
#546=CARTESIAN_POINT('Origin',(0.05,0.,0.));
#547=CARTESIAN_POINT('Origin',(1.75,0.,0.));
#548=CARTESIAN_POINT('',(3.5,3.31,0.));
#549=CARTESIAN_POINT('',(3.5,-3.31,-4.05358090517774E-16));
#550=CARTESIAN_POINT('Origin',(3.5,0.,0.));
#551=CARTESIAN_POINT('',(1.75,-3.31,-4.05358090517774E-16));
#552=CARTESIAN_POINT('Origin',(3.5,0.,0.));
#553=CARTESIAN_POINT('Origin',(12.975,0.,0.));
#554=CARTESIAN_POINT('',(13.,2.65,-3.2452068376293E-16));
#555=CARTESIAN_POINT('Origin',(13.,0.,0.));
#556=CARTESIAN_POINT('',(12.95,2.7,3.30643715532042E-16));
#557=CARTESIAN_POINT('',(12.975,2.675,3.27593018771917E-16));
#558=CARTESIAN_POINT('',(12.95,-2.7,-3.30654635769785E-16));
#559=CARTESIAN_POINT('Origin',(12.95,0.,0.));
#560=CARTESIAN_POINT('Origin',(12.95,0.,0.));
#561=CARTESIAN_POINT('Origin',(13.,2.625,0.));
#562=CARTESIAN_POINT('',(13.,2.6,3.18397651993818E-16));
#563=CARTESIAN_POINT('Origin',(13.,0.,0.));
#564=CARTESIAN_POINT('Origin',(9.21128819820073,0.,0.));
#565=CARTESIAN_POINT('',(5.42257639640146,-2.7,-3.30654635769785E-16));
#566=CARTESIAN_POINT('',(9.21128819820073,-2.7,-3.30654635769785E-16));
#567=CARTESIAN_POINT('',(5.42257639640146,2.7,0.));
#568=CARTESIAN_POINT('Origin',(5.42257639640146,0.,0.));
#569=CARTESIAN_POINT('Origin',(5.42257639640146,0.,0.));
#570=CARTESIAN_POINT('Origin',(12.975,0.,0.));
#571=CARTESIAN_POINT('',(12.95,2.55,-3.12274620224706E-16));
#572=CARTESIAN_POINT('',(12.95,-2.55,-3.12284933782575E-16));
#573=CARTESIAN_POINT('Origin',(12.95,0.,0.));
#574=CARTESIAN_POINT('Origin',(12.95,0.,0.));
#575=CARTESIAN_POINT('',(12.975,2.575,-3.15346550780444E-16));
#576=CARTESIAN_POINT('Origin',(8.90817930687617,0.,0.));
#577=CARTESIAN_POINT('',(4.81635861375235,-2.55,-3.12284933782575E-16));
#578=CARTESIAN_POINT('',(8.90817930687617,-2.55,-3.12284933782575E-16));
#579=CARTESIAN_POINT('',(4.81635861375235,2.55,0.));
#580=CARTESIAN_POINT('Origin',(4.81635861375235,0.,0.));
#581=CARTESIAN_POINT('Origin',(4.81635861375235,0.,0.));
#582=CARTESIAN_POINT('Origin',(1.985,0.,0.));
#583=CARTESIAN_POINT('',(1.985,-3.615,-4.42709817891768E-16));
#584=CARTESIAN_POINT('Origin',(4.46128819820073,0.,0.));
#585=CARTESIAN_POINT('',(4.46128819820073,-3.255,-3.98622533122464E-16));
#586=CARTESIAN_POINT('Origin',(4.15817930687618,0.,0.));
#587=CARTESIAN_POINT('',(4.15817930687618,-2.93,-3.58821512150175E-16));
#588=UNCERTAINTY_MEASURE_WITH_UNIT(LENGTH_MEASURE(0.001),#592,
'DISTANCE_ACCURACY_VALUE',
'Maximum model space distance between geometric entities at asserted c
onnectivities');
#589=UNCERTAINTY_MEASURE_WITH_UNIT(LENGTH_MEASURE(0.001),#592,
'DISTANCE_ACCURACY_VALUE',
'Maximum model space distance between geometric entities at asserted c
onnectivities');
#590=(
GEOMETRIC_REPRESENTATION_CONTEXT(3)
GLOBAL_UNCERTAINTY_ASSIGNED_CONTEXT((#588))
GLOBAL_UNIT_ASSIGNED_CONTEXT((#592,#593,#594))
REPRESENTATION_CONTEXT('','3D')
);
#591=(
GEOMETRIC_REPRESENTATION_CONTEXT(3)
GLOBAL_UNCERTAINTY_ASSIGNED_CONTEXT((#589))
GLOBAL_UNIT_ASSIGNED_CONTEXT((#592,#593,#594))
REPRESENTATION_CONTEXT('','3D')
);
#592=(
LENGTH_UNIT()
NAMED_UNIT(*)
SI_UNIT(.CENTI.,.METRE.)
);
#593=(
NAMED_UNIT(*)
PLANE_ANGLE_UNIT()
SI_UNIT($,.RADIAN.)
);
#594=(
NAMED_UNIT(*)
SI_UNIT($,.STERADIAN.)
SOLID_ANGLE_UNIT()
);
#595=SHAPE_DEFINITION_REPRESENTATION(#596,#597);
#596=PRODUCT_DEFINITION_SHAPE('',$,#599);
#597=SHAPE_REPRESENTATION('',(#334),#590);
#598=PRODUCT_DEFINITION_CONTEXT('part definition',#603,'design');
#599=PRODUCT_DEFINITION('322076054_Steelpres','322076054_Steelpres',#600,
#598);
#600=PRODUCT_DEFINITION_FORMATION('0',$,#605);
#601=PRODUCT_RELATED_PRODUCT_CATEGORY('322076054_Steelpres',
'322076054_Steelpres',(#605));
#602=APPLICATION_PROTOCOL_DEFINITION('international standard',
'automotive_design',2009,#603);
#603=APPLICATION_CONTEXT(
'Core Data for Automotive Mechanical Design Process');
#604=PRODUCT_CONTEXT('part definition',#603,'mechanical');
#605=PRODUCT('322076054_Steelpres','322076054_Steelpres',
'ADATTORE "VICTAULIC" 76-54 STEEL',(#604));
#606=PRESENTATION_STYLE_ASSIGNMENT((#607));
#607=SURFACE_STYLE_USAGE(.BOTH.,#610);
#608=SURFACE_STYLE_RENDERING_WITH_PROPERTIES($,#614,(#609));
#609=SURFACE_STYLE_TRANSPARENT(0.);
#610=SURFACE_SIDE_STYLE('',(#611,#608));
#611=SURFACE_STYLE_FILL_AREA(#612);
#612=FILL_AREA_STYLE('',(#613));
#613=FILL_AREA_STYLE_COLOUR('',#614);
#614=COLOUR_RGB('',0.886274509803922,0.917647058823529,0.894117647058824);
ENDSEC;
END-ISO-10303-21;
