ISO-10303-21;
HEADER;
FILE_DESCRIPTION (( 'STEP AP203' ),
    '1' );
FILE_NAME ('3D_R243_76.1_17386550.STEP',
    '2024-08-06T09:59:43',
    ( '' ),
    ( '' ),
    'SwSTEP 2.0',
    'SolidWorks 2024',
    '' );
FILE_SCHEMA (( 'CONFIG_CONTROL_DESIGN' ));
ENDSEC;

DATA;
#1 = APPROVAL ( #10, 'UNSPECIFIED' ) ;
#2 = CARTESIAN_POINT ( 'NONE',  ( 0.000000000000000000, 0.000000000000000000, -68.50000000000000000 ) ) ;
#3 = CARTESIAN_POINT ( 'NONE',  ( 8.388830574159368693E-15, 4.000000000000000000, 68.50000000000000000 ) ) ;
#4 = DESIGN_CONTEXT ( 'detailed design', #182, 'design' ) ;
#5 = DIRECTION ( 'NONE',  ( 0.000000000000000000, 0.000000000000000000, 1.000000000000000000 ) ) ;
#6 = CC_DESIGN_APPROVAL ( #1, ( #200 ) ) ;
#7 = DATE_AND_TIME ( #74, #193 ) ;
#8 = PERSON_AND_ORGANIZATION ( #225, #104 ) ;
#9 = AXIS2_PLACEMENT_3D ( 'NONE', #61, #156, #138 ) ;
#10 = APPROVAL_STATUS ( 'not_yet_approved' ) ;
#11 = PRODUCT ( '3D_R243_76.1_17386550', '3D_R243_76.1_17386550', '', ( #72 ) ) ;
#12 = EDGE_LOOP ( 'NONE', ( #39, #110, #120, #211 ) ) ;
#13 = ADVANCED_FACE ( 'NONE', ( #214, #16 ), #154, .F. ) ;
#14 = APPROVAL_PERSON_ORGANIZATION ( #49, #181, #135 ) ;
#15 = DIRECTION ( 'NONE',  ( 0.000000000000000000, 1.000000000000000000, 0.000000000000000000 ) ) ;
#16 = FACE_BOUND ( 'NONE', #248, .T. ) ;
#17 = EDGE_CURVE ( 'NONE', #195, #245, #41, .T. ) ;
#18 = ORIENTED_EDGE ( 'NONE', *, *, #134, .F. ) ;
#19 = CARTESIAN_POINT ( 'NONE',  ( 0.000000000000000000, 0.000000000000000000, 0.000000000000000000 ) ) ;
#20 = DIRECTION ( 'NONE',  ( -0.000000000000000000, -1.000000000000000000, -0.000000000000000000 ) ) ;
#21 = EDGE_CURVE ( 'NONE', #133, #196, #228, .T. ) ;
#22 = APPROVAL_PERSON_ORGANIZATION ( #8, #109, #54 ) ;
#23 = FACE_OUTER_BOUND ( 'NONE', #95, .T. ) ;
#24 = CARTESIAN_POINT ( 'NONE',  ( 0.000000000000000000, 4.000000000000000000, 0.000000000000000000 ) ) ;
#25 = DATE_TIME_ROLE ( 'classification_date' ) ;
#26 = CIRCLE ( 'NONE', #117, 68.50000000000000000 ) ;
#27 = EDGE_LOOP ( 'NONE', ( #176, #187, #171, #18 ) ) ;
#28 = CC_DESIGN_DATE_AND_TIME_ASSIGNMENT ( #205, #25, ( #200 ) ) ;
#29 = PERSON_AND_ORGANIZATION_ROLE ( 'design_supplier' ) ;
#30 = PERSON_AND_ORGANIZATION_ROLE ( 'creator' ) ;
#31 = CIRCLE ( 'NONE', #127, 38.50000000000000000 ) ;
#32 = ORIENTED_EDGE ( 'NONE', *, *, #21, .F. ) ;
#33 = EDGE_CURVE ( 'NONE', #38, #133, #218, .T. ) ;
#34 = DIRECTION ( 'NONE',  ( 0.000000000000000000, 0.000000000000000000, 1.000000000000000000 ) ) ;
#35 = CIRCLE ( 'NONE', #108, 38.50000000000000000 ) ;
#36 = CARTESIAN_POINT ( 'NONE',  ( 0.000000000000000000, 4.000000000000000000, -38.50000000000000000 ) ) ;
#37 = MANIFOLD_SOLID_BREP ( 'Aufsatz-Linear austragen1', #136 ) ;
#38 = VERTEX_POINT ( 'NONE', #36 ) ;
#39 = ORIENTED_EDGE ( 'NONE', *, *, #207, .F. ) ;
#40 = CYLINDRICAL_SURFACE ( 'NONE', #122, 38.50000000000000000 ) ;
#41 = CIRCLE ( 'NONE', #129, 68.50000000000000000 ) ;
#42 = AXIS2_PLACEMENT_3D ( 'NONE', #128, #162, #102 ) ;
#43 = CARTESIAN_POINT ( 'NONE',  ( 0.000000000000000000, 0.000000000000000000, 0.000000000000000000 ) ) ;
#44 = DIRECTION ( 'NONE',  ( -0.000000000000000000, -1.000000000000000000, -0.000000000000000000 ) ) ;
#45 = CARTESIAN_POINT ( 'NONE',  ( 0.000000000000000000, 0.000000000000000000, 0.000000000000000000 ) ) ;
#46 = AXIS2_PLACEMENT_3D ( 'NONE', #147, #44, #48 ) ;
#47 = EDGE_CURVE ( 'NONE', #245, #195, #113, .T. ) ;
#48 = DIRECTION ( 'NONE',  ( 0.000000000000000000, 0.000000000000000000, -1.000000000000000000 ) ) ;
#49 = PERSON_AND_ORGANIZATION ( #225, #104 ) ;
#50 = EDGE_LOOP ( 'NONE', ( #172, #191 ) ) ;
#51 = APPLICATION_PROTOCOL_DEFINITION ( 'international standard', 'config_control_design', 1994, #100 ) ;
#52 = ORIENTED_EDGE ( 'NONE', *, *, #68, .F. ) ;
#53 = CC_DESIGN_APPROVAL ( #181, ( #237 ) ) ;
#54 = APPROVAL_ROLE ( '' ) ;
#55 = EDGE_LOOP ( 'NONE', ( #32, #230, #115, #118 ) ) ;
#56 = APPLICATION_PROTOCOL_DEFINITION ( 'international standard', 'config_control_design', 1994, #182 ) ;
#57 = PERSON_AND_ORGANIZATION ( #225, #104 ) ;
#58 = AXIS2_PLACEMENT_3D ( 'NONE', #175, #82, #96 ) ;
#59 = EDGE_CURVE ( 'NONE', #170, #196, #31, .T. ) ;
#60 = ORIENTED_EDGE ( 'NONE', *, *, #125, .F. ) ;
#61 = CARTESIAN_POINT ( 'NONE',  ( 0.000000000000000000, 4.000000000000000000, 0.000000000000000000 ) ) ;
#62 = CARTESIAN_POINT ( 'NONE',  ( 4.714890176717309515E-15, 4.000000000000000000, 38.50000000000000000 ) ) ;
#63 = AXIS2_PLACEMENT_3D ( 'NONE', #24, #126, #106 ) ;
#64 = LINE ( 'NONE', #142, #206 ) ;
#65 = CARTESIAN_POINT ( 'NONE',  ( 0.000000000000000000, 4.000000000000000000, 0.000000000000000000 ) ) ;
#66 = CARTESIAN_POINT ( 'NONE',  ( 8.388830574159368693E-15, 0.000000000000000000, 68.50000000000000000 ) ) ;
#67 = CARTESIAN_POINT ( 'NONE',  ( 4.714890176717309515E-15, 4.000000000000000000, 38.50000000000000000 ) ) ;
#68 = EDGE_CURVE ( 'NONE', #38, #170, #64, .T. ) ;
#69 = CARTESIAN_POINT ( 'NONE',  ( 8.388830574159368693E-15, 4.000000000000000000, 68.50000000000000000 ) ) ;
#70 = EDGE_CURVE ( 'NONE', #133, #38, #227, .T. ) ;
#71 = DIRECTION ( 'NONE',  ( 0.000000000000000000, 1.000000000000000000, 0.000000000000000000 ) ) ;
#72 = MECHANICAL_CONTEXT ( 'NONE', #100, 'mechanical' ) ;
#73 = PERSON_AND_ORGANIZATION_ROLE ( 'creator' ) ;
#74 = CALENDAR_DATE ( 2024, 6, 8 ) ;
#75 = EDGE_CURVE ( 'NONE', #97, #78, #26, .T. ) ;
#76 = ORIENTED_EDGE ( 'NONE', *, *, #59, .F. ) ;
#77 = DIRECTION ( 'NONE',  ( 0.000000000000000000, 1.000000000000000000, 0.000000000000000000 ) ) ;
#78 = VERTEX_POINT ( 'NONE', #2 ) ;
#79 = DIRECTION ( 'NONE',  ( 0.000000000000000000, 1.000000000000000000, 0.000000000000000000 ) ) ;
#80 = CIRCLE ( 'NONE', #155, 68.50000000000000000 ) ;
#81 = DIRECTION ( 'NONE',  ( 0.000000000000000000, 0.000000000000000000, 1.000000000000000000 ) ) ;
#82 = DIRECTION ( 'NONE',  ( 0.000000000000000000, 1.000000000000000000, 0.000000000000000000 ) ) ;
#83 = DIRECTION ( 'NONE',  ( 0.000000000000000000, 0.000000000000000000, 1.000000000000000000 ) ) ;
#84 = DIRECTION ( 'NONE',  ( 0.000000000000000000, 0.000000000000000000, 1.000000000000000000 ) ) ;
#85 = FACE_OUTER_BOUND ( 'NONE', #55, .T. ) ;
#86 = CC_DESIGN_PERSON_AND_ORGANIZATION_ASSIGNMENT ( #184, #73, ( #237 ) ) ;
#87 = PLANE ( 'NONE',  #189 ) ;
#88 = CALENDAR_DATE ( 2024, 6, 8 ) ;
#89 = VECTOR ( 'NONE', #229, 1000.000000000000000 ) ;
#90 = PERSON_AND_ORGANIZATION ( #225, #104 ) ;
#91 = DIRECTION ( 'NONE',  ( 1.000000000000000000, 0.000000000000000000, 0.000000000000000000 ) ) ;
#92 = COORDINATED_UNIVERSAL_TIME_OFFSET ( 1, 0, .AHEAD. ) ;
#93 = CARTESIAN_POINT ( 'NONE',  ( 0.000000000000000000, 4.000000000000000000, 0.000000000000000000 ) ) ;
#94 = VECTOR ( 'NONE', #199, 1000.000000000000000 ) ;
#95 = EDGE_LOOP ( 'NONE', ( #139, #232, #76, #52 ) ) ;
#96 = DIRECTION ( 'NONE',  ( 0.000000000000000000, -0.000000000000000000, 1.000000000000000000 ) ) ;
#97 = VERTEX_POINT ( 'NONE', #66 ) ;
#98 = LOCAL_TIME ( 11, 59, 43.00000000000000000, #132 ) ;
#99 = ORIENTED_EDGE ( 'NONE', *, *, #59, .T. ) ;
#100 = APPLICATION_CONTEXT ( 'configuration controlled 3d designs of mechanical parts and assemblies' ) ;
#101 = FACE_OUTER_BOUND ( 'NONE', #50, .T. ) ;
#102 = DIRECTION ( 'NONE',  ( 0.000000000000000000, 0.000000000000000000, -1.000000000000000000 ) ) ;
#103 = ADVANCED_FACE ( 'NONE', ( #23 ), #40, .F. ) ;
#104 = ORGANIZATION ( 'UNSPECIFIED', 'UNSPECIFIED', '' ) ;
#105 = CYLINDRICAL_SURFACE ( 'NONE', #63, 68.50000000000000000 ) ;
#106 = DIRECTION ( 'NONE',  ( 0.000000000000000000, 0.000000000000000000, -1.000000000000000000 ) ) ;
#107 = AXIS2_PLACEMENT_3D ( 'NONE', #143, #215, #83 ) ;
#108 = AXIS2_PLACEMENT_3D ( 'NONE', #45, #71, #84 ) ;
#109 = APPROVAL ( #222, 'UNSPECIFIED' ) ;
#110 = ORIENTED_EDGE ( 'NONE', *, *, #47, .F. ) ;
#111 = COORDINATED_UNIVERSAL_TIME_OFFSET ( 1, 0, .AHEAD. ) ;
#112 = APPROVAL_ROLE ( '' ) ;
#113 = CIRCLE ( 'NONE', #246, 68.50000000000000000 ) ;
#114 = PERSON_AND_ORGANIZATION_ROLE ( 'classification_officer' ) ;
#115 = ORIENTED_EDGE ( 'NONE', *, *, #68, .T. ) ;
#116 = CARTESIAN_POINT ( 'NONE',  ( 0.000000000000000000, 0.000000000000000000, 0.000000000000000000 ) ) ;
#117 = AXIS2_PLACEMENT_3D ( 'NONE', #43, #220, #233 ) ;
#118 = ORIENTED_EDGE ( 'NONE', *, *, #166, .F. ) ;
#119 = ORIENTED_EDGE ( 'NONE', *, *, #33, .F. ) ;
#120 = ORIENTED_EDGE ( 'NONE', *, *, #134, .T. ) ;
#121 = CC_DESIGN_PERSON_AND_ORGANIZATION_ASSIGNMENT ( #167, #30, ( #150 ) ) ;
#122 = AXIS2_PLACEMENT_3D ( 'NONE', #178, #238, #123 ) ;
#123 = DIRECTION ( 'NONE',  ( 0.000000000000000000, 0.000000000000000000, -1.000000000000000000 ) ) ;
#124 =( NAMED_UNIT ( * ) PLANE_ANGLE_UNIT ( ) SI_UNIT ( $, .RADIAN. ) );
#125 = EDGE_CURVE ( 'NONE', #78, #97, #80, .T. ) ;
#126 = DIRECTION ( 'NONE',  ( -0.000000000000000000, -1.000000000000000000, -0.000000000000000000 ) ) ;
#127 = AXIS2_PLACEMENT_3D ( 'NONE', #116, #15, #231 ) ;
#128 = CARTESIAN_POINT ( 'NONE',  ( 0.000000000000000000, 4.000000000000000000, 0.000000000000000000 ) ) ;
#129 = AXIS2_PLACEMENT_3D ( 'NONE', #93, #77, #81 ) ;
#130 = DIRECTION ( 'NONE',  ( 0.000000000000000000, -0.000000000000000000, 1.000000000000000000 ) ) ;
#131 = PERSON_AND_ORGANIZATION_ROLE ( 'design_owner' ) ;
#132 = COORDINATED_UNIVERSAL_TIME_OFFSET ( 1, 0, .AHEAD. ) ;
#133 = VERTEX_POINT ( 'NONE', #67 ) ;
#134 = EDGE_CURVE ( 'NONE', #245, #78, #197, .T. ) ;
#135 = APPROVAL_ROLE ( '' ) ;
#136 = CLOSED_SHELL ( 'NONE', ( #103, #241, #174, #13, #244, #217 ) ) ;
#137 = LOCAL_TIME ( 11, 59, 43.00000000000000000, #111 ) ;
#138 = DIRECTION ( 'NONE',  ( 0.000000000000000000, 0.000000000000000000, 1.000000000000000000 ) ) ;
#139 = ORIENTED_EDGE ( 'NONE', *, *, #33, .T. ) ;
#140 = CC_DESIGN_PERSON_AND_ORGANIZATION_ASSIGNMENT ( #90, #29, ( #150 ) ) ;
#141 = EDGE_LOOP ( 'NONE', ( #119, #209 ) ) ;
#142 = CARTESIAN_POINT ( 'NONE',  ( 0.000000000000000000, 4.000000000000000000, -38.50000000000000000 ) ) ;
#143 = CARTESIAN_POINT ( 'NONE',  ( 0.000000000000000000, 4.000000000000000000, 0.000000000000000000 ) ) ;
#144 = CARTESIAN_POINT ( 'NONE',  ( 0.000000000000000000, 0.000000000000000000, -38.50000000000000000 ) ) ;
#145 = FACE_OUTER_BOUND ( 'NONE', #27, .T. ) ;
#146 = CARTESIAN_POINT ( 'NONE',  ( 0.000000000000000000, 4.000000000000000000, -68.50000000000000000 ) ) ;
#147 = CARTESIAN_POINT ( 'NONE',  ( 0.000000000000000000, 4.000000000000000000, 0.000000000000000000 ) ) ;
#148 = DATE_AND_TIME ( #169, #137 ) ;
#149 = COORDINATED_UNIVERSAL_TIME_OFFSET ( 1, 0, .AHEAD. ) ;
#150 = PRODUCT_DEFINITION_FORMATION_WITH_SPECIFIED_SOURCE ( 'ANY', '', #11, .NOT_KNOWN. ) ;
#151 = APPROVAL_STATUS ( 'not_yet_approved' ) ;
#152 = PRODUCT_DEFINITION_SHAPE ( 'NONE', 'NONE',  #237 ) ;
#153 = CC_DESIGN_DATE_AND_TIME_ASSIGNMENT ( #7, #223, ( #237 ) ) ;
#154 = PLANE ( 'NONE',  #58 ) ;
#155 = AXIS2_PLACEMENT_3D ( 'NONE', #19, #236, #5 ) ;
#156 = DIRECTION ( 'NONE',  ( 0.000000000000000000, 1.000000000000000000, 0.000000000000000000 ) ) ;
#157 = CARTESIAN_POINT ( 'NONE',  ( 0.000000000000000000, 4.000000000000000000, -68.50000000000000000 ) ) ;
#158 = CARTESIAN_POINT ( 'NONE',  ( 0.000000000000000000, 4.000000000000000000, 0.000000000000000000 ) ) ;
#159 = UNCERTAINTY_MEASURE_WITH_UNIT (LENGTH_MEASURE( 1.000000000000000082E-05 ), #234, 'distance_accuracy_value', 'NONE');
#160 = VECTOR ( 'NONE', #20, 1000.000000000000000 ) ;
#161 = CC_DESIGN_PERSON_AND_ORGANIZATION_ASSIGNMENT ( #242, #131, ( #11 ) ) ;
#162 = DIRECTION ( 'NONE',  ( -0.000000000000000000, -1.000000000000000000, -0.000000000000000000 ) ) ;
#163 = APPROVAL_DATE_TIME ( #148, #1 ) ;
#164 = CC_DESIGN_SECURITY_CLASSIFICATION ( #200, ( #150 ) ) ;
#165 = PERSON_AND_ORGANIZATION ( #225, #104 ) ;
#166 = EDGE_CURVE ( 'NONE', #196, #170, #35, .T. ) ;
#167 = PERSON_AND_ORGANIZATION ( #225, #104 ) ;
#168 = CC_DESIGN_APPROVAL ( #109, ( #150 ) ) ;
#169 = CALENDAR_DATE ( 2024, 6, 8 ) ;
#170 = VERTEX_POINT ( 'NONE', #144 ) ;
#171 = ORIENTED_EDGE ( 'NONE', *, *, #75, .T. ) ;
#172 = ORIENTED_EDGE ( 'NONE', *, *, #47, .T. ) ;
#173 = ORIENTED_EDGE ( 'NONE', *, *, #75, .F. ) ;
#174 = ADVANCED_FACE ( 'NONE', ( #101, #216 ), #87, .T. ) ;
#175 = CARTESIAN_POINT ( 'NONE',  ( 0.000000000000000000, 0.000000000000000000, 0.000000000000000000 ) ) ;
#176 = ORIENTED_EDGE ( 'NONE', *, *, #17, .F. ) ;
#177 = CARTESIAN_POINT ( 'NONE',  ( 4.714890176717309515E-15, 0.000000000000000000, 38.50000000000000000 ) ) ;
#178 = CARTESIAN_POINT ( 'NONE',  ( 0.000000000000000000, 4.000000000000000000, 0.000000000000000000 ) ) ;
#179 =( NAMED_UNIT ( * ) SI_UNIT ( $, .STERADIAN. ) SOLID_ANGLE_UNIT ( ) );
#180 = FACE_OUTER_BOUND ( 'NONE', #12, .T. ) ;
#181 = APPROVAL ( #151, 'UNSPECIFIED' ) ;
#182 = APPLICATION_CONTEXT ( 'configuration controlled 3d designs of mechanical parts and assemblies' ) ;
#183 = CYLINDRICAL_SURFACE ( 'NONE', #42, 68.50000000000000000 ) ;
#184 = PERSON_AND_ORGANIZATION ( #225, #104 ) ;
#185 = DATE_AND_TIME ( #202, #247 ) ;
#186 = CC_DESIGN_PERSON_AND_ORGANIZATION_ASSIGNMENT ( #57, #114, ( #200 ) ) ;
#187 = ORIENTED_EDGE ( 'NONE', *, *, #207, .T. ) ;
#188 = COORDINATED_UNIVERSAL_TIME_OFFSET ( 1, 0, .AHEAD. ) ;
#189 = AXIS2_PLACEMENT_3D ( 'NONE', #158, #239, #130 ) ;
#190 = APPROVAL_DATE_TIME ( #204, #109 ) ;
#191 = ORIENTED_EDGE ( 'NONE', *, *, #17, .T. ) ;
#192 = EDGE_LOOP ( 'NONE', ( #60, #173 ) ) ;
#193 = LOCAL_TIME ( 11, 59, 43.00000000000000000, #149 ) ;
#194 = ADVANCED_BREP_SHAPE_REPRESENTATION ( '3D_R243_76.1_17386550', ( #37, #235 ), #212 ) ;
#195 = VERTEX_POINT ( 'NONE', #3 ) ;
#196 = VERTEX_POINT ( 'NONE', #177 ) ;
#197 = LINE ( 'NONE', #146, #94 ) ;
#198 = PRODUCT_RELATED_PRODUCT_CATEGORY ( 'detail', '', ( #11 ) ) ;
#199 = DIRECTION ( 'NONE',  ( -0.000000000000000000, -1.000000000000000000, -0.000000000000000000 ) ) ;
#200 = SECURITY_CLASSIFICATION ( '', '', #226 ) ;
#201 = CYLINDRICAL_SURFACE ( 'NONE', #46, 38.50000000000000000 ) ;
#202 = CALENDAR_DATE ( 2024, 6, 8 ) ;
#203 = CALENDAR_DATE ( 2024, 6, 8 ) ;
#204 = DATE_AND_TIME ( #203, #98 ) ;
#205 = DATE_AND_TIME ( #88, #208 ) ;
#206 = VECTOR ( 'NONE', #213, 1000.000000000000000 ) ;
#207 = EDGE_CURVE ( 'NONE', #195, #97, #249, .T. ) ;
#208 = LOCAL_TIME ( 11, 59, 43.00000000000000000, #188 ) ;
#209 = ORIENTED_EDGE ( 'NONE', *, *, #70, .F. ) ;
#210 = ORIENTED_EDGE ( 'NONE', *, *, #166, .T. ) ;
#211 = ORIENTED_EDGE ( 'NONE', *, *, #125, .T. ) ;
#212 =( GEOMETRIC_REPRESENTATION_CONTEXT ( 3 ) GLOBAL_UNCERTAINTY_ASSIGNED_CONTEXT ( ( #159 ) ) GLOBAL_UNIT_ASSIGNED_CONTEXT ( ( #234, #124, #179 ) ) REPRESENTATION_CONTEXT ( 'NONE', 'WORKASPACE' ) );
#213 = DIRECTION ( 'NONE',  ( -0.000000000000000000, -1.000000000000000000, -0.000000000000000000 ) ) ;
#214 = FACE_OUTER_BOUND ( 'NONE', #192, .T. ) ;
#215 = DIRECTION ( 'NONE',  ( 0.000000000000000000, 1.000000000000000000, 0.000000000000000000 ) ) ;
#216 = FACE_BOUND ( 'NONE', #141, .T. ) ;
#217 = ADVANCED_FACE ( 'NONE', ( #85 ), #201, .F. ) ;
#218 = CIRCLE ( 'NONE', #9, 38.50000000000000000 ) ;
#219 = APPROVAL_PERSON_ORGANIZATION ( #165, #1, #112 ) ;
#220 = DIRECTION ( 'NONE',  ( 0.000000000000000000, 1.000000000000000000, 0.000000000000000000 ) ) ;
#221 = SHAPE_DEFINITION_REPRESENTATION ( #152, #194 ) ;
#222 = APPROVAL_STATUS ( 'not_yet_approved' ) ;
#223 = DATE_TIME_ROLE ( 'creation_date' ) ;
#224 = CARTESIAN_POINT ( 'NONE',  ( 0.000000000000000000, 0.000000000000000000, 0.000000000000000000 ) ) ;
#225 = PERSON ( 'UNSPECIFIED', 'UNSPECIFIED', 'UNSPECIFIED', ('UNSPECIFIED'), ('UNSPECIFIED'), ('UNSPECIFIED') ) ;
#226 = SECURITY_CLASSIFICATION_LEVEL ( 'unclassified' ) ;
#227 = CIRCLE ( 'NONE', #107, 38.50000000000000000 ) ;
#228 = LINE ( 'NONE', #62, #89 ) ;
#229 = DIRECTION ( 'NONE',  ( -0.000000000000000000, -1.000000000000000000, -0.000000000000000000 ) ) ;
#230 = ORIENTED_EDGE ( 'NONE', *, *, #70, .T. ) ;
#231 = DIRECTION ( 'NONE',  ( 0.000000000000000000, 0.000000000000000000, 1.000000000000000000 ) ) ;
#232 = ORIENTED_EDGE ( 'NONE', *, *, #21, .T. ) ;
#233 = DIRECTION ( 'NONE',  ( 0.000000000000000000, 0.000000000000000000, 1.000000000000000000 ) ) ;
#234 =( LENGTH_UNIT ( ) NAMED_UNIT ( * ) SI_UNIT ( .MILLI., .METRE. ) );
#235 = AXIS2_PLACEMENT_3D ( 'NONE', #224, #243, #91 ) ;
#236 = DIRECTION ( 'NONE',  ( 0.000000000000000000, 1.000000000000000000, 0.000000000000000000 ) ) ;
#237 = PRODUCT_DEFINITION ( 'UNKNOWN', '', #150, #4 ) ;
#238 = DIRECTION ( 'NONE',  ( -0.000000000000000000, -1.000000000000000000, -0.000000000000000000 ) ) ;
#239 = DIRECTION ( 'NONE',  ( 0.000000000000000000, 1.000000000000000000, 0.000000000000000000 ) ) ;
#240 = APPROVAL_DATE_TIME ( #185, #181 ) ;
#241 = ADVANCED_FACE ( 'NONE', ( #145 ), #105, .T. ) ;
#242 = PERSON_AND_ORGANIZATION ( #225, #104 ) ;
#243 = DIRECTION ( 'NONE',  ( 0.000000000000000000, 0.000000000000000000, 1.000000000000000000 ) ) ;
#244 = ADVANCED_FACE ( 'NONE', ( #180 ), #183, .T. ) ;
#245 = VERTEX_POINT ( 'NONE', #157 ) ;
#246 = AXIS2_PLACEMENT_3D ( 'NONE', #65, #79, #34 ) ;
#247 = LOCAL_TIME ( 11, 59, 43.00000000000000000, #92 ) ;
#248 = EDGE_LOOP ( 'NONE', ( #99, #210 ) ) ;
#249 = LINE ( 'NONE', #69, #160 ) ;
ENDSEC;
END-ISO-10303-21;
