ISO-10303-21;
HEADER;
FILE_DESCRIPTION (( 'STEP AP203' ),
    '1' );
FILE_NAME ('3D_R245_273_17386200.STEP',
    '2024-08-06T09:37:30',
    ( '' ),
    ( '' ),
    'SwSTEP 2.0',
    'SolidWorks 2024',
    '' );
FILE_SCHEMA (( 'CONFIG_CONTROL_DESIGN' ));
ENDSEC;

DATA;
#1 = CARTESIAN_POINT ( 'NONE',  ( 0.000000000000000000, 0.000000000000000000, 0.000000000000000000 ) ) ;
#2 = APPLICATION_PROTOCOL_DEFINITION ( 'international standard', 'config_control_design', 1994, #44 ) ;
#3 = EDGE_CURVE ( 'NONE', #4, #200, #32, .T. ) ;
#4 = VERTEX_POINT ( 'NONE', #106 ) ;
#5 = CC_DESIGN_PERSON_AND_ORGANIZATION_ASSIGNMENT ( #15, #57, ( #6 ) ) ;
#6 = PRODUCT ( '3D_R245_273_17386200', '3D_R245_273_17386200', '', ( #226 ) ) ;
#7 = EDGE_LOOP ( 'NONE', ( #9, #156, #175, #161 ) ) ;
#8 = SECURITY_CLASSIFICATION ( '', '', #236 ) ;
#9 = ORIENTED_EDGE ( 'NONE', *, *, #199, .F. ) ;
#10 = PLANE ( 'NONE',  #231 ) ;
#11 = AXIS2_PLACEMENT_3D ( 'NONE', #144, #204, #127 ) ;
#12 = VERTEX_POINT ( 'NONE', #222 ) ;
#13 = DIRECTION ( 'NONE',  ( 0.000000000000000000, 0.000000000000000000, 1.000000000000000000 ) ) ;
#14 = CARTESIAN_POINT ( 'NONE',  ( 0.000000000000000000, 4.000000000000000000, 0.000000000000000000 ) ) ;
#15 = PERSON_AND_ORGANIZATION ( #233, #229 ) ;
#16 = PERSON_AND_ORGANIZATION_ROLE ( 'creator' ) ;
#17 = DIRECTION ( 'NONE',  ( 0.000000000000000000, 0.000000000000000000, 1.000000000000000000 ) ) ;
#18 = DIRECTION ( 'NONE',  ( 0.000000000000000000, 1.000000000000000000, 0.000000000000000000 ) ) ;
#19 = CIRCLE ( 'NONE', #207, 186.9999999999999716 ) ;
#20 = CIRCLE ( 'NONE', #98, 186.9999999999999716 ) ;
#21 = LINE ( 'NONE', #136, #141 ) ;
#22 = DATE_TIME_ROLE ( 'creation_date' ) ;
#23 = AXIS2_PLACEMENT_3D ( 'NONE', #36, #55, #17 ) ;
#24 = PERSON_AND_ORGANIZATION ( #233, #229 ) ;
#25 = APPROVAL_STATUS ( 'not_yet_approved' ) ;
#26 = PERSON_AND_ORGANIZATION ( #233, #229 ) ;
#27 = EDGE_LOOP ( 'NONE', ( #65, #243 ) ) ;
#28 = LOCAL_TIME ( 11, 37, 30.00000000000000000, #213 ) ;
#29 = DIRECTION ( 'NONE',  ( 0.000000000000000000, 1.000000000000000000, 0.000000000000000000 ) ) ;
#30 = ORIENTED_EDGE ( 'NONE', *, *, #181, .F. ) ;
#31 = FACE_OUTER_BOUND ( 'NONE', #132, .T. ) ;
#32 = LINE ( 'NONE', #84, #197 ) ;
#33 = VECTOR ( 'NONE', #115, 1000.000000000000000 ) ;
#34 = PLANE ( 'NONE',  #135 ) ;
#35 = ADVANCED_FACE ( 'NONE', ( #74, #66 ), #10, .T. ) ;
#36 = CARTESIAN_POINT ( 'NONE',  ( 0.000000000000000000, 0.000000000000000000, 0.000000000000000000 ) ) ;
#37 = CARTESIAN_POINT ( 'NONE',  ( 0.000000000000000000, 4.000000000000000000, 0.000000000000000000 ) ) ;
#38 = LINE ( 'NONE', #111, #33 ) ;
#39 = CALENDAR_DATE ( 2024, 6, 8 ) ;
#40 = CALENDAR_DATE ( 2024, 6, 8 ) ;
#41 = CC_DESIGN_PERSON_AND_ORGANIZATION_ASSIGNMENT ( #24, #117, ( #73 ) ) ;
#42 = ORIENTED_EDGE ( 'NONE', *, *, #3, .F. ) ;
#43 = APPROVAL_ROLE ( '' ) ;
#44 = APPLICATION_CONTEXT ( 'configuration controlled 3d designs of mechanical parts and assemblies' ) ;
#45 = CIRCLE ( 'NONE', #122, 186.9999999999999716 ) ;
#46 = ORIENTED_EDGE ( 'NONE', *, *, #212, .T. ) ;
#47 = EDGE_LOOP ( 'NONE', ( #102, #30 ) ) ;
#48 = FACE_OUTER_BOUND ( 'NONE', #163, .T. ) ;
#49 = ADVANCED_FACE ( 'NONE', ( #31 ), #149, .T. ) ;
#50 = DIRECTION ( 'NONE',  ( 0.000000000000000000, 0.000000000000000000, 1.000000000000000000 ) ) ;
#51 = DIRECTION ( 'NONE',  ( 0.000000000000000000, 0.000000000000000000, 1.000000000000000000 ) ) ;
#52 = DIRECTION ( 'NONE',  ( -0.000000000000000000, -1.000000000000000000, -0.000000000000000000 ) ) ;
#53 = DIRECTION ( 'NONE',  ( 0.000000000000000000, 1.000000000000000000, 0.000000000000000000 ) ) ;
#54 = DIRECTION ( 'NONE',  ( 0.000000000000000000, 0.000000000000000000, 1.000000000000000000 ) ) ;
#55 = DIRECTION ( 'NONE',  ( 0.000000000000000000, 1.000000000000000000, 0.000000000000000000 ) ) ;
#56 = CIRCLE ( 'NONE', #80, 137.0000000000000000 ) ;
#57 = PERSON_AND_ORGANIZATION_ROLE ( 'design_owner' ) ;
#58 = CARTESIAN_POINT ( 'NONE',  ( 0.000000000000000000, 4.000000000000000000, -186.9999999999999716 ) ) ;
#59 = CC_DESIGN_DATE_AND_TIME_ASSIGNMENT ( #103, #120, ( #8 ) ) ;
#60 = APPROVAL ( #25, 'UNSPECIFIED' ) ;
#61 = APPROVAL_STATUS ( 'not_yet_approved' ) ;
#62 = EDGE_LOOP ( 'NONE', ( #242, #168 ) ) ;
#63 = AXIS2_PLACEMENT_3D ( 'NONE', #37, #18, #210 ) ;
#64 = DATE_AND_TIME ( #234, #28 ) ;
#65 = ORIENTED_EDGE ( 'NONE', *, *, #193, .T. ) ;
#66 = FACE_BOUND ( 'NONE', #62, .T. ) ;
#67 = AXIS2_PLACEMENT_3D ( 'NONE', #142, #52, #240 ) ;
#68 = LOCAL_TIME ( 11, 37, 30.00000000000000000, #216 ) ;
#69 = ADVANCED_BREP_SHAPE_REPRESENTATION ( '3D_R245_273_17386200', ( #125, #91 ), #143 ) ;
#70 = CARTESIAN_POINT ( 'NONE',  ( 2.290089514405550110E-14, 4.000000000000000000, 186.9999999999999716 ) ) ;
#71 = DIRECTION ( 'NONE',  ( 0.000000000000000000, 1.000000000000000000, 0.000000000000000000 ) ) ;
#72 = CARTESIAN_POINT ( 'NONE',  ( 0.000000000000000000, 0.000000000000000000, 0.000000000000000000 ) ) ;
#73 = PRODUCT_DEFINITION_FORMATION_WITH_SPECIFIED_SOURCE ( 'ANY', '', #6, .NOT_KNOWN. ) ;
#74 = FACE_OUTER_BOUND ( 'NONE', #27, .T. ) ;
#75 =( NAMED_UNIT ( * ) PLANE_ANGLE_UNIT ( ) SI_UNIT ( $, .RADIAN. ) );
#76 = CARTESIAN_POINT ( 'NONE',  ( 0.000000000000000000, 4.000000000000000000, 0.000000000000000000 ) ) ;
#77 = DIRECTION ( 'NONE',  ( 1.000000000000000000, 0.000000000000000000, 0.000000000000000000 ) ) ;
#78 = COORDINATED_UNIVERSAL_TIME_OFFSET ( 1, 0, .AHEAD. ) ;
#79 = PERSON_AND_ORGANIZATION_ROLE ( 'classification_officer' ) ;
#80 = AXIS2_PLACEMENT_3D ( 'NONE', #76, #154, #54 ) ;
#81 = COORDINATED_UNIVERSAL_TIME_OFFSET ( 1, 0, .AHEAD. ) ;
#82 = APPLICATION_CONTEXT ( 'configuration controlled 3d designs of mechanical parts and assemblies' ) ;
#83 = EDGE_LOOP ( 'NONE', ( #238, #198, #169, #85 ) ) ;
#84 = CARTESIAN_POINT ( 'NONE',  ( 0.000000000000000000, 4.000000000000000000, -137.0000000000000000 ) ) ;
#85 = ORIENTED_EDGE ( 'NONE', *, *, #212, .F. ) ;
#86 = AXIS2_PLACEMENT_3D ( 'NONE', #14, #71, #51 ) ;
#87 = AXIS2_PLACEMENT_3D ( 'NONE', #129, #29, #50 ) ;
#88 = CYLINDRICAL_SURFACE ( 'NONE', #194, 186.9999999999999716 ) ;
#89 = CARTESIAN_POINT ( 'NONE',  ( 1.677766114831873739E-14, 4.000000000000000000, 137.0000000000000000 ) ) ;
#90 = DIRECTION ( 'NONE',  ( -0.000000000000000000, -1.000000000000000000, -0.000000000000000000 ) ) ;
#91 = AXIS2_PLACEMENT_3D ( 'NONE', #1, #173, #77 ) ;
#92 = LINE ( 'NONE', #248, #130 ) ;
#93 = APPROVAL ( #61, 'UNSPECIFIED' ) ;
#94 = FACE_OUTER_BOUND ( 'NONE', #7, .T. ) ;
#95 = APPLICATION_PROTOCOL_DEFINITION ( 'international standard', 'config_control_design', 1994, #82 ) ;
#96 = ADVANCED_FACE ( 'NONE', ( #110 ), #88, .T. ) ;
#97 = PERSON_AND_ORGANIZATION_ROLE ( 'design_supplier' ) ;
#98 = AXIS2_PLACEMENT_3D ( 'NONE', #128, #202, #109 ) ;
#99 = APPROVAL_DATE_TIME ( #64, #60 ) ;
#100 = CC_DESIGN_DATE_AND_TIME_ASSIGNMENT ( #232, #22, ( #119 ) ) ;
#101 = CALENDAR_DATE ( 2024, 6, 8 ) ;
#102 = ORIENTED_EDGE ( 'NONE', *, *, #164, .F. ) ;
#103 = DATE_AND_TIME ( #40, #68 ) ;
#104 = CC_DESIGN_APPROVAL ( #150, ( #119 ) ) ;
#105 = DIRECTION ( 'NONE',  ( 0.000000000000000000, 0.000000000000000000, 1.000000000000000000 ) ) ;
#106 = CARTESIAN_POINT ( 'NONE',  ( 0.000000000000000000, 4.000000000000000000, -137.0000000000000000 ) ) ;
#107 = DESIGN_CONTEXT ( 'detailed design', #44, 'design' ) ;
#108 = VERTEX_POINT ( 'NONE', #70 ) ;
#109 = DIRECTION ( 'NONE',  ( 0.000000000000000000, 0.000000000000000000, 1.000000000000000000 ) ) ;
#110 = FACE_OUTER_BOUND ( 'NONE', #83, .T. ) ;
#111 = CARTESIAN_POINT ( 'NONE',  ( 2.290089514405550110E-14, 4.000000000000000000, 186.9999999999999716 ) ) ;
#112 = CC_DESIGN_PERSON_AND_ORGANIZATION_ASSIGNMENT ( #26, #97, ( #73 ) ) ;
#113 = CARTESIAN_POINT ( 'NONE',  ( 0.000000000000000000, 0.000000000000000000, 0.000000000000000000 ) ) ;
#114 = CLOSED_SHELL ( 'NONE', ( #140, #96, #35, #191, #49, #246 ) ) ;
#115 = DIRECTION ( 'NONE',  ( -0.000000000000000000, -1.000000000000000000, -0.000000000000000000 ) ) ;
#116 = AXIS2_PLACEMENT_3D ( 'NONE', #155, #249, #192 ) ;
#117 = PERSON_AND_ORGANIZATION_ROLE ( 'creator' ) ;
#118 = ORIENTED_EDGE ( 'NONE', *, *, #166, .F. ) ;
#119 = PRODUCT_DEFINITION ( 'UNKNOWN', '', #73, #107 ) ;
#120 = DATE_TIME_ROLE ( 'classification_date' ) ;
#121 = EDGE_CURVE ( 'NONE', #4, #182, #206, .T. ) ;
#122 = AXIS2_PLACEMENT_3D ( 'NONE', #221, #133, #105 ) ;
#123 = DATE_AND_TIME ( #101, #131 ) ;
#124 = ORIENTED_EDGE ( 'NONE', *, *, #199, .T. ) ;
#125 = MANIFOLD_SOLID_BREP ( 'Aufsatz-Linear austragen1', #114 ) ;
#126 = ORIENTED_EDGE ( 'NONE', *, *, #208, .F. ) ;
#127 = DIRECTION ( 'NONE',  ( 0.000000000000000000, 0.000000000000000000, -1.000000000000000000 ) ) ;
#128 = CARTESIAN_POINT ( 'NONE',  ( 0.000000000000000000, 4.000000000000000000, 0.000000000000000000 ) ) ;
#129 = CARTESIAN_POINT ( 'NONE',  ( 0.000000000000000000, 0.000000000000000000, 0.000000000000000000 ) ) ;
#130 = VECTOR ( 'NONE', #171, 1000.000000000000000 ) ;
#131 = LOCAL_TIME ( 11, 37, 30.00000000000000000, #138 ) ;
#132 = EDGE_LOOP ( 'NONE', ( #126, #179, #46, #139 ) ) ;
#133 = DIRECTION ( 'NONE',  ( 0.000000000000000000, 1.000000000000000000, 0.000000000000000000 ) ) ;
#134 = APPROVAL_ROLE ( '' ) ;
#135 = AXIS2_PLACEMENT_3D ( 'NONE', #113, #152, #228 ) ;
#136 = CARTESIAN_POINT ( 'NONE',  ( 1.677766114831873739E-14, 4.000000000000000000, 137.0000000000000000 ) ) ;
#137 = PERSON_AND_ORGANIZATION ( #233, #229 ) ;
#138 = COORDINATED_UNIVERSAL_TIME_OFFSET ( 1, 0, .AHEAD. ) ;
#139 = ORIENTED_EDGE ( 'NONE', *, *, #164, .T. ) ;
#140 = ADVANCED_FACE ( 'NONE', ( #48 ), #225, .F. ) ;
#141 = VECTOR ( 'NONE', #245, 1000.000000000000000 ) ;
#142 = CARTESIAN_POINT ( 'NONE',  ( 0.000000000000000000, 4.000000000000000000, 0.000000000000000000 ) ) ;
#143 =( GEOMETRIC_REPRESENTATION_CONTEXT ( 3 ) GLOBAL_UNCERTAINTY_ASSIGNED_CONTEXT ( ( #153 ) ) GLOBAL_UNIT_ASSIGNED_CONTEXT ( ( #151, #75, #186 ) ) REPRESENTATION_CONTEXT ( 'NONE', 'WORKASPACE' ) );
#144 = CARTESIAN_POINT ( 'NONE',  ( 0.000000000000000000, 4.000000000000000000, 0.000000000000000000 ) ) ;
#145 = CC_DESIGN_PERSON_AND_ORGANIZATION_ASSIGNMENT ( #189, #16, ( #119 ) ) ;
#146 = EDGE_LOOP ( 'NONE', ( #239, #196 ) ) ;
#147 = FACE_OUTER_BOUND ( 'NONE', #47, .T. ) ;
#148 = CC_DESIGN_SECURITY_CLASSIFICATION ( #8, ( #73 ) ) ;
#149 = CYLINDRICAL_SURFACE ( 'NONE', #67, 186.9999999999999716 ) ;
#150 = APPROVAL ( #211, 'UNSPECIFIED' ) ;
#151 =( LENGTH_UNIT ( ) NAMED_UNIT ( * ) SI_UNIT ( .MILLI., .METRE. ) );
#152 = DIRECTION ( 'NONE',  ( 0.000000000000000000, 1.000000000000000000, 0.000000000000000000 ) ) ;
#153 = UNCERTAINTY_MEASURE_WITH_UNIT (LENGTH_MEASURE( 1.000000000000000082E-05 ), #151, 'distance_accuracy_value', 'NONE');
#154 = DIRECTION ( 'NONE',  ( 0.000000000000000000, 1.000000000000000000, 0.000000000000000000 ) ) ;
#155 = CARTESIAN_POINT ( 'NONE',  ( 0.000000000000000000, 4.000000000000000000, 0.000000000000000000 ) ) ;
#156 = ORIENTED_EDGE ( 'NONE', *, *, #247, .T. ) ;
#157 = CALENDAR_DATE ( 2024, 6, 8 ) ;
#158 = APPROVAL_ROLE ( '' ) ;
#159 = CIRCLE ( 'NONE', #63, 186.9999999999999716 ) ;
#160 = PERSON_AND_ORGANIZATION ( #233, #229 ) ;
#161 = ORIENTED_EDGE ( 'NONE', *, *, #237, .F. ) ;
#162 = DIRECTION ( 'NONE',  ( 0.000000000000000000, 1.000000000000000000, 0.000000000000000000 ) ) ;
#163 = EDGE_LOOP ( 'NONE', ( #180, #124, #118, #42 ) ) ;
#164 = EDGE_CURVE ( 'NONE', #12, #215, #45, .T. ) ;
#165 = CIRCLE ( 'NONE', #23, 137.0000000000000000 ) ;
#166 = EDGE_CURVE ( 'NONE', #200, #177, #183, .T. ) ;
#167 = DIRECTION ( 'NONE',  ( 0.000000000000000000, 0.000000000000000000, -1.000000000000000000 ) ) ;
#168 = ORIENTED_EDGE ( 'NONE', *, *, #247, .F. ) ;
#169 = ORIENTED_EDGE ( 'NONE', *, *, #181, .T. ) ;
#170 = CC_DESIGN_APPROVAL ( #93, ( #8 ) ) ;
#171 = DIRECTION ( 'NONE',  ( -0.000000000000000000, -1.000000000000000000, -0.000000000000000000 ) ) ;
#172 = CYLINDRICAL_SURFACE ( 'NONE', #116, 137.0000000000000000 ) ;
#173 = DIRECTION ( 'NONE',  ( 0.000000000000000000, 0.000000000000000000, 1.000000000000000000 ) ) ;
#174 = EDGE_CURVE ( 'NONE', #108, #217, #20, .T. ) ;
#175 = ORIENTED_EDGE ( 'NONE', *, *, #3, .T. ) ;
#176 = APPROVAL_DATE_TIME ( #123, #93 ) ;
#177 = VERTEX_POINT ( 'NONE', #184 ) ;
#178 = SHAPE_DEFINITION_REPRESENTATION ( #188, #69 ) ;
#179 = ORIENTED_EDGE ( 'NONE', *, *, #193, .F. ) ;
#180 = ORIENTED_EDGE ( 'NONE', *, *, #121, .T. ) ;
#181 = EDGE_CURVE ( 'NONE', #215, #12, #19, .T. ) ;
#182 = VERTEX_POINT ( 'NONE', #89 ) ;
#183 = CIRCLE ( 'NONE', #87, 137.0000000000000000 ) ;
#184 = CARTESIAN_POINT ( 'NONE',  ( 1.677766114831873739E-14, 0.000000000000000000, 137.0000000000000000 ) ) ;
#185 = DIRECTION ( 'NONE',  ( -0.000000000000000000, -1.000000000000000000, -0.000000000000000000 ) ) ;
#186 =( NAMED_UNIT ( * ) SI_UNIT ( $, .STERADIAN. ) SOLID_ANGLE_UNIT ( ) );
#187 = LOCAL_TIME ( 11, 37, 30.00000000000000000, #81 ) ;
#188 = PRODUCT_DEFINITION_SHAPE ( 'NONE', 'NONE',  #119 ) ;
#189 = PERSON_AND_ORGANIZATION ( #233, #229 ) ;
#190 = CARTESIAN_POINT ( 'NONE',  ( 2.290089514405550110E-14, 0.000000000000000000, 186.9999999999999716 ) ) ;
#191 = ADVANCED_FACE ( 'NONE', ( #147, #223 ), #34, .F. ) ;
#192 = DIRECTION ( 'NONE',  ( 0.000000000000000000, 0.000000000000000000, -1.000000000000000000 ) ) ;
#193 = EDGE_CURVE ( 'NONE', #217, #108, #159, .T. ) ;
#194 = AXIS2_PLACEMENT_3D ( 'NONE', #219, #90, #167 ) ;
#195 = PERSON_AND_ORGANIZATION ( #233, #229 ) ;
#196 = ORIENTED_EDGE ( 'NONE', *, *, #237, .T. ) ;
#197 = VECTOR ( 'NONE', #185, 1000.000000000000000 ) ;
#198 = ORIENTED_EDGE ( 'NONE', *, *, #208, .T. ) ;
#199 = EDGE_CURVE ( 'NONE', #182, #177, #21, .T. ) ;
#200 = VERTEX_POINT ( 'NONE', #209 ) ;
#201 = CARTESIAN_POINT ( 'NONE',  ( 0.000000000000000000, 4.000000000000000000, 0.000000000000000000 ) ) ;
#202 = DIRECTION ( 'NONE',  ( 0.000000000000000000, 1.000000000000000000, 0.000000000000000000 ) ) ;
#203 = APPROVAL_PERSON_ORGANIZATION ( #137, #150, #134 ) ;
#204 = DIRECTION ( 'NONE',  ( -0.000000000000000000, -1.000000000000000000, -0.000000000000000000 ) ) ;
#205 = DATE_AND_TIME ( #39, #220 ) ;
#206 = CIRCLE ( 'NONE', #86, 137.0000000000000000 ) ;
#207 = AXIS2_PLACEMENT_3D ( 'NONE', #72, #53, #13 ) ;
#208 = EDGE_CURVE ( 'NONE', #108, #215, #38, .T. ) ;
#209 = CARTESIAN_POINT ( 'NONE',  ( 0.000000000000000000, 0.000000000000000000, -137.0000000000000000 ) ) ;
#210 = DIRECTION ( 'NONE',  ( 0.000000000000000000, 0.000000000000000000, 1.000000000000000000 ) ) ;
#211 = APPROVAL_STATUS ( 'not_yet_approved' ) ;
#212 = EDGE_CURVE ( 'NONE', #217, #12, #92, .T. ) ;
#213 = COORDINATED_UNIVERSAL_TIME_OFFSET ( 1, 0, .AHEAD. ) ;
#214 = PERSON_AND_ORGANIZATION ( #233, #229 ) ;
#215 = VERTEX_POINT ( 'NONE', #190 ) ;
#216 = COORDINATED_UNIVERSAL_TIME_OFFSET ( 1, 0, .AHEAD. ) ;
#217 = VERTEX_POINT ( 'NONE', #58 ) ;
#218 = PRODUCT_RELATED_PRODUCT_CATEGORY ( 'detail', '', ( #6 ) ) ;
#219 = CARTESIAN_POINT ( 'NONE',  ( 0.000000000000000000, 4.000000000000000000, 0.000000000000000000 ) ) ;
#220 = LOCAL_TIME ( 11, 37, 30.00000000000000000, #78 ) ;
#221 = CARTESIAN_POINT ( 'NONE',  ( 0.000000000000000000, 0.000000000000000000, 0.000000000000000000 ) ) ;
#222 = CARTESIAN_POINT ( 'NONE',  ( 0.000000000000000000, 0.000000000000000000, -186.9999999999999716 ) ) ;
#223 = FACE_BOUND ( 'NONE', #146, .T. ) ;
#224 = APPROVAL_PERSON_ORGANIZATION ( #214, #60, #43 ) ;
#225 = CYLINDRICAL_SURFACE ( 'NONE', #11, 137.0000000000000000 ) ;
#226 = MECHANICAL_CONTEXT ( 'NONE', #82, 'mechanical' ) ;
#227 = CC_DESIGN_PERSON_AND_ORGANIZATION_ASSIGNMENT ( #160, #79, ( #8 ) ) ;
#228 = DIRECTION ( 'NONE',  ( 0.000000000000000000, -0.000000000000000000, 1.000000000000000000 ) ) ;
#229 = ORGANIZATION ( 'UNSPECIFIED', 'UNSPECIFIED', '' ) ;
#230 = APPROVAL_DATE_TIME ( #205, #150 ) ;
#231 = AXIS2_PLACEMENT_3D ( 'NONE', #201, #162, #241 ) ;
#232 = DATE_AND_TIME ( #157, #187 ) ;
#233 = PERSON ( 'UNSPECIFIED', 'UNSPECIFIED', 'UNSPECIFIED', ('UNSPECIFIED'), ('UNSPECIFIED'), ('UNSPECIFIED') ) ;
#234 = CALENDAR_DATE ( 2024, 6, 8 ) ;
#235 = APPROVAL_PERSON_ORGANIZATION ( #195, #93, #158 ) ;
#236 = SECURITY_CLASSIFICATION_LEVEL ( 'unclassified' ) ;
#237 = EDGE_CURVE ( 'NONE', #177, #200, #165, .T. ) ;
#238 = ORIENTED_EDGE ( 'NONE', *, *, #174, .F. ) ;
#239 = ORIENTED_EDGE ( 'NONE', *, *, #166, .T. ) ;
#240 = DIRECTION ( 'NONE',  ( 0.000000000000000000, 0.000000000000000000, -1.000000000000000000 ) ) ;
#241 = DIRECTION ( 'NONE',  ( 0.000000000000000000, -0.000000000000000000, 1.000000000000000000 ) ) ;
#242 = ORIENTED_EDGE ( 'NONE', *, *, #121, .F. ) ;
#243 = ORIENTED_EDGE ( 'NONE', *, *, #174, .T. ) ;
#244 = CC_DESIGN_APPROVAL ( #60, ( #73 ) ) ;
#245 = DIRECTION ( 'NONE',  ( -0.000000000000000000, -1.000000000000000000, -0.000000000000000000 ) ) ;
#246 = ADVANCED_FACE ( 'NONE', ( #94 ), #172, .F. ) ;
#247 = EDGE_CURVE ( 'NONE', #182, #4, #56, .T. ) ;
#248 = CARTESIAN_POINT ( 'NONE',  ( 0.000000000000000000, 4.000000000000000000, -186.9999999999999716 ) ) ;
#249 = DIRECTION ( 'NONE',  ( -0.000000000000000000, -1.000000000000000000, -0.000000000000000000 ) ) ;
ENDSEC;
END-ISO-10303-21;
