ISO-10303-21;
HEADER;
FILE_DESCRIPTION (( 'STEP AP203' ),
    '1' );
FILE_NAME ('3D_R169_ DN28-23_17323160.STEP',
    '2024-07-17T12:10:46',
    ( '' ),
    ( '' ),
    'SwSTEP 2.0',
    'SolidWorks 2024',
    '' );
FILE_SCHEMA (( 'CONFIG_CONTROL_DESIGN' ));
ENDSEC;

DATA;
#1 = ORIENTED_EDGE ( 'NONE', *, *, #31, .T. ) ;
#2 = DIRECTION ( 'NONE',  ( 0.000000000000000000, 0.000000000000000000, -1.000000000000000000 ) ) ;
#3 = CARTESIAN_POINT ( 'NONE',  ( 14.67120202538928631, 0.000000000000000000, 0.000000000000000000 ) ) ;
#4 = CARTESIAN_POINT ( 'NONE',  ( 14.67120202538928631, 1.166746986715569561E-15, -9.527212152335712503 ) ) ;
#5 = DIRECTION ( 'NONE',  ( 0.000000000000000000, 0.000000000000000000, -1.000000000000000000 ) ) ;
#6 = DIRECTION ( 'NONE',  ( -1.000000000000000000, -0.000000000000000000, -0.000000000000000000 ) ) ;
#7 = LOCAL_TIME ( 14, 10, 46.00000000000000000, #73 ) ;
#8 = DATE_TIME_ROLE ( 'classification_date' ) ;
#9 = ADVANCED_FACE ( 'NONE', ( #205 ), #141, .F. ) ;
#10 = EDGE_CURVE ( 'NONE', #93, #116, #50, .T. ) ;
#11 = SHAPE_DEFINITION_REPRESENTATION ( #188, #69 ) ;
#12 = APPLICATION_PROTOCOL_DEFINITION ( 'international standard', 'config_control_design', 1994, #146 ) ;
#13 = ORIENTED_EDGE ( 'NONE', *, *, #198, .F. ) ;
#14 = VECTOR ( 'NONE', #65, 1000.000000000000227 ) ;
#15 = EDGE_LOOP ( 'NONE', ( #149, #1 ) ) ;
#16 = LINE ( 'NONE', #94, #29 ) ;
#17 = CLOSED_SHELL ( 'NONE', ( #99, #232, #206, #37, #33, #9 ) ) ;
#18 = CARTESIAN_POINT ( 'NONE',  ( 15.00000000000000000, 0.000000000000000000, 0.000000000000000000 ) ) ;
#19 = CC_DESIGN_SECURITY_CLASSIFICATION ( #84, ( #110 ) ) ;
#20 = EDGE_CURVE ( 'NONE', #93, #97, #16, .T. ) ;
#21 = ORIENTED_EDGE ( 'NONE', *, *, #74, .F. ) ;
#22 = DIRECTION ( 'NONE',  ( 1.000000000000000000, 0.000000000000000000, 0.000000000000000000 ) ) ;
#23 = CIRCLE ( 'NONE', #158, 14.00000000000000000 ) ;
#24 = CARTESIAN_POINT ( 'NONE',  ( 15.00000000000000000, 0.000000000000000000, 11.50000000000000000 ) ) ;
#25 = AXIS2_PLACEMENT_3D ( 'NONE', #213, #6, #172 ) ;
#26 = DIRECTION ( 'NONE',  ( 1.000000000000000000, 0.000000000000000000, 0.000000000000000000 ) ) ;
#27 =( NAMED_UNIT ( * ) PLANE_ANGLE_UNIT ( ) SI_UNIT ( $, .RADIAN. ) );
#28 = DIRECTION ( 'NONE',  ( 1.000000000000000000, 0.000000000000000000, 0.000000000000000000 ) ) ;
#29 = VECTOR ( 'NONE', #203, 1000.000000000000227 ) ;
#30 = APPROVAL_DATE_TIME ( #34, #136 ) ;
#31 = EDGE_CURVE ( 'NONE', #41, #97, #243, .T. ) ;
#32 = COORDINATED_UNIVERSAL_TIME_OFFSET ( 1, 0, .AHEAD. ) ;
#33 = ADVANCED_FACE ( 'NONE', ( #112 ), #230, .T. ) ;
#34 = DATE_AND_TIME ( #200, #204 ) ;
#35 = PERSON_AND_ORGANIZATION ( #155, #124 ) ;
#36 = AXIS2_PLACEMENT_3D ( 'NONE', #153, #171, #44 ) ;
#37 = ADVANCED_FACE ( 'NONE', ( #66, #135 ), #100, .F. ) ;
#38 = ORIENTED_EDGE ( 'NONE', *, *, #107, .T. ) ;
#39 = DIRECTION ( 'NONE',  ( 0.000000000000000000, 0.000000000000000000, -1.000000000000000000 ) ) ;
#40 = EDGE_CURVE ( 'NONE', #127, #249, #225, .T. ) ;
#41 = VERTEX_POINT ( 'NONE', #216 ) ;
#42 = CARTESIAN_POINT ( 'NONE',  ( 0.000000000000000000, 0.000000000000000000, 0.000000000000000000 ) ) ;
#43 = CARTESIAN_POINT ( 'NONE',  ( 15.00000000000000000, 0.000000000000000000, 0.000000000000000000 ) ) ;
#44 = DIRECTION ( 'NONE',  ( 0.000000000000000000, 0.000000000000000000, -1.000000000000000000 ) ) ;
#45 = DIRECTION ( 'NONE',  ( 0.000000000000000000, 0.000000000000000000, -1.000000000000000000 ) ) ;
#46 = DESIGN_CONTEXT ( 'detailed design', #160, 'design' ) ;
#47 = DIRECTION ( 'NONE',  ( -0.9863939238321436376, 0.000000000000000000, 0.1643989873053572914 ) ) ;
#48 = PERSON_AND_ORGANIZATION ( #155, #124 ) ;
#49 = PERSON_AND_ORGANIZATION ( #155, #124 ) ;
#50 = CIRCLE ( 'NONE', #209, 9.472412489900593258 ) ;
#51 = LOCAL_TIME ( 14, 10, 46.00000000000000000, #32 ) ;
#52 = PRODUCT_DEFINITION ( 'UNKNOWN', '', #110, #46 ) ;
#53 = ORIENTED_EDGE ( 'NONE', *, *, #31, .F. ) ;
#54 = CIRCLE ( 'NONE', #118, 14.00000000000000000 ) ;
#55 = VERTEX_POINT ( 'NONE', #82 ) ;
#56 = APPROVAL_PERSON_ORGANIZATION ( #49, #130, #86 ) ;
#57 = DIRECTION ( 'NONE',  ( 1.000000000000000000, 0.000000000000000000, 0.000000000000000000 ) ) ;
#58 = PRODUCT ( '3D_R169_ DN28-23_17323160', '3D_R169_ DN28-23_17323160', '', ( #163 ) ) ;
#59 = EDGE_CURVE ( 'NONE', #166, #55, #23, .T. ) ;
#60 = ORIENTED_EDGE ( 'NONE', *, *, #115, .F. ) ;
#61 = EDGE_LOOP ( 'NONE', ( #151, #211, #246, #53 ) ) ;
#62 = CARTESIAN_POINT ( 'NONE',  ( 15.00000000000000000, 0.000000000000000000, 0.000000000000000000 ) ) ;
#63 = CARTESIAN_POINT ( 'NONE',  ( 0.000000000000000000, 0.000000000000000000, 11.97241248990059326 ) ) ;
#64 = AXIS2_PLACEMENT_3D ( 'NONE', #134, #121, #103 ) ;
#65 = DIRECTION ( 'NONE',  ( -0.9863939238321436376, 2.013306935865721995E-17, -0.1643989873053572914 ) ) ;
#66 = FACE_BOUND ( 'NONE', #15, .T. ) ;
#67 = CALENDAR_DATE ( 2024, 17, 7 ) ;
#68 =( GEOMETRIC_REPRESENTATION_CONTEXT ( 3 ) GLOBAL_UNCERTAINTY_ASSIGNED_CONTEXT ( ( #218 ) ) GLOBAL_UNIT_ASSIGNED_CONTEXT ( ( #154, #27, #176 ) ) REPRESENTATION_CONTEXT ( 'NONE', 'WORKASPACE' ) );
#69 = ADVANCED_BREP_SHAPE_REPRESENTATION ( '3D_R169_ DN28-23_17323160', ( #113, #101 ), #68 ) ;
#70 = VECTOR ( 'NONE', #47, 1000.000000000000227 ) ;
#71 = APPROVAL_ROLE ( '' ) ;
#72 = APPROVAL_DATE_TIME ( #180, #168 ) ;
#73 = COORDINATED_UNIVERSAL_TIME_OFFSET ( 1, 0, .AHEAD. ) ;
#74 = EDGE_CURVE ( 'NONE', #55, #166, #54, .T. ) ;
#75 = CARTESIAN_POINT ( 'NONE',  ( 15.00000000000000000, 0.000000000000000000, 0.000000000000000000 ) ) ;
#76 = EDGE_LOOP ( 'NONE', ( #131, #187 ) ) ;
#77 = APPROVAL_PERSON_ORGANIZATION ( #48, #168, #71 ) ;
#78 = ORIENTED_EDGE ( 'NONE', *, *, #107, .F. ) ;
#79 = CARTESIAN_POINT ( 'NONE',  ( 15.00000000000000000, 1.313116813489436392E-15, -9.472412489900593258 ) ) ;
#80 = AXIS2_PLACEMENT_3D ( 'NONE', #191, #26, #120 ) ;
#81 = DIRECTION ( 'NONE',  ( 0.000000000000000000, 0.000000000000000000, -1.000000000000000000 ) ) ;
#82 = CARTESIAN_POINT ( 'NONE',  ( 0.000000000000000000, -8.572527594031473190E-16, 14.00000000000000000 ) ) ;
#83 = PRODUCT_RELATED_PRODUCT_CATEGORY ( 'detail', '', ( #58 ) ) ;
#84 = SECURITY_CLASSIFICATION ( '', '', #183 ) ;
#85 = LINE ( 'NONE', #24, #70 ) ;
#86 = APPROVAL_ROLE ( '' ) ;
#87 = DATE_AND_TIME ( #139, #196 ) ;
#88 = PERSON_AND_ORGANIZATION ( #155, #124 ) ;
#89 = CC_DESIGN_APPROVAL ( #130, ( #84 ) ) ;
#90 = COORDINATED_UNIVERSAL_TIME_OFFSET ( 1, 0, .AHEAD. ) ;
#91 = AXIS2_PLACEMENT_3D ( 'NONE', #43, #22, #5 ) ;
#92 = ORIENTED_EDGE ( 'NONE', *, *, #194, .F. ) ;
#93 = VERTEX_POINT ( 'NONE', #117 ) ;
#94 = CARTESIAN_POINT ( 'NONE',  ( 14.67120202538928631, 0.000000000000000000, 9.527212152335712503 ) ) ;
#95 = DIRECTION ( 'NONE',  ( -1.000000000000000000, -0.000000000000000000, -0.000000000000000000 ) ) ;
#96 = VECTOR ( 'NONE', #98, 1000.000000000000227 ) ;
#97 = VERTEX_POINT ( 'NONE', #63 ) ;
#98 = DIRECTION ( 'NONE',  ( -0.9863939238321436376, 2.013306935865721995E-17, -0.1643989873053572914 ) ) ;
#99 = ADVANCED_FACE ( 'NONE', ( #214 ), #109, .F. ) ;
#100 = PLANE ( 'NONE',  #145 ) ;
#101 = AXIS2_PLACEMENT_3D ( 'NONE', #223, #123, #201 ) ;
#102 = LINE ( 'NONE', #4, #14 ) ;
#103 = DIRECTION ( 'NONE',  ( 0.000000000000000000, 0.000000000000000000, -1.000000000000000000 ) ) ;
#104 = PERSON_AND_ORGANIZATION_ROLE ( 'creator' ) ;
#105 = PERSON_AND_ORGANIZATION_ROLE ( 'design_supplier' ) ;
#106 = PERSON_AND_ORGANIZATION_ROLE ( 'classification_officer' ) ;
#107 = EDGE_CURVE ( 'NONE', #127, #55, #85, .T. ) ;
#108 = DATE_AND_TIME ( #240, #7 ) ;
#109 = CONICAL_SURFACE ( 'NONE', #175, 9.527212152335712503, 0.1651486774146268544 ) ;
#110 = PRODUCT_DEFINITION_FORMATION_WITH_SPECIFIED_SOURCE ( 'ANY', '', #58, .NOT_KNOWN. ) ;
#111 = ORIENTED_EDGE ( 'NONE', *, *, #59, .T. ) ;
#112 = FACE_OUTER_BOUND ( 'NONE', #245, .T. ) ;
#113 = MANIFOLD_SOLID_BREP ( 'Wandung2', #17 ) ;
#114 = EDGE_LOOP ( 'NONE', ( #60, #126, #111, #78 ) ) ;
#115 = EDGE_CURVE ( 'NONE', #249, #127, #207, .T. ) ;
#116 = VERTEX_POINT ( 'NONE', #79 ) ;
#117 = CARTESIAN_POINT ( 'NONE',  ( 15.00000000000000000, 0.000000000000000000, 9.472412489900593258 ) ) ;
#118 = AXIS2_PLACEMENT_3D ( 'NONE', #174, #234, #2 ) ;
#119 = CARTESIAN_POINT ( 'NONE',  ( 15.00000000000000000, 7.041719095097280880E-16, 11.50000000000000000 ) ) ;
#120 = DIRECTION ( 'NONE',  ( 0.000000000000000000, 0.000000000000000000, -1.000000000000000000 ) ) ;
#121 = DIRECTION ( 'NONE',  ( 1.000000000000000000, 0.000000000000000000, 0.000000000000000000 ) ) ;
#122 = APPROVAL_STATUS ( 'not_yet_approved' ) ;
#123 = DIRECTION ( 'NONE',  ( 0.000000000000000000, 0.000000000000000000, 1.000000000000000000 ) ) ;
#124 = ORGANIZATION ( 'UNSPECIFIED', 'UNSPECIFIED', '' ) ;
#125 = DIRECTION ( 'NONE',  ( 0.000000000000000000, 0.000000000000000000, -1.000000000000000000 ) ) ;
#126 = ORIENTED_EDGE ( 'NONE', *, *, #194, .T. ) ;
#127 = VERTEX_POINT ( 'NONE', #119 ) ;
#128 = EDGE_LOOP ( 'NONE', ( #229, #185 ) ) ;
#129 = AXIS2_PLACEMENT_3D ( 'NONE', #247, #57, #39 ) ;
#130 = APPROVAL ( #122, 'UNSPECIFIED' ) ;
#131 = ORIENTED_EDGE ( 'NONE', *, *, #10, .F. ) ;
#132 = FACE_OUTER_BOUND ( 'NONE', #114, .T. ) ;
#133 = DIRECTION ( 'NONE',  ( 1.000000000000000000, 0.000000000000000000, 0.000000000000000000 ) ) ;
#134 = CARTESIAN_POINT ( 'NONE',  ( 0.000000000000000000, 0.000000000000000000, 0.000000000000000000 ) ) ;
#135 = FACE_OUTER_BOUND ( 'NONE', #147, .T. ) ;
#136 = APPROVAL ( #239, 'UNSPECIFIED' ) ;
#137 = PERSON_AND_ORGANIZATION ( #155, #124 ) ;
#138 = PERSON_AND_ORGANIZATION ( #155, #124 ) ;
#139 = CALENDAR_DATE ( 2024, 17, 7 ) ;
#140 = CC_DESIGN_PERSON_AND_ORGANIZATION_ASSIGNMENT ( #222, #157, ( #110 ) ) ;
#141 = CONICAL_SURFACE ( 'NONE', #177, 9.527212152335712503, 0.1651486774146268544 ) ;
#142 = APPROVAL_STATUS ( 'not_yet_approved' ) ;
#143 = DATE_TIME_ROLE ( 'creation_date' ) ;
#144 = DIRECTION ( 'NONE',  ( 1.000000000000000000, 0.000000000000000000, 0.000000000000000000 ) ) ;
#145 = AXIS2_PLACEMENT_3D ( 'NONE', #42, #28, #81 ) ;
#146 = APPLICATION_CONTEXT ( 'configuration controlled 3d designs of mechanical parts and assemblies' ) ;
#147 = EDGE_LOOP ( 'NONE', ( #21, #189 ) ) ;
#148 = CARTESIAN_POINT ( 'NONE',  ( 14.67120202538928631, 0.000000000000000000, 0.000000000000000000 ) ) ;
#149 = ORIENTED_EDGE ( 'NONE', *, *, #198, .T. ) ;
#150 = CC_DESIGN_PERSON_AND_ORGANIZATION_ASSIGNMENT ( #138, #241, ( #58 ) ) ;
#151 = ORIENTED_EDGE ( 'NONE', *, *, #242, .F. ) ;
#152 = CARTESIAN_POINT ( 'NONE',  ( 0.000000000000000000, 0.000000000000000000, 0.000000000000000000 ) ) ;
#153 = CARTESIAN_POINT ( 'NONE',  ( 15.00000000000000000, 0.000000000000000000, 0.000000000000000000 ) ) ;
#154 =( LENGTH_UNIT ( ) NAMED_UNIT ( * ) SI_UNIT ( .MILLI., .METRE. ) );
#155 = PERSON ( 'UNSPECIFIED', 'UNSPECIFIED', 'UNSPECIFIED', ('UNSPECIFIED'), ('UNSPECIFIED'), ('UNSPECIFIED') ) ;
#156 = FACE_OUTER_BOUND ( 'NONE', #128, .T. ) ;
#157 = PERSON_AND_ORGANIZATION_ROLE ( 'creator' ) ;
#158 = AXIS2_PLACEMENT_3D ( 'NONE', #152, #199, #45 ) ;
#159 = APPROVAL_DATE_TIME ( #244, #130 ) ;
#160 = APPLICATION_CONTEXT ( 'configuration controlled 3d designs of mechanical parts and assemblies' ) ;
#161 = CC_DESIGN_APPROVAL ( #136, ( #52 ) ) ;
#162 = CC_DESIGN_DATE_AND_TIME_ASSIGNMENT ( #87, #8, ( #84 ) ) ;
#163 = MECHANICAL_CONTEXT ( 'NONE', #146, 'mechanical' ) ;
#164 = CALENDAR_DATE ( 2024, 17, 7 ) ;
#165 = CC_DESIGN_PERSON_AND_ORGANIZATION_ASSIGNMENT ( #224, #105, ( #110 ) ) ;
#166 = VERTEX_POINT ( 'NONE', #192 ) ;
#167 = EDGE_LOOP ( 'NONE', ( #170, #226, #13, #231 ) ) ;
#168 = APPROVAL ( #142, 'UNSPECIFIED' ) ;
#169 = DIRECTION ( 'NONE',  ( 0.000000000000000000, 0.000000000000000000, 1.000000000000000000 ) ) ;
#170 = ORIENTED_EDGE ( 'NONE', *, *, #10, .T. ) ;
#171 = DIRECTION ( 'NONE',  ( 1.000000000000000000, 0.000000000000000000, 0.000000000000000000 ) ) ;
#172 = DIRECTION ( 'NONE',  ( 0.000000000000000000, 0.000000000000000000, 1.000000000000000000 ) ) ;
#173 = CONICAL_SURFACE ( 'NONE', #25, 11.50000000000000000, 0.1651486774146268544 ) ;
#174 = CARTESIAN_POINT ( 'NONE',  ( 0.000000000000000000, 0.000000000000000000, 0.000000000000000000 ) ) ;
#175 = AXIS2_PLACEMENT_3D ( 'NONE', #3, #217, #197 ) ;
#176 =( NAMED_UNIT ( * ) SI_UNIT ( $, .STERADIAN. ) SOLID_ANGLE_UNIT ( ) );
#177 = AXIS2_PLACEMENT_3D ( 'NONE', #148, #208, #186 ) ;
#178 = FACE_BOUND ( 'NONE', #76, .T. ) ;
#179 = CC_DESIGN_DATE_AND_TIME_ASSIGNMENT ( #108, #143, ( #52 ) ) ;
#180 = DATE_AND_TIME ( #67, #51 ) ;
#181 = COORDINATED_UNIVERSAL_TIME_OFFSET ( 1, 0, .AHEAD. ) ;
#182 = COORDINATED_UNIVERSAL_TIME_OFFSET ( 1, 0, .AHEAD. ) ;
#183 = SECURITY_CLASSIFICATION_LEVEL ( 'unclassified' ) ;
#184 = EDGE_CURVE ( 'NONE', #116, #93, #219, .T. ) ;
#185 = ORIENTED_EDGE ( 'NONE', *, *, #115, .T. ) ;
#186 = DIRECTION ( 'NONE',  ( 0.000000000000000000, 0.000000000000000000, 1.000000000000000000 ) ) ;
#187 = ORIENTED_EDGE ( 'NONE', *, *, #184, .F. ) ;
#188 = PRODUCT_DEFINITION_SHAPE ( 'NONE', 'NONE',  #52 ) ;
#189 = ORIENTED_EDGE ( 'NONE', *, *, #59, .F. ) ;
#190 = CC_DESIGN_APPROVAL ( #168, ( #110 ) ) ;
#191 = CARTESIAN_POINT ( 'NONE',  ( 15.00000000000000000, 0.000000000000000000, 0.000000000000000000 ) ) ;
#192 = CARTESIAN_POINT ( 'NONE',  ( 0.000000000000000000, 2.571758278209441267E-15, -14.00000000000000000 ) ) ;
#193 = AXIS2_PLACEMENT_3D ( 'NONE', #18, #95, #169 ) ;
#194 = EDGE_CURVE ( 'NONE', #249, #166, #233, .T. ) ;
#195 = PLANE ( 'NONE',  #248 ) ;
#196 = LOCAL_TIME ( 14, 10, 46.00000000000000000, #181 ) ;
#197 = DIRECTION ( 'NONE',  ( 0.000000000000000000, 0.000000000000000000, 1.000000000000000000 ) ) ;
#198 = EDGE_CURVE ( 'NONE', #97, #41, #237, .T. ) ;
#199 = DIRECTION ( 'NONE',  ( 1.000000000000000000, 0.000000000000000000, 0.000000000000000000 ) ) ;
#200 = CALENDAR_DATE ( 2024, 17, 7 ) ;
#201 = DIRECTION ( 'NONE',  ( 1.000000000000000000, 0.000000000000000000, 0.000000000000000000 ) ) ;
#202 = APPLICATION_PROTOCOL_DEFINITION ( 'international standard', 'config_control_design', 1994, #160 ) ;
#203 = DIRECTION ( 'NONE',  ( -0.9863939238321436376, 0.000000000000000000, 0.1643989873053572914 ) ) ;
#204 = LOCAL_TIME ( 14, 10, 46.00000000000000000, #182 ) ;
#205 = FACE_OUTER_BOUND ( 'NONE', #61, .T. ) ;
#206 = ADVANCED_FACE ( 'NONE', ( #178, #156 ), #195, .T. ) ;
#207 = CIRCLE ( 'NONE', #91, 11.50000000000000000 ) ;
#208 = DIRECTION ( 'NONE',  ( -1.000000000000000000, -0.000000000000000000, -0.000000000000000000 ) ) ;
#209 = AXIS2_PLACEMENT_3D ( 'NONE', #75, #144, #125 ) ;
#210 = ORIENTED_EDGE ( 'NONE', *, *, #40, .F. ) ;
#211 = ORIENTED_EDGE ( 'NONE', *, *, #184, .T. ) ;
#212 = CC_DESIGN_PERSON_AND_ORGANIZATION_ASSIGNMENT ( #88, #106, ( #84 ) ) ;
#213 = CARTESIAN_POINT ( 'NONE',  ( 15.00000000000000000, 0.000000000000000000, 0.000000000000000000 ) ) ;
#214 = FACE_OUTER_BOUND ( 'NONE', #167, .T. ) ;
#215 = CC_DESIGN_PERSON_AND_ORGANIZATION_ASSIGNMENT ( #35, #104, ( #52 ) ) ;
#216 = CARTESIAN_POINT ( 'NONE',  ( 0.000000000000000000, 1.466197663382855721E-15, -11.97241248990059326 ) ) ;
#217 = DIRECTION ( 'NONE',  ( -1.000000000000000000, -0.000000000000000000, -0.000000000000000000 ) ) ;
#218 = UNCERTAINTY_MEASURE_WITH_UNIT (LENGTH_MEASURE( 1.000000000000000082E-05 ), #154, 'distance_accuracy_value', 'NONE');
#219 = CIRCLE ( 'NONE', #80, 9.472412489900593258 ) ;
#220 = APPROVAL_ROLE ( '' ) ;
#221 = LOCAL_TIME ( 14, 10, 46.00000000000000000, #90 ) ;
#222 = PERSON_AND_ORGANIZATION ( #155, #124 ) ;
#223 = CARTESIAN_POINT ( 'NONE',  ( 0.000000000000000000, 0.000000000000000000, 0.000000000000000000 ) ) ;
#224 = PERSON_AND_ORGANIZATION ( #155, #124 ) ;
#225 = CIRCLE ( 'NONE', #36, 11.50000000000000000 ) ;
#226 = ORIENTED_EDGE ( 'NONE', *, *, #242, .T. ) ;
#227 = APPROVAL_PERSON_ORGANIZATION ( #137, #136, #220 ) ;
#228 = ORIENTED_EDGE ( 'NONE', *, *, #74, .T. ) ;
#229 = ORIENTED_EDGE ( 'NONE', *, *, #40, .T. ) ;
#230 = CONICAL_SURFACE ( 'NONE', #193, 11.50000000000000000, 0.1651486774146268544 ) ;
#231 = ORIENTED_EDGE ( 'NONE', *, *, #20, .F. ) ;
#232 = ADVANCED_FACE ( 'NONE', ( #132 ), #173, .T. ) ;
#233 = LINE ( 'NONE', #236, #96 ) ;
#234 = DIRECTION ( 'NONE',  ( 1.000000000000000000, 0.000000000000000000, 0.000000000000000000 ) ) ;
#235 = CARTESIAN_POINT ( 'NONE',  ( 15.00000000000000000, 7.041719095097280880E-16, -11.50000000000000000 ) ) ;
#236 = CARTESIAN_POINT ( 'NONE',  ( 15.00000000000000000, 1.408343819019456176E-15, -11.50000000000000000 ) ) ;
#237 = CIRCLE ( 'NONE', #64, 11.97241248990059326 ) ;
#238 = DIRECTION ( 'NONE',  ( 0.000000000000000000, 0.000000000000000000, -1.000000000000000000 ) ) ;
#239 = APPROVAL_STATUS ( 'not_yet_approved' ) ;
#240 = CALENDAR_DATE ( 2024, 17, 7 ) ;
#241 = PERSON_AND_ORGANIZATION_ROLE ( 'design_owner' ) ;
#242 = EDGE_CURVE ( 'NONE', #116, #41, #102, .T. ) ;
#243 = CIRCLE ( 'NONE', #129, 11.97241248990059326 ) ;
#244 = DATE_AND_TIME ( #164, #221 ) ;
#245 = EDGE_LOOP ( 'NONE', ( #92, #210, #38, #228 ) ) ;
#246 = ORIENTED_EDGE ( 'NONE', *, *, #20, .T. ) ;
#247 = CARTESIAN_POINT ( 'NONE',  ( 0.000000000000000000, 0.000000000000000000, 0.000000000000000000 ) ) ;
#248 = AXIS2_PLACEMENT_3D ( 'NONE', #62, #133, #238 ) ;
#249 = VERTEX_POINT ( 'NONE', #235 ) ;
ENDSEC;
END-ISO-10303-21;
