ISO-10303-21;
HEADER;
FILE_DESCRIPTION (( 'STEP AP203' ),
    '1' );
FILE_NAME ('3D_GR1032_48.3x2_188771500.STEP',
    '2024-11-07T08:10:56',
    ( '' ),
    ( '' ),
    'SwSTEP 2.0',
    'SolidWorks 2023',
    '' );
FILE_SCHEMA (( 'CONFIG_CONTROL_DESIGN' ));
ENDSEC;

DATA;
#1 = ORIENTED_EDGE ( 'NONE', *, *, #159, .T. ) ;
#2 = SECURITY_CLASSIFICATION ( '', '', #227 ) ;
#3 = DIRECTION ( 'NONE',  ( -1.000000000000000000, 0.000000000000000000, 0.000000000000000000 ) ) ;
#4 = EDGE_LOOP ( 'NONE', ( #232, #231, #104, #119 ) ) ;
#5 = EDGE_LOOP ( 'NONE', ( #252, #250, #78, #58 ) ) ;
#6 = ADVANCED_FACE ( 'NONE', ( #200, #136 ), #235, .T. ) ;
#7 = CARTESIAN_POINT ( 'NONE',  ( -40.75000000000000000, 18.60000000000000497, -2.712592660111386845E-15 ) ) ;
#8 = ORIENTED_EDGE ( 'NONE', *, *, #25, .F. ) ;
#9 = CARTESIAN_POINT ( 'NONE',  ( -40.75000000000000000, 40.75000000000000000, 0.000000000000000000 ) ) ;
#10 = APPROVAL_STATUS ( 'not_yet_approved' ) ;
#11 = DIRECTION ( 'NONE',  ( 0.000000000000000000, 0.000000000000000000, 1.000000000000000000 ) ) ;
#12 = COORDINATED_UNIVERSAL_TIME_OFFSET ( 1, 0, .AHEAD. ) ;
#13 =( GEOMETRIC_REPRESENTATION_CONTEXT ( 3 ) GLOBAL_UNCERTAINTY_ASSIGNED_CONTEXT ( ( #20 ) ) GLOBAL_UNIT_ASSIGNED_CONTEXT ( ( #183, #219, #223 ) ) REPRESENTATION_CONTEXT ( 'NONE', 'WORKASPACE' ) );
#14 = CC_DESIGN_APPROVAL ( #160, ( #2 ) ) ;
#15 = ADVANCED_FACE ( 'NONE', ( #96, #153 ), #154, .F. ) ;
#16 = CALENDAR_DATE ( 2024, 7, 11 ) ;
#17 = FACE_OUTER_BOUND ( 'NONE', #126, .T. ) ;
#18 = AXIS2_PLACEMENT_3D ( 'NONE', #123, #66, #241 ) ;
#19 = CARTESIAN_POINT ( 'NONE',  ( -40.75000000000000000, 40.75000000000000000, 0.000000000000000000 ) ) ;
#20 = UNCERTAINTY_MEASURE_WITH_UNIT (LENGTH_MEASURE( 1.000000000000000082E-05 ), #183, 'distance_accuracy_value', 'NONE');
#21 = CARTESIAN_POINT ( 'NONE',  ( -40.75000000000000000, 0.000000000000000000, 0.000000000000000000 ) ) ;
#22 = TOROIDAL_SURFACE ( 'NONE', #57, 40.75000000000000000, 24.14999999999999858 ) ;
#23 = DIRECTION ( 'NONE',  ( 1.000000000000000000, 0.000000000000000000, 0.000000000000000000 ) ) ;
#24 = EDGE_LOOP ( 'NONE', ( #83, #61 ) ) ;
#25 = EDGE_CURVE ( 'NONE', #177, #98, #156, .T. ) ;
#26 = AXIS2_PLACEMENT_3D ( 'NONE', #217, #3, #118 ) ;
#27 = DIRECTION ( 'NONE',  ( 1.000000000000000000, 0.000000000000000000, 0.000000000000000000 ) ) ;
#28 = ORIENTED_EDGE ( 'NONE', *, *, #245, .T. ) ;
#29 = DIRECTION ( 'NONE',  ( 1.000000000000000000, 0.000000000000000000, 0.000000000000000000 ) ) ;
#30 = CC_DESIGN_APPROVAL ( #48, ( #221 ) ) ;
#31 = CARTESIAN_POINT ( 'NONE',  ( -40.75000000000000000, 40.75000000000000000, 0.000000000000000000 ) ) ;
#32 = TOROIDAL_SURFACE ( 'NONE', #63, 40.75000000000000000, 24.14999999999999858 ) ;
#33 = CALENDAR_DATE ( 2024, 7, 11 ) ;
#34 = DATE_AND_TIME ( #251, #55 ) ;
#35 = APPROVAL_DATE_TIME ( #79, #160 ) ;
#36 = CIRCLE ( 'NONE', #67, 18.60000000000000497 ) ;
#37 = ADVANCED_BREP_SHAPE_REPRESENTATION ( '3D_GR1032_48.3x2_188771500', ( #73, #38 ), #13 ) ;
#38 = AXIS2_PLACEMENT_3D ( 'NONE', #204, #205, #29 ) ;
#39 = ORIENTED_EDGE ( 'NONE', *, *, #245, .F. ) ;
#40 = LOCAL_TIME ( 9, 10, 56.00000000000000000, #72 ) ;
#41 = CARTESIAN_POINT ( 'NONE',  ( -40.75000000000000000, 0.000000000000000000, 0.000000000000000000 ) ) ;
#42 = CIRCLE ( 'NONE', #244, 24.14999999999999858 ) ;
#43 = ORIENTED_EDGE ( 'NONE', *, *, #186, .F. ) ;
#44 = DIRECTION ( 'NONE',  ( 0.000000000000000000, 0.000000000000000000, 1.000000000000000000 ) ) ;
#45 = CIRCLE ( 'NONE', #169, 24.14999999999999858 ) ;
#46 = EDGE_CURVE ( 'NONE', #59, #106, #172, .T. ) ;
#47 = APPROVAL_DATE_TIME ( #109, #187 ) ;
#48 = APPROVAL ( #111, 'UNSPECIFIED' ) ;
#49 = AXIS2_PLACEMENT_3D ( 'NONE', #41, #75, #23 ) ;
#50 = CARTESIAN_POINT ( 'NONE',  ( -40.75000000000000000, 0.000000000000000000, -2.957522019940857930E-15 ) ) ;
#51 = PERSON_AND_ORGANIZATION_ROLE ( 'design_owner' ) ;
#52 = APPLICATION_PROTOCOL_DEFINITION ( 'international standard', 'config_control_design', 1994, #113 ) ;
#53 = TOROIDAL_SURFACE ( 'NONE', #49, 40.75000000000000000, 22.14999999999999503 ) ;
#54 = CALENDAR_DATE ( 2024, 7, 11 ) ;
#55 = LOCAL_TIME ( 9, 10, 56.00000000000000000, #190 ) ;
#56 = PERSON_AND_ORGANIZATION_ROLE ( 'creator' ) ;
#57 = AXIS2_PLACEMENT_3D ( 'NONE', #94, #152, #194 ) ;
#58 = ORIENTED_EDGE ( 'NONE', *, *, #70, .F. ) ;
#59 = VERTEX_POINT ( 'NONE', #157 ) ;
#60 = ORIENTED_EDGE ( 'NONE', *, *, #228, .F. ) ;
#61 = ORIENTED_EDGE ( 'NONE', *, *, #208, .T. ) ;
#62 = DIRECTION ( 'NONE',  ( 0.000000000000000000, 1.000000000000000000, 0.000000000000000000 ) ) ;
#63 = AXIS2_PLACEMENT_3D ( 'NONE', #84, #202, #27 ) ;
#64 = ADVANCED_FACE ( 'NONE', ( #234 ), #53, .F. ) ;
#65 = FACE_OUTER_BOUND ( 'NONE', #173, .T. ) ;
#66 = DIRECTION ( 'NONE',  ( 0.000000000000000000, 1.000000000000000000, 0.000000000000000000 ) ) ;
#67 = AXIS2_PLACEMENT_3D ( 'NONE', #99, #155, #195 ) ;
#68 = DIRECTION ( 'NONE',  ( 1.000000000000000000, 0.000000000000000000, 0.000000000000000000 ) ) ;
#69 = APPLICATION_PROTOCOL_DEFINITION ( 'international standard', 'config_control_design', 1994, #220 ) ;
#70 = EDGE_CURVE ( 'NONE', #117, #177, #36, .T. ) ;
#71 = CC_DESIGN_PERSON_AND_ORGANIZATION_ASSIGNMENT ( #131, #207, ( #221 ) ) ;
#72 = COORDINATED_UNIVERSAL_TIME_OFFSET ( 1, 0, .AHEAD. ) ;
#73 = MANIFOLD_SOLID_BREP ( 'Austragung-Dünn1', #242 ) ;
#74 = PERSON_AND_ORGANIZATION ( #130, #162 ) ;
#75 = DIRECTION ( 'NONE',  ( 0.000000000000000000, 0.000000000000000000, 1.000000000000000000 ) ) ;
#76 = CC_DESIGN_DATE_AND_TIME_ASSIGNMENT ( #134, #92, ( #2 ) ) ;
#77 = VERTEX_POINT ( 'NONE', #122 ) ;
#78 = ORIENTED_EDGE ( 'NONE', *, *, #186, .T. ) ;
#79 = DATE_AND_TIME ( #54, #40 ) ;
#80 = CARTESIAN_POINT ( 'NONE',  ( 0.000000000000000000, 0.000000000000000000, 0.000000000000000000 ) ) ;
#81 = DIRECTION ( 'NONE',  ( 0.000000000000000000, 0.000000000000000000, 1.000000000000000000 ) ) ;
#82 = DIRECTION ( 'NONE',  ( 1.000000000000000000, 0.000000000000000000, 0.000000000000000000 ) ) ;
#83 = ORIENTED_EDGE ( 'NONE', *, *, #90, .T. ) ;
#84 = CARTESIAN_POINT ( 'NONE',  ( -40.75000000000000000, 0.000000000000000000, 0.000000000000000000 ) ) ;
#85 = ORIENTED_EDGE ( 'NONE', *, *, #176, .T. ) ;
#86 = TOROIDAL_SURFACE ( 'NONE', #226, 40.75000000000000000, 22.14999999999999503 ) ;
#87 = CARTESIAN_POINT ( 'NONE',  ( -40.75000000000000000, 16.60000000000000497, -2.957522019940857930E-15 ) ) ;
#88 = CARTESIAN_POINT ( 'NONE',  ( -40.75000000000000000, 0.000000000000000000, 0.000000000000000000 ) ) ;
#89 = MECHANICAL_CONTEXT ( 'NONE', #220, 'mechanical' ) ;
#90 = EDGE_CURVE ( 'NONE', #117, #77, #97, .T. ) ;
#91 = PERSON_AND_ORGANIZATION_ROLE ( 'classification_officer' ) ;
#92 = DATE_TIME_ROLE ( 'classification_date' ) ;
#93 = APPROVAL_PERSON_ORGANIZATION ( #74, #160, #151 ) ;
#94 = CARTESIAN_POINT ( 'NONE',  ( -40.75000000000000000, 0.000000000000000000, 0.000000000000000000 ) ) ;
#95 = AXIS2_PLACEMENT_3D ( 'NONE', #50, #145, #68 ) ;
#96 = FACE_BOUND ( 'NONE', #24, .T. ) ;
#97 = CIRCLE ( 'NONE', #189, 22.14999999999999503 ) ;
#98 = VERTEX_POINT ( 'NONE', #100 ) ;
#99 = CARTESIAN_POINT ( 'NONE',  ( -40.75000000000000000, 0.000000000000000000, -2.712592660111386845E-15 ) ) ;
#100 = CARTESIAN_POINT ( 'NONE',  ( -40.75000000000000000, 62.89999999999999858, 0.000000000000000000 ) ) ;
#101 = VERTEX_POINT ( 'NONE', #191 ) ;
#102 = DIRECTION ( 'NONE',  ( -1.000000000000000000, 0.000000000000000000, 0.000000000000000000 ) ) ;
#103 = AXIS2_PLACEMENT_3D ( 'NONE', #171, #198, #214 ) ;
#104 = ORIENTED_EDGE ( 'NONE', *, *, #70, .T. ) ;
#105 = DIRECTION ( 'NONE',  ( 0.000000000000000000, 0.000000000000000000, 1.000000000000000000 ) ) ;
#106 = VERTEX_POINT ( 'NONE', #142 ) ;
#107 = LOCAL_TIME ( 9, 10, 56.00000000000000000, #166 ) ;
#108 = PERSON_AND_ORGANIZATION ( #130, #162 ) ;
#109 = DATE_AND_TIME ( #33, #210 ) ;
#110 = PERSON_AND_ORGANIZATION ( #130, #162 ) ;
#111 = APPROVAL_STATUS ( 'not_yet_approved' ) ;
#112 = APPROVAL_PERSON_ORGANIZATION ( #249, #48, #149 ) ;
#113 = APPLICATION_CONTEXT ( 'configuration controlled 3d designs of mechanical parts and assemblies' ) ;
#114 = AXIS2_PLACEMENT_3D ( 'NONE', #240, #102, #147 ) ;
#115 = EDGE_CURVE ( 'NONE', #77, #98, #237, .T. ) ;
#116 = CC_DESIGN_PERSON_AND_ORGANIZATION_ASSIGNMENT ( #246, #56, ( #168 ) ) ;
#117 = VERTEX_POINT ( 'NONE', #248 ) ;
#118 = DIRECTION ( 'NONE',  ( 0.000000000000000000, 0.000000000000000000, 1.000000000000000000 ) ) ;
#119 = ORIENTED_EDGE ( 'NONE', *, *, #25, .T. ) ;
#120 = CIRCLE ( 'NONE', #114, 24.14999999999999858 ) ;
#121 = DIRECTION ( 'NONE',  ( -1.000000000000000000, 0.000000000000000000, 0.000000000000000000 ) ) ;
#122 = CARTESIAN_POINT ( 'NONE',  ( 22.14999999999999503, 0.000000000000000000, 0.000000000000000000 ) ) ;
#123 = CARTESIAN_POINT ( 'NONE',  ( 0.000000000000000000, 0.000000000000000000, 0.000000000000000000 ) ) ;
#124 = DIRECTION ( 'NONE',  ( -1.000000000000000000, 0.000000000000000000, 0.000000000000000000 ) ) ;
#125 = AXIS2_PLACEMENT_3D ( 'NONE', #19, #121, #170 ) ;
#126 = EDGE_LOOP ( 'NONE', ( #138, #158, #139, #39 ) ) ;
#127 = CC_DESIGN_PERSON_AND_ORGANIZATION_ASSIGNMENT ( #110, #91, ( #2 ) ) ;
#128 = PERSON_AND_ORGANIZATION ( #130, #162 ) ;
#129 = DIRECTION ( 'NONE',  ( 0.000000000000000000, 0.000000000000000000, 1.000000000000000000 ) ) ;
#130 = PERSON ( 'UNSPECIFIED', 'UNSPECIFIED', 'UNSPECIFIED', ('UNSPECIFIED'), ('UNSPECIFIED'), ('UNSPECIFIED') ) ;
#131 = PERSON_AND_ORGANIZATION ( #130, #162 ) ;
#132 = CC_DESIGN_APPROVAL ( #187, ( #168 ) ) ;
#133 = AXIS2_PLACEMENT_3D ( 'NONE', #21, #175, #82 ) ;
#134 = DATE_AND_TIME ( #16, #107 ) ;
#135 = PRODUCT ( '3D_GR1032_48.3x2_188771500', '3D_GR1032_48.3x2_188771500', '', ( #89 ) ) ;
#136 = FACE_OUTER_BOUND ( 'NONE', #179, .T. ) ;
#137 = DATE_TIME_ROLE ( 'creation_date' ) ;
#138 = ORIENTED_EDGE ( 'NONE', *, *, #159, .F. ) ;
#139 = ORIENTED_EDGE ( 'NONE', *, *, #199, .T. ) ;
#140 = ORIENTED_EDGE ( 'NONE', *, *, #199, .F. ) ;
#141 = EDGE_LOOP ( 'NONE', ( #213, #181 ) ) ;
#142 = CARTESIAN_POINT ( 'NONE',  ( -24.14999999999999858, 0.000000000000000000, -2.957522019940857930E-15 ) ) ;
#143 = CIRCLE ( 'NONE', #95, 16.60000000000000497 ) ;
#144 = ADVANCED_FACE ( 'NONE', ( #65 ), #22, .T. ) ;
#145 = DIRECTION ( 'NONE',  ( 0.000000000000000000, 0.000000000000000000, 1.000000000000000000 ) ) ;
#146 = PRODUCT_RELATED_PRODUCT_CATEGORY ( 'detail', '', ( #135 ) ) ;
#147 = DIRECTION ( 'NONE',  ( 0.000000000000000000, 0.000000000000000000, 1.000000000000000000 ) ) ;
#148 = COORDINATED_UNIVERSAL_TIME_OFFSET ( 1, 0, .AHEAD. ) ;
#149 = APPROVAL_ROLE ( '' ) ;
#150 = ADVANCED_FACE ( 'NONE', ( #17 ), #32, .T. ) ;
#151 = APPROVAL_ROLE ( '' ) ;
#152 = DIRECTION ( 'NONE',  ( 0.000000000000000000, 0.000000000000000000, 1.000000000000000000 ) ) ;
#153 = FACE_OUTER_BOUND ( 'NONE', #141, .T. ) ;
#154 = PLANE ( 'NONE',  #103 ) ;
#155 = DIRECTION ( 'NONE',  ( 0.000000000000000000, 0.000000000000000000, 1.000000000000000000 ) ) ;
#156 = CIRCLE ( 'NONE', #26, 22.14999999999999503 ) ;
#157 = CARTESIAN_POINT ( 'NONE',  ( 24.14999999999999858, 0.000000000000000000, 0.000000000000000000 ) ) ;
#158 = ORIENTED_EDGE ( 'NONE', *, *, #46, .T. ) ;
#159 = EDGE_CURVE ( 'NONE', #59, #101, #247, .T. ) ;
#160 = APPROVAL ( #192, 'UNSPECIFIED' ) ;
#161 = DIRECTION ( 'NONE',  ( 0.000000000000000000, 0.000000000000000000, 1.000000000000000000 ) ) ;
#162 = ORGANIZATION ( 'UNSPECIFIED', 'UNSPECIFIED', '' ) ;
#163 = DIRECTION ( 'NONE',  ( -1.000000000000000000, 0.000000000000000000, 0.000000000000000000 ) ) ;
#164 = DIRECTION ( 'NONE',  ( 1.000000000000000000, 0.000000000000000000, 0.000000000000000000 ) ) ;
#165 = CARTESIAN_POINT ( 'NONE',  ( -40.75000000000000000, 0.000000000000000000, 0.000000000000000000 ) ) ;
#166 = COORDINATED_UNIVERSAL_TIME_OFFSET ( 1, 0, .AHEAD. ) ;
#167 = AXIS2_PLACEMENT_3D ( 'NONE', #80, #216, #81 ) ;
#168 = PRODUCT_DEFINITION ( 'UNKNOWN', '', #221, #253 ) ;
#169 = AXIS2_PLACEMENT_3D ( 'NONE', #182, #201, #11 ) ;
#170 = DIRECTION ( 'NONE',  ( 0.000000000000000000, 0.000000000000000000, 1.000000000000000000 ) ) ;
#171 = CARTESIAN_POINT ( 'NONE',  ( 0.000000000000000000, 0.000000000000000000, 0.000000000000000000 ) ) ;
#172 = CIRCLE ( 'NONE', #167, 24.14999999999999858 ) ;
#173 = EDGE_LOOP ( 'NONE', ( #85, #1, #60, #140 ) ) ;
#174 = CARTESIAN_POINT ( 'NONE',  ( 0.000000000000000000, 0.000000000000000000, 0.000000000000000000 ) ) ;
#175 = DIRECTION ( 'NONE',  ( 0.000000000000000000, 0.000000000000000000, 1.000000000000000000 ) ) ;
#176 = EDGE_CURVE ( 'NONE', #106, #59, #45, .T. ) ;
#177 = VERTEX_POINT ( 'NONE', #7 ) ;
#178 = CC_DESIGN_PERSON_AND_ORGANIZATION_ASSIGNMENT ( #108, #51, ( #135 ) ) ;
#179 = EDGE_LOOP ( 'NONE', ( #203, #28 ) ) ;
#180 = DIRECTION ( 'NONE',  ( 1.000000000000000000, 0.000000000000000000, 0.000000000000000000 ) ) ;
#181 = ORIENTED_EDGE ( 'NONE', *, *, #46, .F. ) ;
#182 = CARTESIAN_POINT ( 'NONE',  ( 0.000000000000000000, 0.000000000000000000, 0.000000000000000000 ) ) ;
#183 =( LENGTH_UNIT ( ) NAMED_UNIT ( * ) SI_UNIT ( .MILLI., .METRE. ) );
#184 = CALENDAR_DATE ( 2024, 7, 11 ) ;
#185 = PRODUCT_DEFINITION_SHAPE ( 'NONE', 'NONE',  #168 ) ;
#186 = EDGE_CURVE ( 'NONE', #98, #177, #218, .T. ) ;
#187 = APPROVAL ( #10, 'UNSPECIFIED' ) ;
#188 = DATE_AND_TIME ( #184, #239 ) ;
#189 = AXIS2_PLACEMENT_3D ( 'NONE', #174, #62, #44 ) ;
#190 = COORDINATED_UNIVERSAL_TIME_OFFSET ( 1, 0, .AHEAD. ) ;
#191 = CARTESIAN_POINT ( 'NONE',  ( -40.75000000000000000, 64.90000000000000568, 0.000000000000000000 ) ) ;
#192 = APPROVAL_STATUS ( 'not_yet_approved' ) ;
#193 = AXIS2_PLACEMENT_3D ( 'NONE', #9, #124, #105 ) ;
#194 = DIRECTION ( 'NONE',  ( 1.000000000000000000, 0.000000000000000000, 0.000000000000000000 ) ) ;
#195 = DIRECTION ( 'NONE',  ( 1.000000000000000000, 0.000000000000000000, 0.000000000000000000 ) ) ;
#196 = APPROVAL_PERSON_ORGANIZATION ( #128, #187, #206 ) ;
#197 = EDGE_LOOP ( 'NONE', ( #8, #43 ) ) ;
#198 = DIRECTION ( 'NONE',  ( 0.000000000000000000, 1.000000000000000000, 0.000000000000000000 ) ) ;
#199 = EDGE_CURVE ( 'NONE', #106, #215, #143, .T. ) ;
#200 = FACE_BOUND ( 'NONE', #197, .T. ) ;
#201 = DIRECTION ( 'NONE',  ( 0.000000000000000000, 1.000000000000000000, 0.000000000000000000 ) ) ;
#202 = DIRECTION ( 'NONE',  ( 0.000000000000000000, 0.000000000000000000, 1.000000000000000000 ) ) ;
#203 = ORIENTED_EDGE ( 'NONE', *, *, #228, .T. ) ;
#204 = CARTESIAN_POINT ( 'NONE',  ( 0.000000000000000000, 0.000000000000000000, 0.000000000000000000 ) ) ;
#205 = DIRECTION ( 'NONE',  ( 0.000000000000000000, 0.000000000000000000, 1.000000000000000000 ) ) ;
#206 = APPROVAL_ROLE ( '' ) ;
#207 = PERSON_AND_ORGANIZATION_ROLE ( 'design_supplier' ) ;
#208 = EDGE_CURVE ( 'NONE', #77, #117, #236, .T. ) ;
#209 = CC_DESIGN_DATE_AND_TIME_ASSIGNMENT ( #34, #137, ( #168 ) ) ;
#210 = LOCAL_TIME ( 9, 10, 56.00000000000000000, #148 ) ;
#211 = AXIS2_PLACEMENT_3D ( 'NONE', #88, #238, #180 ) ;
#212 = SHAPE_DEFINITION_REPRESENTATION ( #185, #37 ) ;
#213 = ORIENTED_EDGE ( 'NONE', *, *, #176, .F. ) ;
#214 = DIRECTION ( 'NONE',  ( 0.000000000000000000, -0.000000000000000000, 1.000000000000000000 ) ) ;
#215 = VERTEX_POINT ( 'NONE', #87 ) ;
#216 = DIRECTION ( 'NONE',  ( 0.000000000000000000, 1.000000000000000000, 0.000000000000000000 ) ) ;
#217 = CARTESIAN_POINT ( 'NONE',  ( -40.75000000000000000, 40.75000000000000000, 0.000000000000000000 ) ) ;
#218 = CIRCLE ( 'NONE', #193, 22.14999999999999503 ) ;
#219 =( NAMED_UNIT ( * ) PLANE_ANGLE_UNIT ( ) SI_UNIT ( $, .RADIAN. ) );
#220 = APPLICATION_CONTEXT ( 'configuration controlled 3d designs of mechanical parts and assemblies' ) ;
#221 = PRODUCT_DEFINITION_FORMATION_WITH_SPECIFIED_SOURCE ( 'ANY', '', #135, .NOT_KNOWN. ) ;
#222 = FACE_OUTER_BOUND ( 'NONE', #4, .T. ) ;
#223 =( NAMED_UNIT ( * ) SI_UNIT ( $, .STERADIAN. ) SOLID_ANGLE_UNIT ( ) );
#224 = ADVANCED_FACE ( 'NONE', ( #222 ), #86, .F. ) ;
#225 = PERSON_AND_ORGANIZATION ( #130, #162 ) ;
#226 = AXIS2_PLACEMENT_3D ( 'NONE', #165, #161, #164 ) ;
#227 = SECURITY_CLASSIFICATION_LEVEL ( 'unclassified' ) ;
#228 = EDGE_CURVE ( 'NONE', #215, #101, #120, .T. ) ;
#229 = CC_DESIGN_PERSON_AND_ORGANIZATION_ASSIGNMENT ( #225, #230, ( #221 ) ) ;
#230 = PERSON_AND_ORGANIZATION_ROLE ( 'creator' ) ;
#231 = ORIENTED_EDGE ( 'NONE', *, *, #90, .F. ) ;
#232 = ORIENTED_EDGE ( 'NONE', *, *, #115, .F. ) ;
#233 = CC_DESIGN_SECURITY_CLASSIFICATION ( #2, ( #221 ) ) ;
#234 = FACE_OUTER_BOUND ( 'NONE', #5, .T. ) ;
#235 = PLANE ( 'NONE',  #125 ) ;
#236 = CIRCLE ( 'NONE', #18, 22.14999999999999503 ) ;
#237 = CIRCLE ( 'NONE', #133, 62.89999999999999858 ) ;
#238 = DIRECTION ( 'NONE',  ( 0.000000000000000000, 0.000000000000000000, 1.000000000000000000 ) ) ;
#239 = LOCAL_TIME ( 9, 10, 56.00000000000000000, #12 ) ;
#240 = CARTESIAN_POINT ( 'NONE',  ( -40.75000000000000000, 40.75000000000000000, 0.000000000000000000 ) ) ;
#241 = DIRECTION ( 'NONE',  ( 0.000000000000000000, 0.000000000000000000, 1.000000000000000000 ) ) ;
#242 = CLOSED_SHELL ( 'NONE', ( #64, #144, #150, #6, #15, #224 ) ) ;
#243 = APPROVAL_DATE_TIME ( #188, #48 ) ;
#244 = AXIS2_PLACEMENT_3D ( 'NONE', #31, #163, #129 ) ;
#245 = EDGE_CURVE ( 'NONE', #101, #215, #42, .T. ) ;
#246 = PERSON_AND_ORGANIZATION ( #130, #162 ) ;
#247 = CIRCLE ( 'NONE', #211, 64.90000000000000568 ) ;
#248 = CARTESIAN_POINT ( 'NONE',  ( -22.14999999999999503, 0.000000000000000000, -2.712592660111386845E-15 ) ) ;
#249 = PERSON_AND_ORGANIZATION ( #130, #162 ) ;
#250 = ORIENTED_EDGE ( 'NONE', *, *, #115, .T. ) ;
#251 = CALENDAR_DATE ( 2024, 7, 11 ) ;
#252 = ORIENTED_EDGE ( 'NONE', *, *, #208, .F. ) ;
#253 = DESIGN_CONTEXT ( 'detailed design', #113, 'design' ) ;
ENDSEC;
END-ISO-10303-21;
