ISO-10303-21;
HEADER;
FILE_DESCRIPTION (( 'STEP AP203' ),
    '1' );
FILE_NAME ('3D_GR1214_48.3x2_188701410.STEP',
    '2024-10-08T07:11:20',
    ( '' ),
    ( '' ),
    'SwSTEP 2.0',
    'SolidWorks 2024',
    '' );
FILE_SCHEMA (( 'CONFIG_CONTROL_DESIGN' ));
ENDSEC;

DATA;
#1 = DIRECTION ( 'NONE',  ( 0.000000000000000000, 0.000000000000000000, 1.000000000000000000 ) ) ;
#2 = EDGE_CURVE ( 'NONE', #288, #321, #90, .T. ) ;
#3 = CARTESIAN_POINT ( 'NONE',  ( 57.87103872696798845, 0.000000000000000000, 25.70961473851437162 ) ) ;
#4 = AXIS2_PLACEMENT_3D ( 'NONE', #211, #363, #339 ) ;
#5 = DIRECTION ( 'NONE',  ( -1.000000000000000000, 0.000000000000000000, 0.000000000000000000 ) ) ;
#6 = VERTEX_POINT ( 'NONE', #80 ) ;
#7 = EDGE_CURVE ( 'NONE', #224, #371, #269, .T. ) ;
#8 = DIRECTION ( 'NONE',  ( 1.000000000000000000, 0.000000000000000000, -0.000000000000000000 ) ) ;
#9 = EDGE_LOOP ( 'NONE', ( #165, #104 ) ) ;
#10 = FACE_OUTER_BOUND ( 'NONE', #82, .T. ) ;
#11 = EDGE_LOOP ( 'NONE', ( #313, #50 ) ) ;
#12 = CIRCLE ( 'NONE', #108, 28.20000000000000284 ) ;
#13 = CARTESIAN_POINT ( 'NONE',  ( 31.07103872696798774, 2.884043211992016999E-15, 78.90961473851437802 ) ) ;
#14 = COORDINATED_UNIVERSAL_TIME_OFFSET ( 1, 0, .AHEAD. ) ;
#15 = CARTESIAN_POINT ( 'NONE',  ( 57.87103872696798845, 0.000000000000000000, 3.559614738514377486 ) ) ;
#16 =( NAMED_UNIT ( * ) SI_UNIT ( $, .STERADIAN. ) SOLID_ANGLE_UNIT ( ) );
#17 = DIRECTION ( 'NONE',  ( 1.000000000000000000, -0.000000000000000000, -0.000000000000000000 ) ) ;
#18 = AXIS2_PLACEMENT_3D ( 'NONE', #240, #95, #389 ) ;
#19 = VERTEX_POINT ( 'NONE', #375 ) ;
#20 = AXIS2_PLACEMENT_3D ( 'NONE', #181, #306, #217 ) ;
#21 = ORIENTED_EDGE ( 'NONE', *, *, #79, .T. ) ;
#22 = VERTEX_POINT ( 'NONE', #317 ) ;
#23 = SHAPE_DEFINITION_REPRESENTATION ( #212, #294 ) ;
#24 = DIRECTION ( 'NONE',  ( 1.000000000000000000, 0.000000000000000000, 0.000000000000000000 ) ) ;
#25 = CIRCLE ( 'NONE', #242, 24.14999999999999858 ) ;
#26 = DATE_TIME_ROLE ( 'classification_date' ) ;
#27 = DIRECTION ( 'NONE',  ( 1.000000000000000000, 0.000000000000000000, 0.000000000000000000 ) ) ;
#28 = ADVANCED_FACE ( 'NONE', ( #78 ), #275, .T. ) ;
#29 = APPROVAL_ROLE ( '' ) ;
#30 = DIRECTION ( 'NONE',  ( 1.000000000000000000, 0.000000000000000000, -1.172723344798592414E-16 ) ) ;
#31 = CARTESIAN_POINT ( 'NONE',  ( 57.87103872696798845, 0.000000000000000000, 53.90961473851437802 ) ) ;
#32 = APPROVAL_PERSON_ORGANIZATION ( #89, #301, #354 ) ;
#33 = DIRECTION ( 'NONE',  ( -0.000000000000000000, -1.000000000000000000, -0.000000000000000000 ) ) ;
#34 = DIRECTION ( 'NONE',  ( 2.873247993336326532E-16, -3.049773558315971101E-16, 1.000000000000000000 ) ) ;
#35 = VERTEX_POINT ( 'NONE', #136 ) ;
#36 = AXIS2_PLACEMENT_3D ( 'NONE', #116, #91, #88 ) ;
#37 = PLANE ( 'NONE',  #83 ) ;
#38 = ORIENTED_EDGE ( 'NONE', *, *, #323, .F. ) ;
#39 = FACE_OUTER_BOUND ( 'NONE', #131, .T. ) ;
#40 = ORIENTED_EDGE ( 'NONE', *, *, #173, .T. ) ;
#41 = CARTESIAN_POINT ( 'NONE',  ( 7.521038726967986143, 0.000000000000000000, 78.90961473851437802 ) ) ;
#42 = EDGE_CURVE ( 'NONE', #337, #371, #12, .T. ) ;
#43 = CC_DESIGN_APPROVAL ( #366, ( #114 ) ) ;
#44 = EDGE_LOOP ( 'NONE', ( #113, #251, #274, #143 ) ) ;
#45 = DATE_AND_TIME ( #284, #132 ) ;
#46 = DIRECTION ( 'NONE',  ( -0.000000000000000000, -1.000000000000000000, -0.000000000000000000 ) ) ;
#47 = EDGE_CURVE ( 'NONE', #227, #224, #204, .T. ) ;
#48 = CIRCLE ( 'NONE', #185, 24.14999999999999858 ) ;
#49 = ORIENTED_EDGE ( 'NONE', *, *, #180, .T. ) ;
#50 = ORIENTED_EDGE ( 'NONE', *, *, #186, .T. ) ;
#51 = APPROVAL_STATUS ( 'not_yet_approved' ) ;
#52 = MANIFOLD_SOLID_BREP ( 'Aufsatz-Linear austragen5', #350 ) ;
#53 = FACE_OUTER_BOUND ( 'NONE', #291, .T. ) ;
#54 = PERSON_AND_ORGANIZATION_ROLE ( 'classification_officer' ) ;
#55 = AXIS2_PLACEMENT_3D ( 'NONE', #194, #141, #222 ) ;
#56 = CARTESIAN_POINT ( 'NONE',  ( 7.521038726967986143, 0.000000000000000000, 78.90961473851437802 ) ) ;
#57 = TOROIDAL_SURFACE ( 'NONE', #20, 50.35000000000000142, 22.14999999999999503 ) ;
#58 = DATE_AND_TIME ( #77, #160 ) ;
#59 = LINE ( 'NONE', #359, #69 ) ;
#60 = APPLICATION_CONTEXT ( 'configuration controlled 3d designs of mechanical parts and assemblies' ) ;
#61 = FACE_BOUND ( 'NONE', #167, .T. ) ;
#62 = PLANE ( 'NONE',  #18 ) ;
#63 = TOROIDAL_SURFACE ( 'NONE', #282, 50.35000000000000142, 22.14999999999999503 ) ;
#64 = LOCAL_TIME ( 9, 11, 20.00000000000000000, #14 ) ;
#65 = CARTESIAN_POINT ( 'NONE',  ( 31.07103872696798774, 2.884043211992016999E-15, 78.90961473851437802 ) ) ;
#66 = DIRECTION ( 'NONE',  ( -0.000000000000000000, -1.000000000000000000, -0.000000000000000000 ) ) ;
#67 = ORIENTED_EDGE ( 'NONE', *, *, #42, .T. ) ;
#68 = CARTESIAN_POINT ( 'NONE',  ( -14.62896127303200977, 0.000000000000000000, 78.90961473851437802 ) ) ;
#69 = VECTOR ( 'NONE', #271, 1000.000000000000000 ) ;
#70 = AXIS2_PLACEMENT_3D ( 'NONE', #281, #133, #189 ) ;
#71 = ORIENTED_EDGE ( 'NONE', *, *, #323, .T. ) ;
#72 = LINE ( 'NONE', #373, #156 ) ;
#73 = EDGE_LOOP ( 'NONE', ( #309, #315 ) ) ;
#74 = ADVANCED_FACE ( 'NONE', ( #260 ), #63, .F. ) ;
#75 = PERSON_AND_ORGANIZATION ( #202, #150 ) ;
#76 = VECTOR ( 'NONE', #268, 1000.000000000000000 ) ;
#77 = CALENDAR_DATE ( 2024, 8, 10 ) ;
#78 = FACE_OUTER_BOUND ( 'NONE', #44, .T. ) ;
#79 = EDGE_CURVE ( 'NONE', #371, #224, #386, .T. ) ;
#80 = CARTESIAN_POINT ( 'NONE',  ( -16.02896127303201368, 0.000000000000000000, 53.90961473851437091 ) ) ;
#81 = DIRECTION ( 'NONE',  ( 0.000000000000000000, 0.000000000000000000, -1.000000000000000000 ) ) ;
#82 = EDGE_LOOP ( 'NONE', ( #353, #348, #290, #261 ) ) ;
#83 = AXIS2_PLACEMENT_3D ( 'NONE', #279, #369, #8 ) ;
#84 = APPLICATION_PROTOCOL_DEFINITION ( 'international standard', 'config_control_design', 1994, #303 ) ;
#85 = EDGE_LOOP ( 'NONE', ( #38, #112, #111, #213 ) ) ;
#86 = APPLICATION_PROTOCOL_DEFINITION ( 'international standard', 'config_control_design', 1994, #60 ) ;
#87 = EDGE_CURVE ( 'NONE', #288, #6, #59, .T. ) ;
#88 = DIRECTION ( 'NONE',  ( -1.000000000000000000, 0.000000000000000000, 0.000000000000000000 ) ) ;
#89 = PERSON_AND_ORGANIZATION ( #202, #150 ) ;
#90 = CIRCLE ( 'NONE', #55, 23.55000000000000071 ) ;
#91 = DIRECTION ( 'NONE',  ( -0.000000000000000000, -0.000000000000000000, -1.000000000000000000 ) ) ;
#92 = AXIS2_PLACEMENT_3D ( 'NONE', #341, #273, #34 ) ;
#93 = DIRECTION ( 'NONE',  ( 0.000000000000000000, 0.000000000000000000, 1.000000000000000000 ) ) ;
#94 = LINE ( 'NONE', #146, #76 ) ;
#95 = DIRECTION ( 'NONE',  ( 1.583540370755421114E-16, 0.000000000000000000, -1.000000000000000000 ) ) ;
#96 = AXIS2_PLACEMENT_3D ( 'NONE', #151, #30, #238 ) ;
#97 = CIRCLE ( 'NONE', #257, 23.55000000000000071 ) ;
#98 = DIRECTION ( 'NONE',  ( 0.000000000000000000, 0.000000000000000000, 1.000000000000000000 ) ) ;
#99 = FACE_OUTER_BOUND ( 'NONE', #73, .T. ) ;
#100 = ORIENTED_EDGE ( 'NONE', *, *, #47, .F. ) ;
#101 = AXIS2_PLACEMENT_3D ( 'NONE', #235, #207, #329 ) ;
#102 = DIRECTION ( 'NONE',  ( 1.000000000000000000, 9.553975237966659707E-32, -3.132683478061954848E-16 ) ) ;
#103 = EDGE_CURVE ( 'NONE', #19, #382, #216, .T. ) ;
#104 = ORIENTED_EDGE ( 'NONE', *, *, #103, .F. ) ;
#105 = PERSON_AND_ORGANIZATION ( #202, #150 ) ;
#106 = COORDINATED_UNIVERSAL_TIME_OFFSET ( 1, 0, .AHEAD. ) ;
#107 = VERTEX_POINT ( 'NONE', #118 ) ;
#108 = AXIS2_PLACEMENT_3D ( 'NONE', #110, #195, #318 ) ;
#109 = CIRCLE ( 'NONE', #370, 23.55000000000000071 ) ;
#110 = CARTESIAN_POINT ( 'NONE',  ( 57.87103872696798845, 2.712592660111386845E-15, 53.90961473851437802 ) ) ;
#111 = ORIENTED_EDGE ( 'NONE', *, *, #205, .T. ) ;
#112 = ORIENTED_EDGE ( 'NONE', *, *, #103, .T. ) ;
#113 = ORIENTED_EDGE ( 'NONE', *, *, #280, .F. ) ;
#114 = SECURITY_CLASSIFICATION ( '', '', #296 ) ;
#115 = ADVANCED_FACE ( 'NONE', ( #53 ), #138, .T. ) ;
#116 = CARTESIAN_POINT ( 'NONE',  ( 7.521038726967986143, 0.000000000000000000, 78.90961473851437802 ) ) ;
#117 = PERSON_AND_ORGANIZATION ( #202, #150 ) ;
#118 = CARTESIAN_POINT ( 'NONE',  ( 57.87103872696798845, 0.000000000000000000, -20.59038526148562198 ) ) ;
#119 = EDGE_CURVE ( 'NONE', #35, #199, #48, .T. ) ;
#120 = AXIS2_PLACEMENT_3D ( 'NONE', #15, #17, #344 ) ;
#121 = CARTESIAN_POINT ( 'NONE',  ( -14.62896127303200977, 0.000000000000000000, 53.90961473851436381 ) ) ;
#122 = DIRECTION ( 'NONE',  ( 0.000000000000000000, 0.000000000000000000, -1.000000000000000000 ) ) ;
#123 = DIRECTION ( 'NONE',  ( 1.583540370755421114E-16, 0.000000000000000000, -1.000000000000000000 ) ) ;
#124 = DIRECTION ( 'NONE',  ( 0.000000000000000000, 0.000000000000000000, 1.000000000000000000 ) ) ;
#125 = ORIENTED_EDGE ( 'NONE', *, *, #142, .F. ) ;
#126 = ADVANCED_FACE ( 'NONE', ( #61, #295 ), #62, .F. ) ;
#127 = DIRECTION ( 'NONE',  ( -1.000000000000000000, 0.000000000000000000, 0.000000000000000000 ) ) ;
#128 = DIRECTION ( 'NONE',  ( 1.000000000000000000, 0.000000000000000000, 0.000000000000000000 ) ) ;
#129 = EDGE_CURVE ( 'NONE', #154, #6, #109, .T. ) ;
#130 =( LENGTH_UNIT ( ) NAMED_UNIT ( * ) SI_UNIT ( .MILLI., .METRE. ) );
#131 = EDGE_LOOP ( 'NONE', ( #100, #183, #67, #21 ) ) ;
#132 = LOCAL_TIME ( 9, 11, 20.00000000000000000, #170 ) ;
#133 = DIRECTION ( 'NONE',  ( -0.000000000000000000, -1.000000000000000000, -0.000000000000000000 ) ) ;
#134 = PERSON_AND_ORGANIZATION_ROLE ( 'creator' ) ;
#135 = ORIENTED_EDGE ( 'NONE', *, *, #362, .F. ) ;
#136 = CARTESIAN_POINT ( 'NONE',  ( -16.62896127303201155, 0.000000000000000000, 53.90961473851436381 ) ) ;
#137 = CC_DESIGN_DATE_AND_TIME_ASSIGNMENT ( #58, #26, ( #114 ) ) ;
#138 = TOROIDAL_SURFACE ( 'NONE', #358, 50.35000000000000142, 24.14999999999999858 ) ;
#139 = VECTOR ( 'NONE', #184, 1000.000000000000000 ) ;
#140 = ORIENTED_EDGE ( 'NONE', *, *, #2, .F. ) ;
#141 = DIRECTION ( 'NONE',  ( 0.000000000000000000, 0.000000000000000000, 1.000000000000000000 ) ) ;
#142 = EDGE_CURVE ( 'NONE', #227, #337, #192, .T. ) ;
#143 = ORIENTED_EDGE ( 'NONE', *, *, #163, .F. ) ;
#144 = DIRECTION ( 'NONE',  ( 1.583540370755421114E-16, 0.000000000000000000, -1.000000000000000000 ) ) ;
#145 = PERSON_AND_ORGANIZATION ( #202, #150 ) ;
#146 = CARTESIAN_POINT ( 'NONE',  ( -14.62896127303200977, 0.000000000000000000, 78.90961473851437802 ) ) ;
#147 = DIRECTION ( 'NONE',  ( 0.000000000000000000, 0.000000000000000000, 1.000000000000000000 ) ) ;
#148 = DIRECTION ( 'NONE',  ( 1.583540370755421114E-16, 0.000000000000000000, -1.000000000000000000 ) ) ;
#149 = CARTESIAN_POINT ( 'NONE',  ( 7.521038726967986143, 0.000000000000000000, 53.90961473851437091 ) ) ;
#150 = ORGANIZATION ( 'UNSPECIFIED', 'UNSPECIFIED', '' ) ;
#151 = CARTESIAN_POINT ( 'NONE',  ( 57.87103872696798845, 0.000000000000000000, 3.559614738514376597 ) ) ;
#152 = DIRECTION ( 'NONE',  ( -0.000000000000000000, -0.000000000000000000, -1.000000000000000000 ) ) ;
#153 = ADVANCED_FACE ( 'NONE', ( #331 ), #264, .F. ) ;
#154 = VERTEX_POINT ( 'NONE', #178 ) ;
#155 = CARTESIAN_POINT ( 'NONE',  ( 7.521038726967986143, 0.000000000000000000, 78.90961473851437802 ) ) ;
#156 = VECTOR ( 'NONE', #314, 1000.000000000000000 ) ;
#157 = CARTESIAN_POINT ( 'NONE',  ( 29.67103872696798206, 2.712592660111386845E-15, 53.90961473851437802 ) ) ;
#158 = FACE_OUTER_BOUND ( 'NONE', #201, .T. ) ;
#159 = SPHERICAL_SURFACE ( 'NONE', #297, 22.14999999999999503 ) ;
#160 = LOCAL_TIME ( 9, 11, 20.00000000000000000, #106 ) ;
#161 = ORIENTED_EDGE ( 'NONE', *, *, #42, .F. ) ;
#162 = COORDINATED_UNIVERSAL_TIME_OFFSET ( 1, 0, .AHEAD. ) ;
#163 = EDGE_CURVE ( 'NONE', #107, #22, #320, .T. ) ;
#164 = EDGE_LOOP ( 'NONE', ( #246, #168 ) ) ;
#165 = ORIENTED_EDGE ( 'NONE', *, *, #376, .F. ) ;
#166 = AXIS2_PLACEMENT_3D ( 'NONE', #384, #144, #324 ) ;
#167 = EDGE_LOOP ( 'NONE', ( #285, #380 ) ) ;
#168 = ORIENTED_EDGE ( 'NONE', *, *, #119, .F. ) ;
#169 = CALENDAR_DATE ( 2024, 8, 10 ) ;
#170 = COORDINATED_UNIVERSAL_TIME_OFFSET ( 1, 0, .AHEAD. ) ;
#171 = CIRCLE ( 'NONE', #206, 74.50000000000000000 ) ;
#172 = DIRECTION ( 'NONE',  ( 0.000000000000000000, 0.000000000000000000, 1.000000000000000000 ) ) ;
#173 = EDGE_CURVE ( 'NONE', #22, #107, #25, .T. ) ;
#174 = COORDINATED_UNIVERSAL_TIME_OFFSET ( 1, 0, .AHEAD. ) ;
#175 = DIRECTION ( 'NONE',  ( 0.000000000000000000, 0.000000000000000000, 1.000000000000000000 ) ) ;
#176 = DIRECTION ( 'NONE',  ( 1.000000000000000000, 0.000000000000000000, 0.000000000000000000 ) ) ;
#177 = AXIS2_PLACEMENT_3D ( 'NONE', #255, #377, #81 ) ;
#178 = CARTESIAN_POINT ( 'NONE',  ( 31.07103872696798774, 2.884043211992016999E-15, 53.90961473851437091 ) ) ;
#179 = APPROVAL_PERSON_ORGANIZATION ( #254, #197, #233 ) ;
#180 = EDGE_CURVE ( 'NONE', #337, #227, #188, .T. ) ;
#181 = CARTESIAN_POINT ( 'NONE',  ( 57.87103872696798845, 0.000000000000000000, 53.90961473851437802 ) ) ;
#182 = DIRECTION ( 'NONE',  ( -0.000000000000000000, -0.000000000000000000, -1.000000000000000000 ) ) ;
#183 = ORIENTED_EDGE ( 'NONE', *, *, #180, .F. ) ;
#184 = DIRECTION ( 'NONE',  ( -0.000000000000000000, -0.000000000000000000, -1.000000000000000000 ) ) ;
#185 = AXIS2_PLACEMENT_3D ( 'NONE', #361, #123, #302 ) ;
#186 = EDGE_CURVE ( 'NONE', #321, #288, #229, .T. ) ;
#187 = ORIENTED_EDGE ( 'NONE', *, *, #351, .F. ) ;
#188 = CIRCLE ( 'NONE', #328, 22.14999999999999503 ) ;
#189 = DIRECTION ( 'NONE',  ( 0.000000000000000000, 0.000000000000000000, -1.000000000000000000 ) ) ;
#190 = EDGE_LOOP ( 'NONE', ( #125, #286, #253, #161 ) ) ;
#191 = DATE_TIME_ROLE ( 'creation_date' ) ;
#192 = CIRCLE ( 'NONE', #166, 22.14999999999999503 ) ;
#193 = DATE_AND_TIME ( #169, #383 ) ;
#194 = CARTESIAN_POINT ( 'NONE',  ( 7.521038726967986143, 0.000000000000000000, 78.90961473851437802 ) ) ;
#195 = DIRECTION ( 'NONE',  ( -0.000000000000000000, -1.000000000000000000, -0.000000000000000000 ) ) ;
#196 = CARTESIAN_POINT ( 'NONE',  ( 57.87103872696798845, 0.000000000000000000, 53.90961473851437802 ) ) ;
#197 = APPROVAL ( #200, 'UNSPECIFIED' ) ;
#198 = AXIS2_PLACEMENT_3D ( 'NONE', #322, #147, #231 ) ;
#199 = VERTEX_POINT ( 'NONE', #360 ) ;
#200 = APPROVAL_STATUS ( 'not_yet_approved' ) ;
#201 = EDGE_LOOP ( 'NONE', ( #187, #140, #368, #347 ) ) ;
#202 = PERSON ( 'UNSPECIFIED', 'UNSPECIFIED', 'UNSPECIFIED', ('UNSPECIFIED'), ('UNSPECIFIED'), ('UNSPECIFIED') ) ;
#203 = CALENDAR_DATE ( 2024, 8, 10 ) ;
#204 = CIRCLE ( 'NONE', #228, 72.50000000000000000 ) ;
#205 = EDGE_CURVE ( 'NONE', #382, #227, #94, .T. ) ;
#206 = AXIS2_PLACEMENT_3D ( 'NONE', #307, #66, #276 ) ;
#207 = DIRECTION ( 'NONE',  ( -0.000000000000000000, -0.000000000000000000, -1.000000000000000000 ) ) ;
#208 = DIRECTION ( 'NONE',  ( -1.000000000000000000, 0.000000000000000000, -3.132683478061954848E-16 ) ) ;
#209 = CARTESIAN_POINT ( 'NONE',  ( 57.87103872696798845, 0.000000000000000000, 53.90961473851437802 ) ) ;
#210 = CARTESIAN_POINT ( 'NONE',  ( 7.521038726967986143, 0.000000000000000000, 53.90961473851437091 ) ) ;
#211 = CARTESIAN_POINT ( 'NONE',  ( 7.521038726967986143, 0.000000000000000000, 53.90961473851437091 ) ) ;
#212 = PRODUCT_DEFINITION_SHAPE ( 'NONE', 'NONE',  #340 ) ;
#213 = ORIENTED_EDGE ( 'NONE', *, *, #142, .T. ) ;
#214 = SPHERICAL_SURFACE ( 'NONE', #92, 24.14999999999999858 ) ;
#215 = ORIENTED_EDGE ( 'NONE', *, *, #330, .T. ) ;
#216 = CIRCLE ( 'NONE', #310, 22.14999999999999503 ) ;
#217 = DIRECTION ( 'NONE',  ( 0.000000000000000000, 0.000000000000000000, -1.000000000000000000 ) ) ;
#218 = FACE_OUTER_BOUND ( 'NONE', #226, .T. ) ;
#219 = DATE_AND_TIME ( #381, #64 ) ;
#220 = CC_DESIGN_DATE_AND_TIME_ASSIGNMENT ( #45, #191, ( #340 ) ) ;
#221 = MECHANICAL_CONTEXT ( 'NONE', #60, 'mechanical' ) ;
#222 = DIRECTION ( 'NONE',  ( 1.000000000000000000, 0.000000000000000000, 0.000000000000000000 ) ) ;
#223 = CIRCLE ( 'NONE', #4, 24.14999999999999858 ) ;
#224 = VERTEX_POINT ( 'NONE', #267 ) ;
#225 = ADVANCED_FACE ( 'NONE', ( #387 ), #385, .F. ) ;
#226 = EDGE_LOOP ( 'NONE', ( #40, #259 ) ) ;
#227 = VERTEX_POINT ( 'NONE', #121 ) ;
#228 = AXIS2_PLACEMENT_3D ( 'NONE', #196, #46, #319 ) ;
#229 = CIRCLE ( 'NONE', #378, 23.55000000000000071 ) ;
#230 = ORIENTED_EDGE ( 'NONE', *, *, #376, .T. ) ;
#231 = DIRECTION ( 'NONE',  ( 1.000000000000000000, 0.000000000000000000, 0.000000000000000000 ) ) ;
#232 = DIRECTION ( 'NONE',  ( 1.000000000000000000, 0.000000000000000000, -1.172723344798592414E-16 ) ) ;
#233 = APPROVAL_ROLE ( '' ) ;
#234 = CC_DESIGN_PERSON_AND_ORGANIZATION_ASSIGNMENT ( #252, #134, ( #352 ) ) ;
#235 = CARTESIAN_POINT ( 'NONE',  ( 7.521038726967986143, 0.000000000000000000, 78.90961473851437802 ) ) ;
#236 = CIRCLE ( 'NONE', #70, 26.20000000000000284 ) ;
#237 = FACE_OUTER_BOUND ( 'NONE', #11, .T. ) ;
#238 = DIRECTION ( 'NONE',  ( 0.000000000000000000, 0.000000000000000000, -1.000000000000000000 ) ) ;
#239 = ADVANCED_FACE ( 'NONE', ( #237, #311 ), #37, .T. ) ;
#240 = CARTESIAN_POINT ( 'NONE',  ( 7.521038726967986143, 0.000000000000000000, 53.90961473851437091 ) ) ;
#241 = CYLINDRICAL_SURFACE ( 'NONE', #312, 23.55000000000000071 ) ;
#242 = AXIS2_PLACEMENT_3D ( 'NONE', #357, #232, #122 ) ;
#243 = UNCERTAINTY_MEASURE_WITH_UNIT (LENGTH_MEASURE( 1.000000000000000082E-05 ), #130, 'distance_accuracy_value', 'NONE');
#244 = EDGE_LOOP ( 'NONE', ( #230, #71, #49, #379 ) ) ;
#245 =( NAMED_UNIT ( * ) PLANE_ANGLE_UNIT ( ) SI_UNIT ( $, .RADIAN. ) );
#246 = ORIENTED_EDGE ( 'NONE', *, *, #330, .F. ) ;
#247 = CYLINDRICAL_SURFACE ( 'NONE', #345, 23.55000000000000071 ) ;
#248 = LOCAL_TIME ( 9, 11, 20.00000000000000000, #162 ) ;
#249 = LINE ( 'NONE', #65, #139 ) ;
#250 = ADVANCED_FACE ( 'NONE', ( #99 ), #159, .F. ) ;
#251 = ORIENTED_EDGE ( 'NONE', *, *, #119, .T. ) ;
#252 = PERSON_AND_ORGANIZATION ( #202, #150 ) ;
#253 = ORIENTED_EDGE ( 'NONE', *, *, #7, .T. ) ;
#254 = PERSON_AND_ORGANIZATION ( #202, #150 ) ;
#255 = CARTESIAN_POINT ( 'NONE',  ( 57.87103872696798845, 0.000000000000000000, 53.90961473851437802 ) ) ;
#256 = AXIS2_PLACEMENT_3D ( 'NONE', #332, #272, #1 ) ;
#257 = AXIS2_PLACEMENT_3D ( 'NONE', #210, #124, #367 ) ;
#258 = PRODUCT_RELATED_PRODUCT_CATEGORY ( 'detail', '', ( #333 ) ) ;
#259 = ORIENTED_EDGE ( 'NONE', *, *, #163, .T. ) ;
#260 = FACE_OUTER_BOUND ( 'NONE', #190, .T. ) ;
#261 = ORIENTED_EDGE ( 'NONE', *, *, #87, .F. ) ;
#262 = PERSON_AND_ORGANIZATION_ROLE ( 'design_supplier' ) ;
#263 = AXIS2_PLACEMENT_3D ( 'NONE', #336, #98, #128 ) ;
#264 = CYLINDRICAL_SURFACE ( 'NONE', #36, 22.14999999999999503 ) ;
#265 = ADVANCED_FACE ( 'NONE', ( #158 ), #247, .T. ) ;
#266 = PERSON_AND_ORGANIZATION_ROLE ( 'design_owner' ) ;
#267 = CARTESIAN_POINT ( 'NONE',  ( 57.87103872696798845, 0.000000000000000000, -18.59038526148561843 ) ) ;
#268 = DIRECTION ( 'NONE',  ( -0.000000000000000000, -0.000000000000000000, -1.000000000000000000 ) ) ;
#269 = CIRCLE ( 'NONE', #120, 22.14999999999999503 ) ;
#270 = EDGE_CURVE ( 'NONE', #6, #154, #97, .T. ) ;
#271 = DIRECTION ( 'NONE',  ( -0.000000000000000000, -0.000000000000000000, -1.000000000000000000 ) ) ;
#272 = DIRECTION ( 'NONE',  ( 1.000000000000000000, -0.000000000000000000, -0.000000000000000000 ) ) ;
#273 = DIRECTION ( 'NONE',  ( 1.000000000000000000, 8.762755756561552554E-32, -2.873247993336326532E-16 ) ) ;
#274 = ORIENTED_EDGE ( 'NONE', *, *, #362, .T. ) ;
#275 = TOROIDAL_SURFACE ( 'NONE', #177, 50.35000000000000142, 24.14999999999999858 ) ;
#276 = DIRECTION ( 'NONE',  ( 0.000000000000000000, 0.000000000000000000, -1.000000000000000000 ) ) ;
#277 = CC_DESIGN_PERSON_AND_ORGANIZATION_ASSIGNMENT ( #75, #54, ( #114 ) ) ;
#278 = DESIGN_CONTEXT ( 'detailed design', #303, 'design' ) ;
#279 = CARTESIAN_POINT ( 'NONE',  ( 7.521038726967986143, 0.000000000000000000, 78.90961473851437802 ) ) ;
#280 = EDGE_CURVE ( 'NONE', #35, #107, #171, .T. ) ;
#281 = CARTESIAN_POINT ( 'NONE',  ( 57.87103872696798845, 2.957522019940857930E-15, 53.90961473851437802 ) ) ;
#282 = AXIS2_PLACEMENT_3D ( 'NONE', #209, #305, #298 ) ;
#283 = CC_DESIGN_APPROVAL ( #197, ( #352 ) ) ;
#284 = CALENDAR_DATE ( 2024, 8, 10 ) ;
#285 = ORIENTED_EDGE ( 'NONE', *, *, #270, .F. ) ;
#286 = ORIENTED_EDGE ( 'NONE', *, *, #47, .T. ) ;
#287 = CC_DESIGN_PERSON_AND_ORGANIZATION_ASSIGNMENT ( #105, #327, ( #340 ) ) ;
#288 = VERTEX_POINT ( 'NONE', #338 ) ;
#289 = CIRCLE ( 'NONE', #263, 22.14999999999999503 ) ;
#290 = ORIENTED_EDGE ( 'NONE', *, *, #129, .T. ) ;
#291 = EDGE_LOOP ( 'NONE', ( #215, #349, #365, #135 ) ) ;
#292 = APPROVAL_DATE_TIME ( #193, #366 ) ;
#293 = CC_DESIGN_PERSON_AND_ORGANIZATION_ASSIGNMENT ( #374, #266, ( #333 ) ) ;
#294 = ADVANCED_BREP_SHAPE_REPRESENTATION ( '3D_GR1214_48.3x2_188701410', ( #52, #198 ), #388 ) ;
#295 = FACE_OUTER_BOUND ( 'NONE', #164, .T. ) ;
#296 = SECURITY_CLASSIFICATION_LEVEL ( 'unclassified' ) ;
#297 = AXIS2_PLACEMENT_3D ( 'NONE', #316, #102, #364 ) ;
#298 = DIRECTION ( 'NONE',  ( 0.000000000000000000, 0.000000000000000000, -1.000000000000000000 ) ) ;
#299 = APPROVAL_DATE_TIME ( #219, #197 ) ;
#300 = CARTESIAN_POINT ( 'NONE',  ( 7.521038726967986143, 0.000000000000000000, 53.90961473851437091 ) ) ;
#301 = APPROVAL ( #325, 'UNSPECIFIED' ) ;
#302 = DIRECTION ( 'NONE',  ( -1.000000000000000000, 0.000000000000000000, -2.873247993336326532E-16 ) ) ;
#303 = APPLICATION_CONTEXT ( 'configuration controlled 3d designs of mechanical parts and assemblies' ) ;
#304 = CC_DESIGN_APPROVAL ( #301, ( #340 ) ) ;
#305 = DIRECTION ( 'NONE',  ( -0.000000000000000000, -1.000000000000000000, -0.000000000000000000 ) ) ;
#306 = DIRECTION ( 'NONE',  ( -0.000000000000000000, -1.000000000000000000, -0.000000000000000000 ) ) ;
#307 = CARTESIAN_POINT ( 'NONE',  ( 57.87103872696798845, 0.000000000000000000, 53.90961473851437802 ) ) ;
#308 = ADVANCED_FACE ( 'NONE', ( #218 ), #214, .T. ) ;
#309 = ORIENTED_EDGE ( 'NONE', *, *, #79, .F. ) ;
#310 = AXIS2_PLACEMENT_3D ( 'NONE', #326, #93, #176 ) ;
#311 = FACE_BOUND ( 'NONE', #9, .T. ) ;
#312 = AXIS2_PLACEMENT_3D ( 'NONE', #155, #182, #5 ) ;
#313 = ORIENTED_EDGE ( 'NONE', *, *, #2, .T. ) ;
#314 = DIRECTION ( 'NONE',  ( -0.000000000000000000, -0.000000000000000000, -1.000000000000000000 ) ) ;
#315 = ORIENTED_EDGE ( 'NONE', *, *, #7, .F. ) ;
#316 = CARTESIAN_POINT ( 'NONE',  ( 57.87103872696798845, 0.000000000000000000, 3.559614738514376597 ) ) ;
#317 = CARTESIAN_POINT ( 'NONE',  ( 57.87103872696798845, 2.957522019940857930E-15, 27.70961473851437518 ) ) ;
#318 = DIRECTION ( 'NONE',  ( 0.000000000000000000, 0.000000000000000000, -1.000000000000000000 ) ) ;
#319 = DIRECTION ( 'NONE',  ( 0.000000000000000000, 0.000000000000000000, -1.000000000000000000 ) ) ;
#320 = CIRCLE ( 'NONE', #96, 24.14999999999999858 ) ;
#321 = VERTEX_POINT ( 'NONE', #13 ) ;
#322 = CARTESIAN_POINT ( 'NONE',  ( 0.000000000000000000, 0.000000000000000000, 0.000000000000000000 ) ) ;
#323 = EDGE_CURVE ( 'NONE', #19, #337, #72, .T. ) ;
#324 = DIRECTION ( 'NONE',  ( -1.000000000000000000, 0.000000000000000000, -3.132683478061954848E-16 ) ) ;
#325 = APPROVAL_STATUS ( 'not_yet_approved' ) ;
#326 = CARTESIAN_POINT ( 'NONE',  ( 7.521038726967986143, 0.000000000000000000, 78.90961473851437802 ) ) ;
#327 = PERSON_AND_ORGANIZATION_ROLE ( 'creator' ) ;
#328 = AXIS2_PLACEMENT_3D ( 'NONE', #149, #148, #208 ) ;
#329 = DIRECTION ( 'NONE',  ( -1.000000000000000000, 0.000000000000000000, 0.000000000000000000 ) ) ;
#330 = EDGE_CURVE ( 'NONE', #199, #35, #223, .T. ) ;
#331 = FACE_OUTER_BOUND ( 'NONE', #244, .T. ) ;
#332 = CARTESIAN_POINT ( 'NONE',  ( 57.87103872696798845, 0.000000000000000000, 3.559614738514377486 ) ) ;
#333 = PRODUCT ( '3D_GR1214_48.3x2_188701410', '3D_GR1214_48.3x2_188701410', '', ( #221 ) ) ;
#334 = APPROVAL_PERSON_ORGANIZATION ( #145, #366, #29 ) ;
#335 = ADVANCED_FACE ( 'NONE', ( #10 ), #241, .T. ) ;
#336 = CARTESIAN_POINT ( 'NONE',  ( 7.521038726967986143, 0.000000000000000000, 78.90961473851437802 ) ) ;
#337 = VERTEX_POINT ( 'NONE', #157 ) ;
#338 = CARTESIAN_POINT ( 'NONE',  ( -16.02896127303201368, 0.000000000000000000, 78.90961473851437802 ) ) ;
#339 = DIRECTION ( 'NONE',  ( -1.000000000000000000, 0.000000000000000000, -2.873247993336326532E-16 ) ) ;
#340 = PRODUCT_DEFINITION ( 'UNKNOWN', '', #352, #278 ) ;
#341 = CARTESIAN_POINT ( 'NONE',  ( 57.87103872696798845, 0.000000000000000000, 3.559614738514376597 ) ) ;
#342 = APPROVAL_DATE_TIME ( #343, #301 ) ;
#343 = DATE_AND_TIME ( #203, #248 ) ;
#344 = DIRECTION ( 'NONE',  ( 0.000000000000000000, 0.000000000000000000, 1.000000000000000000 ) ) ;
#345 = AXIS2_PLACEMENT_3D ( 'NONE', #41, #152, #127 ) ;
#346 = CC_DESIGN_PERSON_AND_ORGANIZATION_ASSIGNMENT ( #117, #262, ( #352 ) ) ;
#347 = ORIENTED_EDGE ( 'NONE', *, *, #270, .T. ) ;
#348 = ORIENTED_EDGE ( 'NONE', *, *, #351, .T. ) ;
#349 = ORIENTED_EDGE ( 'NONE', *, *, #280, .T. ) ;
#350 = CLOSED_SHELL ( 'NONE', ( #74, #115, #153, #335, #28, #126, #308, #239, #265, #225, #250, #356 ) ) ;
#351 = EDGE_CURVE ( 'NONE', #321, #154, #249, .T. ) ;
#352 = PRODUCT_DEFINITION_FORMATION_WITH_SPECIFIED_SOURCE ( 'ANY', '', #333, .NOT_KNOWN. ) ;
#353 = ORIENTED_EDGE ( 'NONE', *, *, #186, .F. ) ;
#354 = APPROVAL_ROLE ( '' ) ;
#355 = DIRECTION ( 'NONE',  ( 0.000000000000000000, 0.000000000000000000, -1.000000000000000000 ) ) ;
#356 = ADVANCED_FACE ( 'NONE', ( #39 ), #57, .F. ) ;
#357 = CARTESIAN_POINT ( 'NONE',  ( 57.87103872696798845, 0.000000000000000000, 3.559614738514376597 ) ) ;
#358 = AXIS2_PLACEMENT_3D ( 'NONE', #31, #33, #355 ) ;
#359 = CARTESIAN_POINT ( 'NONE',  ( -16.02896127303201368, 0.000000000000000000, 78.90961473851437802 ) ) ;
#360 = CARTESIAN_POINT ( 'NONE',  ( 31.67103872696798561, 2.957522019940857930E-15, 53.90961473851437802 ) ) ;
#361 = CARTESIAN_POINT ( 'NONE',  ( 7.521038726967986143, 0.000000000000000000, 53.90961473851437091 ) ) ;
#362 = EDGE_CURVE ( 'NONE', #199, #22, #236, .T. ) ;
#363 = DIRECTION ( 'NONE',  ( 1.583540370755421114E-16, 0.000000000000000000, -1.000000000000000000 ) ) ;
#364 = DIRECTION ( 'NONE',  ( 3.132683478061954848E-16, -3.049773558315971101E-16, 1.000000000000000000 ) ) ;
#365 = ORIENTED_EDGE ( 'NONE', *, *, #173, .F. ) ;
#366 = APPROVAL ( #51, 'UNSPECIFIED' ) ;
#367 = DIRECTION ( 'NONE',  ( 1.000000000000000000, 0.000000000000000000, 0.000000000000000000 ) ) ;
#368 = ORIENTED_EDGE ( 'NONE', *, *, #87, .T. ) ;
#369 = DIRECTION ( 'NONE',  ( 0.000000000000000000, 0.000000000000000000, 1.000000000000000000 ) ) ;
#370 = AXIS2_PLACEMENT_3D ( 'NONE', #300, #175, #24 ) ;
#371 = VERTEX_POINT ( 'NONE', #3 ) ;
#372 = CC_DESIGN_SECURITY_CLASSIFICATION ( #114, ( #352 ) ) ;
#373 = CARTESIAN_POINT ( 'NONE',  ( 29.67103872696798206, 2.712592660111386845E-15, 78.90961473851437802 ) ) ;
#374 = PERSON_AND_ORGANIZATION ( #202, #150 ) ;
#375 = CARTESIAN_POINT ( 'NONE',  ( 29.67103872696798206, 2.712592660111386845E-15, 78.90961473851437802 ) ) ;
#376 = EDGE_CURVE ( 'NONE', #382, #19, #289, .T. ) ;
#377 = DIRECTION ( 'NONE',  ( -0.000000000000000000, -1.000000000000000000, -0.000000000000000000 ) ) ;
#378 = AXIS2_PLACEMENT_3D ( 'NONE', #56, #172, #27 ) ;
#379 = ORIENTED_EDGE ( 'NONE', *, *, #205, .F. ) ;
#380 = ORIENTED_EDGE ( 'NONE', *, *, #129, .F. ) ;
#381 = CALENDAR_DATE ( 2024, 8, 10 ) ;
#382 = VERTEX_POINT ( 'NONE', #68 ) ;
#383 = LOCAL_TIME ( 9, 11, 20.00000000000000000, #174 ) ;
#384 = CARTESIAN_POINT ( 'NONE',  ( 7.521038726967986143, 0.000000000000000000, 53.90961473851437091 ) ) ;
#385 = CYLINDRICAL_SURFACE ( 'NONE', #101, 22.14999999999999503 ) ;
#386 = CIRCLE ( 'NONE', #256, 22.14999999999999503 ) ;
#387 = FACE_OUTER_BOUND ( 'NONE', #85, .T. ) ;
#388 =( GEOMETRIC_REPRESENTATION_CONTEXT ( 3 ) GLOBAL_UNCERTAINTY_ASSIGNED_CONTEXT ( ( #243 ) ) GLOBAL_UNIT_ASSIGNED_CONTEXT ( ( #130, #245, #16 ) ) REPRESENTATION_CONTEXT ( 'NONE', 'WORKASPACE' ) );
#389 = DIRECTION ( 'NONE',  ( -1.000000000000000000, 0.000000000000000000, -1.583540370755421114E-16 ) ) ;
ENDSEC;
END-ISO-10303-21;
