ISO-10303-21;
HEADER;
FILE_DESCRIPTION (( 'STEP AP203' ),
    '1' );
FILE_NAME ('11-0206-03_outokumpu.step',
    '2015-08-11T09:46:43',
    ( '' ),
    ( '' ),
    'SwSTEP 2.0',
    'SolidWorks 2008',
    '' );
FILE_SCHEMA (( 'CONFIG_CONTROL_DESIGN' ));
ENDSEC;

DATA;
#1 = EDGE_LOOP ( 'NONE', ( #18, #19, #20, #145 ) ) ;
#2 = ADVANCED_FACE ( 'NONE', ( #49 ), #47, .F. ) ;
#3 = ORIENTED_EDGE ( 'NONE', *, *, #21, .T. ) ;
#4 = EDGE_LOOP ( 'NONE', ( #6, #3 ) ) ;
#5 = EDGE_CURVE ( 'NONE', #24, #22, #43, .T. ) ;
#6 = ORIENTED_EDGE ( 'NONE', *, *, #5, .T. ) ;
#7 = ORIENTED_EDGE ( 'NONE', *, *, #166, .T. ) ;
#8 = ORIENTED_EDGE ( 'NONE', *, *, #9, .T. ) ;
#9 = EDGE_CURVE ( 'NONE', #127, #126, #99, .T. ) ;
#10 = VERTEX_POINT ( 'NONE', #95 ) ;
#11 = EDGE_LOOP ( 'NONE', ( #8, #7 ) ) ;
#12 = EDGE_CURVE ( 'NONE', #22, #10, #94, .T. ) ;
#13 = ADVANCED_FACE ( 'NONE', ( #90, #89 ), #88, .F. ) ;
#14 = EDGE_CURVE ( 'NONE', #42, #32, #82, .T. ) ;
#15 = ORIENTED_EDGE ( 'NONE', *, *, #14, .T. ) ;
#16 = EDGE_LOOP ( 'NONE', ( #17, #15, #148, #149 ) ) ;
#17 = ORIENTED_EDGE ( 'NONE', *, *, #65, .F. ) ;
#18 = ORIENTED_EDGE ( 'NONE', *, *, #130, .F. ) ;
#19 = ORIENTED_EDGE ( 'NONE', *, *, #9, .F. ) ;
#20 = ORIENTED_EDGE ( 'NONE', *, *, #60, .T. ) ;
#21 = EDGE_CURVE ( 'NONE', #22, #24, #78, .T. ) ;
#22 = VERTEX_POINT ( 'NONE', #73 ) ;
#23 = ORIENTED_EDGE ( 'NONE', *, *, #21, .F. ) ;
#24 = VERTEX_POINT ( 'NONE', #72 ) ;
#25 = ORIENTED_EDGE ( 'NONE', *, *, #12, .T. ) ;
#26 = ORIENTED_EDGE ( 'NONE', *, *, #28, .F. ) ;
#27 = EDGE_LOOP ( 'NONE', ( #23, #25, #132, #162 ) ) ;
#28 = EDGE_CURVE ( 'NONE', #35, #32, #230, .T. ) ;
#29 = ADVANCED_FACE ( 'NONE', ( #226 ), #225, .T. ) ;
#30 = ORIENTED_EDGE ( 'NONE', *, *, #31, .F. ) ;
#31 = EDGE_CURVE ( 'NONE', #32, #42, #220, .T. ) ;
#32 = VERTEX_POINT ( 'NONE', #215 ) ;
#33 = ORIENTED_EDGE ( 'NONE', *, *, #34, .T. ) ;
#34 = EDGE_CURVE ( 'NONE', #37, #42, #214, .T. ) ;
#35 = VERTEX_POINT ( 'NONE', #210 ) ;
#36 = EDGE_CURVE ( 'NONE', #35, #37, #209, .T. ) ;
#37 = VERTEX_POINT ( 'NONE', #204 ) ;
#38 = ORIENTED_EDGE ( 'NONE', *, *, #36, .T. ) ;
#39 = ADVANCED_FACE ( 'NONE', ( #203 ), #200, .T. ) ;
#40 = EDGE_LOOP ( 'NONE', ( #38, #33, #30, #26 ) ) ;
#41 = MANIFOLD_SOLID_BREP ( 'NONE', #147 ) ;
#42 = VERTEX_POINT ( 'NONE', #201 ) ;
#43 = CIRCLE ( 'NONE', #103, 7.213967248049237400 ) ;
#44 = DIRECTION ( 'NONE',  ( 0.0000000000000000000, 1.000000000000000000, 0.0000000000000000000 ) ) ;
#45 = DIRECTION ( 'NONE',  ( -0.0000000000000000000, 1.911015923382736800E-016, -1.000000000000000000 ) ) ;
#46 = AXIS2_PLACEMENT_3D ( 'NONE', #48, #45, #44 ) ;
#47 = CYLINDRICAL_SURFACE ( 'NONE', #46, 6.300000000000002500 ) ;
#48 = CARTESIAN_POINT ( 'NONE',  ( 0.0000000000000000000, 7.347880794884103000E-016, -22.00000000000002500 ) ) ;
#49 = FACE_OUTER_BOUND ( 'NONE', #1, .T. ) ;
#50 = ORIENTED_EDGE ( 'NONE', *, *, #12, .F. ) ;
#51 = ORIENTED_EDGE ( 'NONE', *, *, #5, .F. ) ;
#52 = ORIENTED_EDGE ( 'NONE', *, *, #163, .T. ) ;
#53 = ORIENTED_EDGE ( 'NONE', *, *, #150, .T. ) ;
#54 = ADVANCED_FACE ( 'NONE', ( #123 ), #121, .T. ) ;
#55 = EDGE_LOOP ( 'NONE', ( #68, #69, #70, #71 ) ) ;
#56 = ORIENTED_EDGE ( 'NONE', *, *, #57, .T. ) ;
#57 = EDGE_CURVE ( 'NONE', #131, #58, #117, .T. ) ;
#58 = VERTEX_POINT ( 'NONE', #196 ) ;
#59 = ORIENTED_EDGE ( 'NONE', *, *, #60, .F. ) ;
#60 = EDGE_CURVE ( 'NONE', #127, #58, #195, .T. ) ;
#61 = ADVANCED_FACE ( 'NONE', ( #191 ), #190, .T. ) ;
#62 = EDGE_LOOP ( 'NONE', ( #63, #64, #66, #67 ) ) ;
#63 = ORIENTED_EDGE ( 'NONE', *, *, #31, .T. ) ;
#64 = ORIENTED_EDGE ( 'NONE', *, *, #65, .T. ) ;
#65 = EDGE_CURVE ( 'NONE', #42, #161, #185, .T. ) ;
#66 = ORIENTED_EDGE ( 'NONE', *, *, #160, .F. ) ;
#67 = ORIENTED_EDGE ( 'NONE', *, *, #133, .F. ) ;
#68 = ORIENTED_EDGE ( 'NONE', *, *, #34, .F. ) ;
#69 = ORIENTED_EDGE ( 'NONE', *, *, #159, .T. ) ;
#70 = ORIENTED_EDGE ( 'NONE', *, *, #28, .T. ) ;
#71 = ORIENTED_EDGE ( 'NONE', *, *, #14, .F. ) ;
#72 = CARTESIAN_POINT ( 'NONE',  ( -7.213967248049237400, 0.0000000000000000000, 1.311974505527457200E-018 ) ) ;
#73 = CARTESIAN_POINT ( 'NONE',  ( 7.213967248049237400, 8.994101311524947500E-016, 1.311974505527457200E-018 ) ) ;
#74 = DIRECTION ( 'NONE',  ( 1.000000000000000000, 0.0000000000000000000, 0.0000000000000000000 ) ) ;
#75 = DIRECTION ( 'NONE',  ( -0.0000000000000000000, -0.0000000000000000000, 1.000000000000000000 ) ) ;
#76 = CARTESIAN_POINT ( 'NONE',  ( 0.0000000000000000000, 0.0000000000000000000, 1.311974505527457200E-018 ) ) ;
#77 = AXIS2_PLACEMENT_3D ( 'NONE', #76, #75, #74 ) ;
#78 = CIRCLE ( 'NONE', #77, 7.213967248049237400 ) ;
#79 = DIRECTION ( 'NONE',  ( 1.000000000000000000, 0.0000000000000000000, 0.0000000000000000000 ) ) ;
#80 = DIRECTION ( 'NONE',  ( -0.0000000000000000000, -0.0000000000000000000, 1.000000000000000000 ) ) ;
#81 = AXIS2_PLACEMENT_3D ( 'NONE', #86, #80, #79 ) ;
#82 = CIRCLE ( 'NONE', #81, 7.475000000000001400 ) ;
#83 = DIRECTION ( 'NONE',  ( -1.000000000000000000, 0.0000000000000000000, -0.0000000000000000000 ) ) ;
#84 = DIRECTION ( 'NONE',  ( 0.0000000000000000000, 0.0000000000000000000, -1.000000000000000000 ) ) ;
#85 = AXIS2_PLACEMENT_3D ( 'NONE', #87, #84, #83 ) ;
#86 = CARTESIAN_POINT ( 'NONE',  ( 0.0000000000000000000, 0.0000000000000000000, -21.73896724804917500 ) ) ;
#87 = CARTESIAN_POINT ( 'NONE',  ( 0.0000000000000000000, 7.474999999999999600, -2.168404344971008900E-016 ) ) ;
#88 = PLANE ( 'NONE',  #85 ) ;
#89 = FACE_OUTER_BOUND ( 'NONE', #4, .T. ) ;
#90 = FACE_BOUND ( 'NONE', #11, .T. ) ;
#91 = DIRECTION ( 'NONE',  ( 0.7071067811865502400, 8.659274570719388700E-017, -0.7071067811865448000 ) ) ;
#92 = VECTOR ( 'NONE', #91, 1000.000000000000000 ) ;
#93 = CARTESIAN_POINT ( 'NONE',  ( 7.213967248049237400, 8.834270128227626200E-016, 1.311974505527457200E-018 ) ) ;
#94 = LINE ( 'NONE', #93, #92 ) ;
#95 = CARTESIAN_POINT ( 'NONE',  ( 7.474999999999999600, 0.0000000000000000000, -0.2610327519507605300 ) ) ;
#96 = DIRECTION ( 'NONE',  ( 0.0000000000000000000, 1.000000000000000000, 1.911015923382736800E-016 ) ) ;
#97 = DIRECTION ( 'NONE',  ( -0.0000000000000000000, 1.911015923382736800E-016, -1.000000000000000000 ) ) ;
#98 = AXIS2_PLACEMENT_3D ( 'NONE', #104, #97, #96 ) ;
#99 = CIRCLE ( 'NONE', #98, 6.300000000000001600 ) ;
#100 = DIRECTION ( 'NONE',  ( 1.000000000000000000, 0.0000000000000000000, 0.0000000000000000000 ) ) ;
#101 = DIRECTION ( 'NONE',  ( -0.0000000000000000000, -0.0000000000000000000, 1.000000000000000000 ) ) ;
#102 = CARTESIAN_POINT ( 'NONE',  ( 0.0000000000000000000, 0.0000000000000000000, 1.311974505527457200E-018 ) ) ;
#103 = AXIS2_PLACEMENT_3D ( 'NONE', #102, #101, #100 ) ;
#104 = CARTESIAN_POINT ( 'NONE',  ( 0.0000000000000000000, -3.469446951953615800E-015, 0.0000000000000000000 ) ) ;
#105 = DIRECTION ( 'NONE',  ( 0.0000000000000000000, 1.000000000000000000, 0.0000000000000000000 ) ) ;
#106 = DIRECTION ( 'NONE',  ( -0.0000000000000000000, 1.911015923382736800E-016, -1.000000000000000000 ) ) ;
#107 = AXIS2_PLACEMENT_3D ( 'NONE', #112, #106, #105 ) ;
#108 = CIRCLE ( 'NONE', #107, 6.300000000000003400 ) ;
#109 = DIRECTION ( 'NONE',  ( 1.000000000000000000, 0.0000000000000000000, 0.0000000000000000000 ) ) ;
#110 = DIRECTION ( 'NONE',  ( 0.0000000000000000000, -0.0000000000000000000, 1.000000000000000000 ) ) ;
#111 = AXIS2_PLACEMENT_3D ( 'NONE', #113, #110, #109 ) ;
#112 = CARTESIAN_POINT ( 'NONE',  ( 0.0000000000000000000, 7.347880794884051700E-016, -22.00000000000000000 ) ) ;
#113 = CARTESIAN_POINT ( 'NONE',  ( 0.0000000000000000000, 7.475000000000000500, -22.00000000000000000 ) ) ;
#114 = PLANE ( 'NONE',  #111 ) ;
#115 = CARTESIAN_POINT ( 'NONE',  ( 0.0000000000000000000, 7.347880794884051700E-016, -22.00000000000000000 ) ) ;
#116 = AXIS2_PLACEMENT_3D ( 'NONE', #115, #198, #197 ) ;
#117 = CIRCLE ( 'NONE', #116, 6.300000000000003400 ) ;
#118 = DIRECTION ( 'NONE',  ( 1.000000000000000000, 0.0000000000000000000, 0.0000000000000000000 ) ) ;
#119 = DIRECTION ( 'NONE',  ( -0.0000000000000000000, -0.0000000000000000000, 1.000000000000000000 ) ) ;
#120 = AXIS2_PLACEMENT_3D ( 'NONE', #122, #119, #118 ) ;
#121 = CONICAL_SURFACE ( 'NONE', #120, 7.475000000000001400, 0.7853981633974616000 ) ;
#122 = CARTESIAN_POINT ( 'NONE',  ( 0.0000000000000000000, 0.0000000000000000000, -21.73896724804917500 ) ) ;
#123 = FACE_OUTER_BOUND ( 'NONE', #55, .T. ) ;
#124 = DIRECTION ( 'NONE',  ( 1.000000000000000000, 0.0000000000000000000, 0.0000000000000000000 ) ) ;
#125 = AXIS2_PLACEMENT_3D ( 'NONE', #199, #202, #124 ) ;
#126 = VERTEX_POINT ( 'NONE', #181 ) ;
#127 = VERTEX_POINT ( 'NONE', #180 ) ;
#128 = ORIENTED_EDGE ( 'NONE', *, *, #130, .T. ) ;
#129 = EDGE_LOOP ( 'NONE', ( #50, #51, #52, #53 ) ) ;
#130 = EDGE_CURVE ( 'NONE', #126, #131, #179, .T. ) ;
#131 = VERTEX_POINT ( 'NONE', #175 ) ;
#132 = ORIENTED_EDGE ( 'NONE', *, *, #160, .T. ) ;
#133 = EDGE_CURVE ( 'NONE', #32, #10, #174, .T. ) ;
#134 = FACE_OUTER_BOUND ( 'NONE', #156, .T. ) ;
#135 = FACE_BOUND ( 'NONE', #152, .T. ) ;
#136 = DIRECTION ( 'NONE',  ( 1.000000000000000000, 0.0000000000000000000, 0.0000000000000000000 ) ) ;
#137 = DIRECTION ( 'NONE',  ( -0.0000000000000000000, -0.0000000000000000000, 1.000000000000000000 ) ) ;
#138 = CARTESIAN_POINT ( 'NONE',  ( 0.0000000000000000000, 0.0000000000000000000, -0.2610327519507605300 ) ) ;
#139 = AXIS2_PLACEMENT_3D ( 'NONE', #138, #137, #136 ) ;
#140 = DIRECTION ( 'NONE',  ( -1.000000000000000000, 0.0000000000000000000, 0.0000000000000000000 ) ) ;
#141 = DIRECTION ( 'NONE',  ( 0.0000000000000000000, 0.0000000000000000000, -1.000000000000000000 ) ) ;
#142 = AXIS2_PLACEMENT_3D ( 'NONE', #168, #141, #140 ) ;
#143 = CIRCLE ( 'NONE', #139, 7.474999999999999600 ) ;
#144 = EDGE_LOOP ( 'NONE', ( #165, #128, #56, #59 ) ) ;
#145 = ORIENTED_EDGE ( 'NONE', *, *, #154, .T. ) ;
#146 = ADVANCED_FACE ( 'NONE', ( #170 ), #169, .T. ) ;
#147 = CLOSED_SHELL ( 'NONE', ( #39, #29, #164, #61, #167, #151, #13, #2, #146, #54 ) ) ;
#148 = ORIENTED_EDGE ( 'NONE', *, *, #133, .T. ) ;
#149 = ORIENTED_EDGE ( 'NONE', *, *, #150, .F. ) ;
#150 = EDGE_CURVE ( 'NONE', #161, #10, #143, .T. ) ;
#151 = ADVANCED_FACE ( 'NONE', ( #135, #134 ), #114, .F. ) ;
#152 = EDGE_LOOP ( 'NONE', ( #153, #155 ) ) ;
#153 = ORIENTED_EDGE ( 'NONE', *, *, #154, .F. ) ;
#154 = EDGE_CURVE ( 'NONE', #58, #131, #108, .T. ) ;
#155 = ORIENTED_EDGE ( 'NONE', *, *, #57, .F. ) ;
#156 = EDGE_LOOP ( 'NONE', ( #157, #158 ) ) ;
#157 = ORIENTED_EDGE ( 'NONE', *, *, #36, .F. ) ;
#158 = ORIENTED_EDGE ( 'NONE', *, *, #159, .F. ) ;
#159 = EDGE_CURVE ( 'NONE', #37, #35, #236, .T. ) ;
#160 = EDGE_CURVE ( 'NONE', #10, #161, #275, .T. ) ;
#161 = VERTEX_POINT ( 'NONE', #270 ) ;
#162 = ORIENTED_EDGE ( 'NONE', *, *, #163, .F. ) ;
#163 = EDGE_CURVE ( 'NONE', #24, #161, #269, .T. ) ;
#164 = ADVANCED_FACE ( 'NONE', ( #265 ), #264, .F. ) ;
#165 = ORIENTED_EDGE ( 'NONE', *, *, #166, .F. ) ;
#166 = EDGE_CURVE ( 'NONE', #126, #127, #259, .T. ) ;
#167 = ADVANCED_FACE ( 'NONE', ( #254 ), #253, .T. ) ;
#168 = CARTESIAN_POINT ( 'NONE',  ( 0.0000000000000000000, 0.0000000000000000000, 1.311974505527457200E-018 ) ) ;
#169 = CONICAL_SURFACE ( 'NONE', #142, 7.213967248049237400, 0.7853981633974521600 ) ;
#170 = FACE_OUTER_BOUND ( 'NONE', #129, .T. ) ;
#171 = DIRECTION ( 'NONE',  ( -0.0000000000000000000, -0.0000000000000000000, 1.000000000000000000 ) ) ;
#172 = VECTOR ( 'NONE', #171, 1000.000000000000000 ) ;
#173 = CARTESIAN_POINT ( 'NONE',  ( 7.475000000000000500, 0.0000000000000000000, -4.336808689942017700E-016 ) ) ;
#174 = LINE ( 'NONE', #173, #172 ) ;
#175 = CARTESIAN_POINT ( 'NONE',  ( 7.715020029080981100E-016, -6.300000000000003400, -22.00000000000000000 ) ) ;
#176 = DIRECTION ( 'NONE',  ( -0.0000000000000000000, 1.911015923382736800E-016, -1.000000000000000000 ) ) ;
#177 = VECTOR ( 'NONE', #176, 1000.000000000000000 ) ;
#178 = CARTESIAN_POINT ( 'NONE',  ( 7.715020029080980100E-016, -6.300000000000001600, -22.00000000000002500 ) ) ;
#179 = LINE ( 'NONE', #178, #177 ) ;
#180 = CARTESIAN_POINT ( 'NONE',  ( 0.0000000000000000000, 6.299999999999998000, 1.203940031731124500E-015 ) ) ;
#181 = CARTESIAN_POINT ( 'NONE',  ( 7.715020029080981100E-016, -6.300000000000005200, -1.203940031731124500E-015 ) ) ;
#182 = DIRECTION ( 'NONE',  ( -0.0000000000000000000, -0.0000000000000000000, 1.000000000000000000 ) ) ;
#183 = VECTOR ( 'NONE', #182, 1000.000000000000000 ) ;
#184 = CARTESIAN_POINT ( 'NONE',  ( -7.475000000000000500, 9.153932494822270800E-016, -4.336808689942017700E-016 ) ) ;
#185 = LINE ( 'NONE', #184, #183 ) ;
#186 = DIRECTION ( 'NONE',  ( 1.000000000000000000, 0.0000000000000000000, 0.0000000000000000000 ) ) ;
#187 = DIRECTION ( 'NONE',  ( -0.0000000000000000000, -0.0000000000000000000, 1.000000000000000000 ) ) ;
#188 = CARTESIAN_POINT ( 'NONE',  ( 0.0000000000000000000, 0.0000000000000000000, -4.336808689942017700E-016 ) ) ;
#189 = AXIS2_PLACEMENT_3D ( 'NONE', #188, #187, #186 ) ;
#190 = CYLINDRICAL_SURFACE ( 'NONE', #189, 7.475000000000000500 ) ;
#191 = FACE_OUTER_BOUND ( 'NONE', #62, .T. ) ;
#192 = DIRECTION ( 'NONE',  ( -0.0000000000000000000, 1.911015923382736800E-016, -1.000000000000000000 ) ) ;
#193 = VECTOR ( 'NONE', #192, 1000.000000000000000 ) ;
#194 = CARTESIAN_POINT ( 'NONE',  ( 0.0000000000000000000, 6.300000000000003400, -22.00000000000002500 ) ) ;
#195 = LINE ( 'NONE', #194, #193 ) ;
#196 = CARTESIAN_POINT ( 'NONE',  ( 0.0000000000000000000, 6.300000000000004300, -22.00000000000000000 ) ) ;
#197 = DIRECTION ( 'NONE',  ( 0.0000000000000000000, 1.000000000000000000, 0.0000000000000000000 ) ) ;
#198 = DIRECTION ( 'NONE',  ( -0.0000000000000000000, 1.911015923382736800E-016, -1.000000000000000000 ) ) ;
#199 = CARTESIAN_POINT ( 'NONE',  ( 0.0000000000000000000, 0.0000000000000000000, -21.73896724804917500 ) ) ;
#200 = CONICAL_SURFACE ( 'NONE', #125, 7.475000000000001400, 0.7853981633974616000 ) ;
#201 = CARTESIAN_POINT ( 'NONE',  ( -7.475000000000002300, 9.153932494822272800E-016, -21.73896724804917500 ) ) ;
#202 = DIRECTION ( 'NONE',  ( -0.0000000000000000000, -0.0000000000000000000, 1.000000000000000000 ) ) ;
#203 = FACE_OUTER_BOUND ( 'NONE', #40, .T. ) ;
#204 = CARTESIAN_POINT ( 'NONE',  ( -7.213967248049172600, 8.994101311524910100E-016, -22.00000000000000000 ) ) ;
#205 = DIRECTION ( 'NONE',  ( 1.000000000000000000, 0.0000000000000000000, 0.0000000000000000000 ) ) ;
#206 = DIRECTION ( 'NONE',  ( -0.0000000000000000000, -0.0000000000000000000, 1.000000000000000000 ) ) ;
#207 = CARTESIAN_POINT ( 'NONE',  ( 0.0000000000000000000, 0.0000000000000000000, -22.00000000000000000 ) ) ;
#208 = AXIS2_PLACEMENT_3D ( 'NONE', #207, #206, #205 ) ;
#209 = CIRCLE ( 'NONE', #208, 7.213967248049172600 ) ;
#210 = CARTESIAN_POINT ( 'NONE',  ( 7.213967248049172600, 0.0000000000000000000, -22.00000000000000000 ) ) ;
#211 = DIRECTION ( 'NONE',  ( -0.7071067811865569000, 8.659274570719470000E-017, 0.7071067811865382500 ) ) ;
#212 = VECTOR ( 'NONE', #211, 999.9999999999998900 ) ;
#213 = CARTESIAN_POINT ( 'NONE',  ( -7.475000000000001400, 9.153932494822272800E-016, -21.73896724804917500 ) ) ;
#214 = LINE ( 'NONE', #213, #212 ) ;
#215 = CARTESIAN_POINT ( 'NONE',  ( 7.475000000000001400, 0.0000000000000000000, -21.73896724804917500 ) ) ;
#216 = DIRECTION ( 'NONE',  ( 1.000000000000000000, 0.0000000000000000000, 0.0000000000000000000 ) ) ;
#217 = DIRECTION ( 'NONE',  ( -0.0000000000000000000, -0.0000000000000000000, 1.000000000000000000 ) ) ;
#218 = CARTESIAN_POINT ( 'NONE',  ( 0.0000000000000000000, 0.0000000000000000000, -21.73896724804917500 ) ) ;
#219 = AXIS2_PLACEMENT_3D ( 'NONE', #218, #217, #216 ) ;
#220 = CIRCLE ( 'NONE', #219, 7.475000000000001400 ) ;
#221 = DIRECTION ( 'NONE',  ( -1.000000000000000000, 0.0000000000000000000, 0.0000000000000000000 ) ) ;
#222 = DIRECTION ( 'NONE',  ( 0.0000000000000000000, 0.0000000000000000000, -1.000000000000000000 ) ) ;
#223 = CARTESIAN_POINT ( 'NONE',  ( 0.0000000000000000000, 0.0000000000000000000, 1.311974505527457200E-018 ) ) ;
#224 = AXIS2_PLACEMENT_3D ( 'NONE', #223, #222, #221 ) ;
#225 = CONICAL_SURFACE ( 'NONE', #224, 7.213967248049237400, 0.7853981633974521600 ) ;
#226 = FACE_OUTER_BOUND ( 'NONE', #27, .T. ) ;
#227 = DIRECTION ( 'NONE',  ( 0.7071067811865569000, 0.0000000000000000000, 0.7071067811865382500 ) ) ;
#228 = VECTOR ( 'NONE', #227, 999.9999999999998900 ) ;
#229 = CARTESIAN_POINT ( 'NONE',  ( 7.475000000000001400, 0.0000000000000000000, -21.73896724804917500 ) ) ;
#230 = LINE ( 'NONE', #229, #228 ) ;
#231 = PERSON ( 'UNSPECIFIED', 'UNSPECIFIED', 'UNSPECIFIED', ('UNSPECIFIED'), ('UNSPECIFIED'), ('UNSPECIFIED') ) ;
#232 = PRODUCT ( '11-0206-03_outokumpu', '11-0206-03_outokumpu', '', ( #233 ) ) ;
#233 = MECHANICAL_CONTEXT ( 'NONE', #237, 'mechanical' ) ;
#234 = APPLICATION_PROTOCOL_DEFINITION ( 'international standard', 'config_control_design', 1994, #237 ) ;
#235 = AXIS2_PLACEMENT_3D ( 'NONE', #278, #277, #276 ) ;
#236 = CIRCLE ( 'NONE', #235, 7.213967248049172600 ) ;
#237 = APPLICATION_CONTEXT ( 'configuration controlled 3d designs of mechanical parts and assemblies' ) ;
#238 = DIRECTION ( 'NONE',  ( 1.000000000000000000, 0.0000000000000000000, 0.0000000000000000000 ) ) ;
#239 = DIRECTION ( 'NONE',  ( 0.0000000000000000000, 0.0000000000000000000, 1.000000000000000000 ) ) ;
#240 = CARTESIAN_POINT ( 'NONE',  ( 0.0000000000000000000, 0.0000000000000000000, 0.0000000000000000000 ) ) ;
#241 = SHAPE_DEFINITION_REPRESENTATION ( #279, #242 ) ;
#242 = ADVANCED_BREP_SHAPE_REPRESENTATION ( '11-0206-03_outokumpu', ( #41, #252 ), #243 ) ;
#243 =( GEOMETRIC_REPRESENTATION_CONTEXT ( 3 ) GLOBAL_UNCERTAINTY_ASSIGNED_CONTEXT ( ( #244 ) ) GLOBAL_UNIT_ASSIGNED_CONTEXT ( ( #247, #246, #245 ) ) REPRESENTATION_CONTEXT ( 'NONE', 'WORKASPACE' ) );
#244 = UNCERTAINTY_MEASURE_WITH_UNIT (LENGTH_MEASURE( 1.000000000000000100E-005 ), #247, 'distance_accuracy_value', 'NONE');
#245 =( NAMED_UNIT ( * ) SI_UNIT ( $, .STERADIAN. ) SOLID_ANGLE_UNIT ( ) );
#246 =( NAMED_UNIT ( * ) PLANE_ANGLE_UNIT ( ) SI_UNIT ( $, .RADIAN. ) );
#247 =( LENGTH_UNIT ( ) NAMED_UNIT ( * ) SI_UNIT ( .MILLI., .METRE. ) );
#248 = DIRECTION ( 'NONE',  ( 1.000000000000000000, 0.0000000000000000000, 0.0000000000000000000 ) ) ;
#249 = DIRECTION ( 'NONE',  ( -0.0000000000000000000, -0.0000000000000000000, 1.000000000000000000 ) ) ;
#250 = CARTESIAN_POINT ( 'NONE',  ( 0.0000000000000000000, 0.0000000000000000000, -4.336808689942017700E-016 ) ) ;
#251 = AXIS2_PLACEMENT_3D ( 'NONE', #250, #249, #248 ) ;
#252 = AXIS2_PLACEMENT_3D ( 'NONE', #240, #239, #238 ) ;
#253 = CYLINDRICAL_SURFACE ( 'NONE', #251, 7.475000000000000500 ) ;
#254 = FACE_OUTER_BOUND ( 'NONE', #16, .T. ) ;
#255 = DIRECTION ( 'NONE',  ( 0.0000000000000000000, 1.000000000000000000, 1.911015923382736800E-016 ) ) ;
#256 = DIRECTION ( 'NONE',  ( -0.0000000000000000000, 1.911015923382736800E-016, -1.000000000000000000 ) ) ;
#257 = CARTESIAN_POINT ( 'NONE',  ( 0.0000000000000000000, -3.469446951953615800E-015, 0.0000000000000000000 ) ) ;
#258 = AXIS2_PLACEMENT_3D ( 'NONE', #257, #256, #255 ) ;
#259 = CIRCLE ( 'NONE', #258, 6.300000000000001600 ) ;
#260 = DIRECTION ( 'NONE',  ( 0.0000000000000000000, 1.000000000000000000, 0.0000000000000000000 ) ) ;
#261 = DIRECTION ( 'NONE',  ( -0.0000000000000000000, 1.911015923382736800E-016, -1.000000000000000000 ) ) ;
#262 = CARTESIAN_POINT ( 'NONE',  ( 0.0000000000000000000, 7.347880794884103000E-016, -22.00000000000002500 ) ) ;
#263 = AXIS2_PLACEMENT_3D ( 'NONE', #262, #261, #260 ) ;
#264 = CYLINDRICAL_SURFACE ( 'NONE', #263, 6.300000000000002500 ) ;
#265 = FACE_OUTER_BOUND ( 'NONE', #144, .T. ) ;
#266 = DIRECTION ( 'NONE',  ( -0.7071067811865502400, 0.0000000000000000000, -0.7071067811865448000 ) ) ;
#267 = VECTOR ( 'NONE', #266, 1000.000000000000000 ) ;
#268 = CARTESIAN_POINT ( 'NONE',  ( -7.213967248049237400, 0.0000000000000000000, 1.311974505527457200E-018 ) ) ;
#269 = LINE ( 'NONE', #268, #267 ) ;
#270 = CARTESIAN_POINT ( 'NONE',  ( -7.474999999999999600, 9.153932494822268800E-016, -0.2610327519507605300 ) ) ;
#271 = DIRECTION ( 'NONE',  ( 1.000000000000000000, 0.0000000000000000000, 0.0000000000000000000 ) ) ;
#272 = DIRECTION ( 'NONE',  ( -0.0000000000000000000, -0.0000000000000000000, 1.000000000000000000 ) ) ;
#273 = CARTESIAN_POINT ( 'NONE',  ( 0.0000000000000000000, 0.0000000000000000000, -0.2610327519507605300 ) ) ;
#274 = AXIS2_PLACEMENT_3D ( 'NONE', #273, #272, #271 ) ;
#275 = CIRCLE ( 'NONE', #274, 7.474999999999999600 ) ;
#276 = DIRECTION ( 'NONE',  ( 1.000000000000000000, 0.0000000000000000000, 0.0000000000000000000 ) ) ;
#277 = DIRECTION ( 'NONE',  ( -0.0000000000000000000, -0.0000000000000000000, 1.000000000000000000 ) ) ;
#278 = CARTESIAN_POINT ( 'NONE',  ( 0.0000000000000000000, 0.0000000000000000000, -22.00000000000000000 ) ) ;
#279 = PRODUCT_DEFINITION_SHAPE ( 'NONE', 'NONE',  #342 ) ;
#280 = PRODUCT_RELATED_PRODUCT_CATEGORY ( 'detail', '', ( #232 ) ) ;
#281 = CC_DESIGN_SECURITY_CLASSIFICATION ( #302, ( #321 ) ) ;
#282 = CC_DESIGN_APPROVAL ( #290, ( #302 ) ) ;
#283 = APPROVAL_DATE_TIME ( #284, #290 ) ;
#284 = DATE_AND_TIME ( #285, #286 ) ;
#285 = CALENDAR_DATE ( 2015, 11, 8 ) ;
#286 = LOCAL_TIME ( 11, 46, 43.00000000000000000, #287 ) ;
#287 = COORDINATED_UNIVERSAL_TIME_OFFSET ( 1, 0, .AHEAD. ) ;
#288 = APPROVAL_PERSON_ORGANIZATION ( #292, #290, #289 ) ;
#289 = APPROVAL_ROLE ( '' ) ;
#290 = APPROVAL ( #291, 'UNSPECIFIED' ) ;
#291 = APPROVAL_STATUS ( 'not_yet_approved' ) ;
#292 = PERSON_AND_ORGANIZATION ( #231, #349 ) ;
#293 = CC_DESIGN_DATE_AND_TIME_ASSIGNMENT ( #295, #294, ( #302 ) ) ;
#294 = DATE_TIME_ROLE ( 'classification_date' ) ;
#295 = DATE_AND_TIME ( #296, #297 ) ;
#296 = CALENDAR_DATE ( 2015, 11, 8 ) ;
#297 = LOCAL_TIME ( 11, 46, 43.00000000000000000, #298 ) ;
#298 = COORDINATED_UNIVERSAL_TIME_OFFSET ( 1, 0, .AHEAD. ) ;
#299 = CC_DESIGN_PERSON_AND_ORGANIZATION_ASSIGNMENT ( #301, #300, ( #302 ) ) ;
#300 = PERSON_AND_ORGANIZATION_ROLE ( 'classification_officer' ) ;
#301 = PERSON_AND_ORGANIZATION ( #231, #349 ) ;
#302 = SECURITY_CLASSIFICATION ( '', '', #303 ) ;
#303 = SECURITY_CLASSIFICATION_LEVEL ( 'unclassified' ) ;
#304 = CC_DESIGN_PERSON_AND_ORGANIZATION_ASSIGNMENT ( #306, #305, ( #321 ) ) ;
#305 = PERSON_AND_ORGANIZATION_ROLE ( 'design_supplier' ) ;
#306 = PERSON_AND_ORGANIZATION ( #231, #349 ) ;
#307 = CC_DESIGN_PERSON_AND_ORGANIZATION_ASSIGNMENT ( #309, #308, ( #321 ) ) ;
#308 = PERSON_AND_ORGANIZATION_ROLE ( 'creator' ) ;
#309 = PERSON_AND_ORGANIZATION ( #231, #349 ) ;
#310 = CC_DESIGN_APPROVAL ( #318, ( #321 ) ) ;
#311 = APPROVAL_DATE_TIME ( #312, #318 ) ;
#312 = DATE_AND_TIME ( #313, #314 ) ;
#313 = CALENDAR_DATE ( 2015, 11, 8 ) ;
#314 = LOCAL_TIME ( 11, 46, 43.00000000000000000, #315 ) ;
#315 = COORDINATED_UNIVERSAL_TIME_OFFSET ( 1, 0, .AHEAD. ) ;
#316 = APPROVAL_PERSON_ORGANIZATION ( #320, #318, #317 ) ;
#317 = APPROVAL_ROLE ( '' ) ;
#318 = APPROVAL ( #319, 'UNSPECIFIED' ) ;
#319 = APPROVAL_STATUS ( 'not_yet_approved' ) ;
#320 = PERSON_AND_ORGANIZATION ( #231, #349 ) ;
#321 = PRODUCT_DEFINITION_FORMATION_WITH_SPECIFIED_SOURCE ( 'ANY', '', #232, .NOT_KNOWN. ) ;
#322 = CC_DESIGN_DATE_AND_TIME_ASSIGNMENT ( #324, #323, ( #342 ) ) ;
#323 = DATE_TIME_ROLE ( 'creation_date' ) ;
#324 = DATE_AND_TIME ( #325, #326 ) ;
#325 = CALENDAR_DATE ( 2015, 11, 8 ) ;
#326 = LOCAL_TIME ( 11, 46, 43.00000000000000000, #327 ) ;
#327 = COORDINATED_UNIVERSAL_TIME_OFFSET ( 1, 0, .AHEAD. ) ;
#328 = CC_DESIGN_PERSON_AND_ORGANIZATION_ASSIGNMENT ( #330, #329, ( #342 ) ) ;
#329 = PERSON_AND_ORGANIZATION_ROLE ( 'creator' ) ;
#330 = PERSON_AND_ORGANIZATION ( #231, #349 ) ;
#331 = CC_DESIGN_APPROVAL ( #339, ( #342 ) ) ;
#332 = APPROVAL_DATE_TIME ( #333, #339 ) ;
#333 = DATE_AND_TIME ( #334, #335 ) ;
#334 = CALENDAR_DATE ( 2015, 11, 8 ) ;
#335 = LOCAL_TIME ( 11, 46, 43.00000000000000000, #336 ) ;
#336 = COORDINATED_UNIVERSAL_TIME_OFFSET ( 1, 0, .AHEAD. ) ;
#337 = APPROVAL_PERSON_ORGANIZATION ( #341, #339, #338 ) ;
#338 = APPROVAL_ROLE ( '' ) ;
#339 = APPROVAL ( #340, 'UNSPECIFIED' ) ;
#340 = APPROVAL_STATUS ( 'not_yet_approved' ) ;
#341 = PERSON_AND_ORGANIZATION ( #231, #349 ) ;
#342 = PRODUCT_DEFINITION ( 'UNKNOWN', '', #321, #343 ) ;
#343 = DESIGN_CONTEXT ( 'detailed design', #345, 'design' ) ;
#344 = APPLICATION_PROTOCOL_DEFINITION ( 'international standard', 'config_control_design', 1994, #345 ) ;
#345 = APPLICATION_CONTEXT ( 'configuration controlled 3d designs of mechanical parts and assemblies' ) ;
#346 = CC_DESIGN_PERSON_AND_ORGANIZATION_ASSIGNMENT ( #348, #347, ( #232 ) ) ;
#347 = PERSON_AND_ORGANIZATION_ROLE ( 'design_owner' ) ;
#348 = PERSON_AND_ORGANIZATION ( #231, #349 ) ;
#349 = ORGANIZATION ( 'UNSPECIFIED', 'UNSPECIFIED', '' ) ;
ENDSEC;
END-ISO-10303-21;
