ISO-10303-21;
HEADER;
/****************************************************************
 * Generated by software with PDElib inside                    *
 * PDElib Version v51a, created Wed 07/06/2011                  *
 * ITI Transcendata (http://www.transcendata.com/)              *
 ****************************************************************/
FILE_DESCRIPTION(('RE_42,4x2-33,7x2_L80_V10'),'2;1');
FILE_NAME('RE_42,4x2-33,7x2_L80_V10.stp','2013-11-02T16:30:28',('DOCKWEILER AG'),('DOCKWEILER AG'),'Autodesk Inventor 2012','Autodesk Inventor 2012','');
FILE_SCHEMA(('CONFIG_CONTROL_DESIGN'));
ENDSEC;
DATA;
#5=APPLICATION_CONTEXT('configuration controlled 3D designs of mechanical parts and assemblies');
#6=APPLICATION_PROTOCOL_DEFINITION('International Standard','ap203_configuration_controlled_3d_design_of_mechanical_parts_and_assemblies_mim_lf',2004,#5);
#7=PRODUCT_CONTEXT('',#5,'mechanical');
#8=PRODUCT('N0006_002_001_009','N0006_002_001_009',$,(#7));
#9=PRODUCT_RELATED_PRODUCT_CATEGORY('part',$,(#8));
#10=PRODUCT_DEFINITION_FORMATION('',$,#8);
#11=PRODUCT_DEFINITION_CONTEXT('part definition',#5,'design');
#12=PRODUCT_DEFINITION('',$,#10,#11);
#18=(NAMED_UNIT(*)PLANE_ANGLE_UNIT()SI_UNIT($,.RADIAN.));
#19=DIMENSIONAL_EXPONENTS(0.0,0.0,0.0,0.0,0.0,0.0,0.0);
#20=PLANE_ANGLE_MEASURE_WITH_UNIT(PLANE_ANGLE_MEASURE(0.0174532925),#18);
#24=(CONVERSION_BASED_UNIT('DEGREE',#20)NAMED_UNIT(#19)PLANE_ANGLE_UNIT());
#28=(NAMED_UNIT(*)SI_UNIT($,.STERADIAN.)SOLID_ANGLE_UNIT());
#32=(LENGTH_UNIT()NAMED_UNIT(*)SI_UNIT(.MILLI.,.METRE.));
#34=UNCERTAINTY_MEASURE_WITH_UNIT(LENGTH_MEASURE(0.01),#32,'DISTANCE_ACCURACY_VALUE','');
#36=(GEOMETRIC_REPRESENTATION_CONTEXT(3)GLOBAL_UNCERTAINTY_ASSIGNED_CONTEXT((#34))GLOBAL_UNIT_ASSIGNED_CONTEXT((#24,#28,#32))REPRESENTATION_CONTEXT('None','None'));
#37=AXIS2_PLACEMENT_3D('',#38,#39,#40);
#38=CARTESIAN_POINT('',(0.0,0.0,0.0));
#39=DIRECTION('',(0.0,0.0,1.0));
#40=DIRECTION('',(1.0,0.0,0.0));
#41=SHAPE_REPRESENTATION('',(#37),#36);
#42=PRODUCT_DEFINITION_SHAPE('','',#12);
#43=SHAPE_DEFINITION_REPRESENTATION(#42,#41);
#49=(NAMED_UNIT(*)PLANE_ANGLE_UNIT()SI_UNIT($,.RADIAN.));
#50=DIMENSIONAL_EXPONENTS(0.0,0.0,0.0,0.0,0.0,0.0,0.0);
#51=PLANE_ANGLE_MEASURE_WITH_UNIT(PLANE_ANGLE_MEASURE(0.0174532925),#49);
#55=(CONVERSION_BASED_UNIT('DEGREE',#51)NAMED_UNIT(#50)PLANE_ANGLE_UNIT());
#59=(NAMED_UNIT(*)SI_UNIT($,.STERADIAN.)SOLID_ANGLE_UNIT());
#63=(LENGTH_UNIT()NAMED_UNIT(*)SI_UNIT(.MILLI.,.METRE.));
#65=UNCERTAINTY_MEASURE_WITH_UNIT(LENGTH_MEASURE(0.000001),#63,'DISTANCE_ACCURACY_VALUE','');
#67=(GEOMETRIC_REPRESENTATION_CONTEXT(3)GLOBAL_UNCERTAINTY_ASSIGNED_CONTEXT((#65))GLOBAL_UNIT_ASSIGNED_CONTEXT((#55,#59,#63))REPRESENTATION_CONTEXT('','3D'));
#68=CARTESIAN_POINT('',(4.724534206110763,49.635896532438096,14.661536994437164));
#69=CARTESIAN_POINT('',(-7.467704E-014,7.830175977061106,19.446801526209281));
#70=CARTESIAN_POINT('',(19.200000000000017,48.0,14.661536994437219));
#71=CARTESIAN_POINT('',(19.200000000000081,5.660351954122184,19.446801526209356));
#72=CARTESIAN_POINT('',(19.200000000000077,48.000000000000007,5.564965E-014));
#73=CARTESIAN_POINT('',(19.200000000000159,5.660351954122175,7.345752E-014));
#74=CARTESIAN_POINT('',(19.200000000000131,48.0,-14.661536994437105));
#75=CARTESIAN_POINT('',(19.20000000000023,5.660351954122167,-19.446801526209207));
#76=CARTESIAN_POINT('',(4.724534206110881,49.635896532438096,-14.661536994437167));
#77=CARTESIAN_POINT('',(7.667527E-014,7.830175977061089,-19.446801526209288));
#78=CARTESIAN_POINT('',(-9.750931587778373,51.271793064876185,-14.661536994437222));
#79=CARTESIAN_POINT('',(-19.200000000000081,10.000000000000011,-19.446801526209359));
#80=CARTESIAN_POINT('',(-9.750931587778435,51.271793064876185,-6.009055E-014));
#81=CARTESIAN_POINT('',(-19.200000000000159,10.00000000000002,-7.789841E-014));
#82=CARTESIAN_POINT('',(-9.75093158777849,51.271793064876185,14.661536994437101));
#83=CARTESIAN_POINT('',(-19.20000000000023,10.000000000000028,19.446801526209203));
#84=CARTESIAN_POINT('',(4.724534206110763,49.635896532438096,14.661536994437164));
#85=CARTESIAN_POINT('',(-7.467704E-014,7.830175977061106,19.446801526209281));
#93=(BOUNDED_SURFACE()B_SPLINE_SURFACE(1,2,((#68,#70,#72,#74,#76,#78,#80,#82,#84),(#69,#71,#73,#75,#77,#79,#81,#83,#85)),.UNSPECIFIED.,.F.,.T.,.U.)B_SPLINE_SURFACE_WITH_KNOTS((2,2),(3,2,2,2,3),(-2.092178334528086,0.113011667861402),(0.0,30.161749487345368,60.323498974690736,90.485248462036111,120.64699794938147),.UNSPECIFIED.)GEOMETRIC_REPRESENTATION_ITEM()RATIONAL_B_SPLINE_SURFACE(((1.0,0.707106781186548,1.0,0.707106781186548,1.0,0.707106781186548,1.0,0.707106781186548,1.0),(1.0,0.707106781186548,1.0,0.707106781186548,1.0,0.707106781186548,1.0,0.707106781186548,1.0)))REPRESENTATION_ITEM('')SURFACE());
#94=CARTESIAN_POINT('',(19.199999999999999,10.0,-2.351322E-015));
#95=VERTEX_POINT('',#94);
#96=CARTESIAN_POINT('',(0.0,10.0,0.0));
#97=DIRECTION('',(0.0,1.0,0.0));
#98=DIRECTION('',(-1.0,0.0,0.0));
#99=AXIS2_PLACEMENT_3D('',#96,#97,#98);
#100=CIRCLE('',#99,19.199999999999999);
#101=EDGE_CURVE('',#95,#95,#100,.T.);
#102=ORIENTED_EDGE('',*,*,#101,.F.);
#103=EDGE_LOOP('',(#102));
#104=FACE_OUTER_BOUND('',#103,.T.);
#105=CARTESIAN_POINT('',(19.199999999999996,48.000000000000014,-1.818600E-015));
#106=VERTEX_POINT('',#105);
#107=CARTESIAN_POINT('',(4.349999999999997,48.000000000000007,0.0));
#108=DIRECTION('',(0.0,1.0,0.0));
#109=DIRECTION('',(-1.0,0.0,0.0));
#110=AXIS2_PLACEMENT_3D('',#107,#108,#109);
#111=CIRCLE('',#110,14.850000000000001);
#112=EDGE_CURVE('',#106,#106,#111,.T.);
#113=ORIENTED_EDGE('',*,*,#112,.T.);
#114=EDGE_LOOP('',(#113));
#115=FACE_BOUND('',#114,.T.);
#116=ADVANCED_FACE('',(#104,#115),#93,.F.);
#117=CARTESIAN_POINT('',(4.34999999999998,79.999999999999986,0.0));
#118=DIRECTION('',(5.088522E-016,-1.0,0.0));
#119=DIRECTION('',(-1.0,0.0,0.0));
#120=AXIS2_PLACEMENT_3D('',#117,#118,#119);
#121=CYLINDRICAL_SURFACE('',#120,14.850000000000001);
#122=ORIENTED_EDGE('',*,*,#112,.F.);
#123=EDGE_LOOP('',(#122));
#124=FACE_OUTER_BOUND('',#123,.T.);
#125=CARTESIAN_POINT('',(19.199999999999982,80.0,1.818600E-015));
#126=VERTEX_POINT('',#125);
#127=CARTESIAN_POINT('',(4.34999999999998,80.0,0.0));
#128=DIRECTION('',(0.0,-1.0,0.0));
#129=DIRECTION('',(-1.0,0.0,0.0));
#130=AXIS2_PLACEMENT_3D('',#127,#128,#129);
#131=CIRCLE('',#130,14.850000000000001);
#132=EDGE_CURVE('',#126,#126,#131,.T.);
#133=ORIENTED_EDGE('',*,*,#132,.F.);
#134=EDGE_LOOP('',(#133));
#135=FACE_BOUND('',#134,.T.);
#136=ADVANCED_FACE('',(#124,#135),#121,.F.);
#137=CARTESIAN_POINT('',(0.0,5.551115E-015,0.0));
#138=DIRECTION('',(0.0,1.0,0.0));
#139=DIRECTION('',(-1.0,0.0,0.0));
#140=AXIS2_PLACEMENT_3D('',#137,#138,#139);
#141=CYLINDRICAL_SURFACE('',#140,19.199999999999999);
#142=CARTESIAN_POINT('',(19.199999999999999,5.551115E-015,2.351322E-015));
#143=VERTEX_POINT('',#142);
#144=CARTESIAN_POINT('',(0.0,5.551115E-015,0.0));
#145=DIRECTION('',(0.0,1.0,0.0));
#146=DIRECTION('',(-1.0,0.0,0.0));
#147=AXIS2_PLACEMENT_3D('',#144,#145,#146);
#148=CIRCLE('',#147,19.199999999999999);
#149=EDGE_CURVE('',#143,#143,#148,.T.);
#150=ORIENTED_EDGE('',*,*,#149,.F.);
#151=EDGE_LOOP('',(#150));
#152=FACE_OUTER_BOUND('',#151,.T.);
#153=ORIENTED_EDGE('',*,*,#101,.T.);
#154=EDGE_LOOP('',(#153));
#155=FACE_BOUND('',#154,.T.);
#156=ADVANCED_FACE('',(#152,#155),#141,.F.);
#157=CARTESIAN_POINT('',(4.349999999999989,65.000000000000014,0.0));
#158=DIRECTION('',(-5.551115E-016,1.0,0.0));
#159=DIRECTION('',(-1.0,0.0,0.0));
#160=AXIS2_PLACEMENT_3D('',#157,#158,#159);
#161=CYLINDRICAL_SURFACE('',#160,16.849999999999795);
#162=CARTESIAN_POINT('',(-12.499999999999822,80.0,0.0));
#163=VERTEX_POINT('',#162);
#164=CARTESIAN_POINT('',(4.34999999999998,80.0,0.0));
#165=DIRECTION('',(0.0,1.0,0.0));
#166=DIRECTION('',(-1.0,0.0,0.0));
#167=AXIS2_PLACEMENT_3D('',#164,#165,#166);
#168=CIRCLE('',#167,16.849999999999802);
#169=EDGE_CURVE('',#163,#163,#168,.T.);
#170=ORIENTED_EDGE('',*,*,#169,.F.);
#171=EDGE_LOOP('',(#170));
#172=FACE_OUTER_BOUND('',#171,.T.);
#173=CARTESIAN_POINT('',(21.200000000000014,50.0,2.596251E-015));
#174=VERTEX_POINT('',#173);
#175=CARTESIAN_POINT('',(4.349999999999997,50.000000000000007,0.0));
#176=DIRECTION('',(0.0,1.0,0.0));
#177=DIRECTION('',(-1.0,0.0,0.0));
#178=AXIS2_PLACEMENT_3D('',#175,#176,#177);
#179=CIRCLE('',#178,16.849999999999788);
#180=EDGE_CURVE('',#174,#174,#179,.T.);
#181=ORIENTED_EDGE('',*,*,#180,.T.);
#182=EDGE_LOOP('',(#181));
#183=FACE_BOUND('',#182,.T.);
#184=ADVANCED_FACE('',(#172,#183),#161,.T.);
#185=CARTESIAN_POINT('',(-4.074999999999921,80.0,0.0));
#186=DIRECTION('',(0.0,1.0,0.0));
#187=DIRECTION('',(0.0,0.0,1.0));
#188=AXIS2_PLACEMENT_3D('',#185,#186,#187);
#189=PLANE('',#188);
#190=ORIENTED_EDGE('',*,*,#169,.T.);
#191=EDGE_LOOP('',(#190));
#192=FACE_OUTER_BOUND('',#191,.T.);
#193=ORIENTED_EDGE('',*,*,#132,.T.);
#194=EDGE_LOOP('',(#193));
#195=FACE_BOUND('',#194,.T.);
#196=ADVANCED_FACE('',(#192,#195),#189,.T.);
#197=CARTESIAN_POINT('',(4.350000000000003,40.000000000000007,0.0));
#198=DIRECTION('',(5.551115E-016,-1.0,0.0));
#199=DIRECTION('',(-1.0,0.0,0.0));
#200=AXIS2_PLACEMENT_3D('',#197,#198,#199);
#201=CONICAL_SURFACE('',#200,21.1999999999999,23.509040224192997);
#202=ORIENTED_EDGE('',*,*,#180,.F.);
#203=CARTESIAN_POINT('',(-21.200000000000003,30.0,0.0));
#204=VERTEX_POINT('',#203);
#205=CARTESIAN_POINT('',(21.200000000000014,49.999999999999496,2.498002E-015));
#206=CARTESIAN_POINT('',(21.200000000000014,49.999999999999496,-1.063284131568345));
#207=CARTESIAN_POINT('',(21.11861064535848,49.951594859447653,-2.164958615667497));
#208=CARTESIAN_POINT('',(20.775082337231112,49.748506665921475,-4.367918872891852));
#209=CARTESIAN_POINT('',(20.51300345875843,49.593889919609389,-5.469220125872614));
#210=CARTESIAN_POINT('',(19.476704258021904,48.988378945458905,-8.667220675888487));
#211=CARTESIAN_POINT('',(18.438557998744123,48.389071960243811,-10.655937356350657));
#212=CARTESIAN_POINT('',(16.511085830708584,47.308465766707641,-13.360832563025493));
#213=CARTESIAN_POINT('',(15.641059918088597,46.827325154544248,-14.373123846370246));
#214=CARTESIAN_POINT('',(13.710334679692156,45.781293933550565,-16.225170798354142));
#215=CARTESIAN_POINT('',(12.649699328439565,45.216562797655257,-17.065083221859748));
#216=CARTESIAN_POINT('',(10.402695635431026,44.045365777326765,-18.52068762028636));
#217=CARTESIAN_POINT('',(9.215052904515716,43.43829284038317,-19.137206075676684));
#218=CARTESIAN_POINT('',(6.793386646604019,42.225526519051144,-20.124605690187451));
#219=CARTESIAN_POINT('',(5.559328785967624,41.619815065141985,-20.495380446663116));
#220=CARTESIAN_POINT('',(2.937844717650408,40.356383223922563,-21.044973297593582));
#221=CARTESIAN_POINT('',(1.445549990428118,39.65212023264651,-21.20506785485475));
#222=CARTESIAN_POINT('',(-1.590559621890283,38.250165048077335,-21.194684175160535));
#223=CARTESIAN_POINT('',(-3.134354260026076,37.552428064431574,-21.024333711966388));
#224=CARTESIAN_POINT('',(-6.161606313243626,36.210358589575364,-20.344073521339734));
#225=CARTESIAN_POINT('',(-7.64731660335617,35.564932603438223,-19.833605691875984));
#226=CARTESIAN_POINT('',(-10.456850401497142,34.363789640747626,-18.506962079876995));
#227=CARTESIAN_POINT('',(-11.780549581423941,33.808012061446405,-17.690577879802124));
#228=CARTESIAN_POINT('',(-14.174941073121854,32.814891185814659,-15.836612834785369));
#229=CARTESIAN_POINT('',(-15.31738140732501,32.347870411697613,-14.743794743820214));
#230=CARTESIAN_POINT('',(-17.357344856478669,31.522250002962501,-12.276979922822859));
#231=CARTESIAN_POINT('',(-18.254933734811281,31.163477683960593,-10.9030953772674));
#232=CARTESIAN_POINT('',(-19.712436372710641,30.584410475152968,-7.971194201905164));
#233=CARTESIAN_POINT('',(-20.274060659272518,30.36334497812431,-6.409715093519766));
#234=CARTESIAN_POINT('',(-21.01794179278205,30.071116971912218,-3.219954345226395));
#235=CARTESIAN_POINT('',(-21.20000000000001,29.999999999999968,-1.591622212317306));
#236=CARTESIAN_POINT('',(-21.20000000000001,29.999999999999968,-2.775558E-016));
#237=B_SPLINE_CURVE_WITH_KNOTS('',3,(#205,#206,#207,#208,#209,#210,#211,#212,#213,#214,#215,#216,#217,#218,#219,#220,#221,#222,#223,#224,#225,#226,#227,#228,#229,#230,#231,#232,#233,#234,#235,#236),.UNSPECIFIED.,.F.,.U.,(4,2,2,2,2,2,2,2,2,2,2,2,2,2,2,4),(6.739689393444102,7.058674632914606,7.37765987238511,8.015630351326117,8.425485483106549,8.835340614886983,9.245195746667417,9.655050878447849,10.133646191862745,10.612241505277641,11.090836818692537,11.569432132107435,12.046918795802629,12.524405459497821,13.001892123193013,13.479378786888205),.UNSPECIFIED.);
#238=EDGE_CURVE('',#174,#204,#237,.T.);
#239=ORIENTED_EDGE('',*,*,#238,.T.);
#240=CARTESIAN_POINT('',(-21.20000000000001,29.999999999999964,2.775558E-016));
#241=CARTESIAN_POINT('',(-21.20000000000001,29.999999999999964,1.591622212317306));
#242=CARTESIAN_POINT('',(-21.01794179278205,30.071116971912208,3.219954345226397));
#243=CARTESIAN_POINT('',(-20.274060659272518,30.363344978124299,6.409715093519768));
#244=CARTESIAN_POINT('',(-19.712436372710641,30.584410475152978,7.971194201905163));
#245=CARTESIAN_POINT('',(-18.254933734811281,31.1634776839606,10.9030953772674));
#246=CARTESIAN_POINT('',(-17.357344856478669,31.522250002962501,12.276979922822866));
#247=CARTESIAN_POINT('',(-15.317381407325016,32.347870411697613,14.743794743820215));
#248=CARTESIAN_POINT('',(-14.174941073121857,32.814891185814652,15.836612834785363));
#249=CARTESIAN_POINT('',(-11.780549581423951,33.808012061446398,17.690577879802113));
#250=CARTESIAN_POINT('',(-10.456850401497157,34.363789640747619,18.506962079876985));
#251=CARTESIAN_POINT('',(-7.647316603356189,35.564932603438223,19.833605691875974));
#252=CARTESIAN_POINT('',(-6.161606313243649,36.210358589575364,20.344073521339723));
#253=CARTESIAN_POINT('',(-3.134354260026097,37.552428064431581,21.024333711966385));
#254=CARTESIAN_POINT('',(-1.590559621890296,38.250165048077321,21.194684175160535));
#255=CARTESIAN_POINT('',(1.44554999042811,39.652120232646503,21.20506785485475));
#256=CARTESIAN_POINT('',(2.9378447176504,40.356383223922563,21.044973297593582));
#257=CARTESIAN_POINT('',(5.559328785967621,41.619815065141992,20.495380446663116));
#258=CARTESIAN_POINT('',(6.793386646604035,42.225526519051144,20.124605690187451));
#259=CARTESIAN_POINT('',(9.215052904515726,43.43829284038317,19.137206075676684));
#260=CARTESIAN_POINT('',(10.402695635431026,44.045365777326765,18.52068762028636));
#261=CARTESIAN_POINT('',(12.649699328439556,45.216562797655257,17.065083221859755));
#262=CARTESIAN_POINT('',(13.710334679692146,45.781293933550558,16.225170798354146));
#263=CARTESIAN_POINT('',(15.641059918088594,46.827325154544241,14.373123846370248));
#264=CARTESIAN_POINT('',(16.511085830708581,47.308465766707641,13.3608325630255));
#265=CARTESIAN_POINT('',(18.43855799874412,48.389071960243811,10.655937356350663));
#266=CARTESIAN_POINT('',(19.476704258021897,48.988378945458905,8.66722067588849));
#267=CARTESIAN_POINT('',(20.513003458758426,49.593889919609367,5.469220125872615));
#268=CARTESIAN_POINT('',(20.775082337231115,49.748506665921461,4.367918872891851));
#269=CARTESIAN_POINT('',(21.118610645358483,49.951594859447638,2.164958615667496));
#270=CARTESIAN_POINT('',(21.200000000000014,49.999999999999503,1.06328413156835));
#271=CARTESIAN_POINT('',(21.200000000000014,49.999999999999503,1.665335E-015));
#272=B_SPLINE_CURVE_WITH_KNOTS('',3,(#240,#241,#242,#243,#244,#245,#246,#247,#248,#249,#250,#251,#252,#253,#254,#255,#256,#257,#258,#259,#260,#261,#262,#263,#264,#265,#266,#267,#268,#269,#270,#271),.UNSPECIFIED.,.F.,.U.,(4,2,2,2,2,2,2,2,2,2,2,2,2,2,2,4),(0.0,0.477486663695192,0.954973327390384,1.432459991085575,1.909946654780767,2.388541968195664,2.867137281610561,3.345732595025458,3.824327908440355,4.234183040220788,4.644038172001221,5.053893303781654,5.463748435562087,6.101718914503094,6.420704153973597,6.739689393444102),.UNSPECIFIED.);
#273=EDGE_CURVE('',#204,#174,#272,.T.);
#274=ORIENTED_EDGE('',*,*,#273,.T.);
#275=EDGE_LOOP('',(#202,#239,#274));
#276=FACE_OUTER_BOUND('',#275,.T.);
#277=ADVANCED_FACE('',(#276),#201,.T.);
#278=CARTESIAN_POINT('',(0.0,15.000000000000004,0.0));
#279=DIRECTION('',(0.0,-1.0,0.0));
#280=DIRECTION('',(1.0,0.0,0.0));
#281=AXIS2_PLACEMENT_3D('',#278,#279,#280);
#282=CYLINDRICAL_SURFACE('',#281,21.200000000000014);
#283=CARTESIAN_POINT('',(21.200000000000014,8.881784E-015,0.0));
#284=VERTEX_POINT('',#283);
#285=CARTESIAN_POINT('',(0.0,8.881784E-015,0.0));
#286=DIRECTION('',(0.0,-1.0,0.0));
#287=DIRECTION('',(1.0,0.0,0.0));
#288=AXIS2_PLACEMENT_3D('',#285,#286,#287);
#289=CIRCLE('',#288,21.200000000000014);
#290=EDGE_CURVE('',#284,#284,#289,.T.);
#291=ORIENTED_EDGE('',*,*,#290,.F.);
#292=EDGE_LOOP('',(#291));
#293=FACE_OUTER_BOUND('',#292,.T.);
#294=ORIENTED_EDGE('',*,*,#238,.F.);
#295=ORIENTED_EDGE('',*,*,#273,.F.);
#296=EDGE_LOOP('',(#294,#295));
#297=FACE_BOUND('',#296,.T.);
#298=ADVANCED_FACE('',(#293,#297),#282,.T.);
#299=CARTESIAN_POINT('',(10.600000000000007,5.551115E-015,0.0));
#300=DIRECTION('',(0.0,-1.0,0.0));
#301=DIRECTION('',(0.0,0.0,-1.0));
#302=AXIS2_PLACEMENT_3D('',#299,#300,#301);
#303=PLANE('',#302);
#304=ORIENTED_EDGE('',*,*,#290,.T.);
#305=EDGE_LOOP('',(#304));
#306=FACE_OUTER_BOUND('',#305,.T.);
#307=ORIENTED_EDGE('',*,*,#149,.T.);
#308=EDGE_LOOP('',(#307));
#309=FACE_BOUND('',#308,.T.);
#310=ADVANCED_FACE('',(#306,#309),#303,.T.);
#311=CLOSED_SHELL('',(#116,#136,#156,#184,#196,#277,#298,#310));
#312=MANIFOLD_SOLID_BREP('Volumenk\S\vrper2',#311);
#313=COLOUR_RGB('Metall - Stahl',0.639216005802155,0.639216005802155,0.686275005340576);
#314=FILL_AREA_STYLE_COLOUR('Metall - Stahl',#313);
#315=FILL_AREA_STYLE('Metall - Stahl',(#314));
#316=SURFACE_STYLE_FILL_AREA(#315);
#317=SURFACE_SIDE_STYLE('Metall - Stahl',(#316));
#318=SURFACE_STYLE_USAGE(.BOTH.,#317);
#319=PRESENTATION_STYLE_ASSIGNMENT((#318));
#320=STYLED_ITEM('',(#319),#312);
#321=MECHANICAL_DESIGN_GEOMETRIC_PRESENTATION_REPRESENTATION('',(#320),#36);
#322=ADVANCED_BREP_SHAPE_REPRESENTATION('ABSR',(#312),#36);
#323=SHAPE_REPRESENTATION_RELATIONSHIP('SRR','None',#322,#41);
ENDSEC;
END-ISO-10303-21;
