ISO-10303-21;
HEADER;
FILE_DESCRIPTION (( 'STEP AP203' ),
    '1' );
FILE_NAME ('3D_GR1002_33.7x2_188701900.STEP',
    '2024-10-08T15:09:16',
    ( '' ),
    ( '' ),
    'SwSTEP 2.0',
    'SolidWorks 2024',
    '' );
FILE_SCHEMA (( 'CONFIG_CONTROL_DESIGN' ));
ENDSEC;

DATA;
#1 = DIRECTION ( 'NONE',  ( 0.000000000000000000, -1.000000000000000000, 0.000000000000000000 ) ) ;
#2 = CIRCLE ( 'NONE', #84, 0.3000000000000016542 ) ;
#3 = LOCAL_TIME ( 17, 9, 16.00000000000000000, #280 ) ;
#4 = PERSON_AND_ORGANIZATION_ROLE ( 'design_owner' ) ;
#5 = FACE_OUTER_BOUND ( 'NONE', #105, .T. ) ;
#6 = EDGE_CURVE ( 'NONE', #292, #156, #2, .T. ) ;
#7 = MECHANICAL_CONTEXT ( 'NONE', #63, 'mechanical' ) ;
#8 = CARTESIAN_POINT ( 'NONE',  ( -60.00000000000000000, 0.000000000000000000, -16.54999999999999716 ) ) ;
#9 = CALENDAR_DATE ( 2024, 8, 10 ) ;
#10 = ADVANCED_FACE ( 'NONE', ( #110 ), #277, .T. ) ;
#11 = CARTESIAN_POINT ( 'NONE',  ( -59.70000000000000284, 0.000000000000000000, -16.54999999999999716 ) ) ;
#12 = ORIENTED_EDGE ( 'NONE', *, *, #86, .T. ) ;
#13 = SECURITY_CLASSIFICATION_LEVEL ( 'unclassified' ) ;
#14 = FACE_OUTER_BOUND ( 'NONE', #208, .T. ) ;
#15 = ORIENTED_EDGE ( 'NONE', *, *, #6, .F. ) ;
#16 = CARTESIAN_POINT ( 'NONE',  ( -60.00000000000000000, 2.045160154576079814E-15, 16.54999999999999716 ) ) ;
#17 = VERTEX_POINT ( 'NONE', #322 ) ;
#18 = CALENDAR_DATE ( 2024, 8, 10 ) ;
#19 = AXIS2_PLACEMENT_3D ( 'NONE', #251, #161, #78 ) ;
#20 = PRODUCT_DEFINITION ( 'UNKNOWN', '', #97, #207 ) ;
#21 = ORIENTED_EDGE ( 'NONE', *, *, #137, .T. ) ;
#22 = SECURITY_CLASSIFICATION ( '', '', #13 ) ;
#23 = ORIENTED_EDGE ( 'NONE', *, *, #64, .T. ) ;
#24 = CARTESIAN_POINT ( 'NONE',  ( 60.00000000000000000, 0.000000000000000000, 0.000000000000000000 ) ) ;
#25 = DIRECTION ( 'NONE',  ( -1.000000000000000000, -0.000000000000000000, -0.000000000000000000 ) ) ;
#26 = FACE_OUTER_BOUND ( 'NONE', #151, .T. ) ;
#27 = DIRECTION ( 'NONE',  ( 0.000000000000000000, 0.000000000000000000, -1.000000000000000000 ) ) ;
#28 = DIRECTION ( 'NONE',  ( 1.000000000000000000, 0.000000000000000000, 0.000000000000000000 ) ) ;
#29 = APPROVAL_DATE_TIME ( #333, #304 ) ;
#30 = CIRCLE ( 'NONE', #180, 16.54999999999999716 ) ;
#31 = DIRECTION ( 'NONE',  ( -1.000000000000000000, -0.000000000000000000, -0.000000000000000000 ) ) ;
#32 = DIRECTION ( 'NONE',  ( 0.000000000000000000, 0.000000000000000000, -1.000000000000000000 ) ) ;
#33 = COORDINATED_UNIVERSAL_TIME_OFFSET ( 1, 0, .AHEAD. ) ;
#34 = CIRCLE ( 'NONE', #41, 16.85000000000000142 ) ;
#35 = PLANE ( 'NONE',  #43 ) ;
#36 = ORIENTED_EDGE ( 'NONE', *, *, #210, .F. ) ;
#37 = APPROVAL_STATUS ( 'not_yet_approved' ) ;
#38 = DIRECTION ( 'NONE',  ( 1.000000000000000000, 0.000000000000000000, 0.000000000000000000 ) ) ;
#39 = CC_DESIGN_PERSON_AND_ORGANIZATION_ASSIGNMENT ( #196, #173, ( #97 ) ) ;
#40 = UNCERTAINTY_MEASURE_WITH_UNIT (LENGTH_MEASURE( 1.000000000000000082E-05 ), #57, 'distance_accuracy_value', 'NONE');
#41 = AXIS2_PLACEMENT_3D ( 'NONE', #165, #285, #60 ) ;
#42 = EDGE_LOOP ( 'NONE', ( #36, #50, #23, #209 ) ) ;
#43 = AXIS2_PLACEMENT_3D ( 'NONE', #231, #281, #32 ) ;
#44 = LINE ( 'NONE', #195, #92 ) ;
#45 = ORIENTED_EDGE ( 'NONE', *, *, #86, .F. ) ;
#46 = PERSON_AND_ORGANIZATION ( #146, #239 ) ;
#47 = EDGE_CURVE ( 'NONE', #286, #183, #237, .T. ) ;
#48 = ORIENTED_EDGE ( 'NONE', *, *, #297, .F. ) ;
#49 = AXIS2_PLACEMENT_3D ( 'NONE', #294, #108, #296 ) ;
#50 = ORIENTED_EDGE ( 'NONE', *, *, #47, .T. ) ;
#51 = DIRECTION ( 'NONE',  ( -1.000000000000000000, -0.000000000000000000, -0.000000000000000000 ) ) ;
#52 = EDGE_CURVE ( 'NONE', #156, #160, #141, .T. ) ;
#53 = DIRECTION ( 'NONE',  ( 0.000000000000000000, 0.000000000000000000, 1.000000000000000000 ) ) ;
#54 = LINE ( 'NONE', #221, #282 ) ;
#55 = AXIS2_PLACEMENT_3D ( 'NONE', #56, #301, #350 ) ;
#56 = CARTESIAN_POINT ( 'NONE',  ( -60.00000000000000000, 0.000000000000000000, 0.000000000000000000 ) ) ;
#57 =( LENGTH_UNIT ( ) NAMED_UNIT ( * ) SI_UNIT ( .MILLI., .METRE. ) );
#58 = DIRECTION ( 'NONE',  ( 1.000000000000000000, 0.000000000000000000, 0.000000000000000000 ) ) ;
#59 = APPROVAL_STATUS ( 'not_yet_approved' ) ;
#60 = DIRECTION ( 'NONE',  ( 0.000000000000000000, 0.000000000000000000, -1.000000000000000000 ) ) ;
#61 = DIRECTION ( 'NONE',  ( 1.000000000000000000, 0.000000000000000000, 0.000000000000000000 ) ) ;
#62 = CARTESIAN_POINT ( 'NONE',  ( 59.69999999999999574, 2.063529856563290244E-15, -16.85000000000000142 ) ) ;
#63 = APPLICATION_CONTEXT ( 'configuration controlled 3d designs of mechanical parts and assemblies' ) ;
#64 = EDGE_CURVE ( 'NONE', #183, #318, #54, .T. ) ;
#65 = APPROVAL_ROLE ( '' ) ;
#66 = AXIS2_PLACEMENT_3D ( 'NONE', #80, #25, #83 ) ;
#67 = APPROVAL_PERSON_ORGANIZATION ( #302, #248, #335 ) ;
#68 = CARTESIAN_POINT ( 'NONE',  ( 60.00000000000000000, 0.000000000000000000, 0.000000000000000000 ) ) ;
#69 = CARTESIAN_POINT ( 'NONE',  ( 60.00000000000000000, 0.000000000000000000, 0.000000000000000000 ) ) ;
#70 = ORIENTED_EDGE ( 'NONE', *, *, #126, .T. ) ;
#71 = DIRECTION ( 'NONE',  ( -1.000000000000000000, -0.000000000000000000, -0.000000000000000000 ) ) ;
#72 = AXIS2_PLACEMENT_3D ( 'NONE', #215, #272, #81 ) ;
#73 = ORIENTED_EDGE ( 'NONE', *, *, #279, .F. ) ;
#74 = ORIENTED_EDGE ( 'NONE', *, *, #175, .T. ) ;
#75 = ORIENTED_EDGE ( 'NONE', *, *, #279, .T. ) ;
#76 = PRODUCT ( '3D_GR1002_33.7x2_188701900', '3D_GR1002_33.7x2_188701900', '', ( #7 ) ) ;
#77 = CC_DESIGN_DATE_AND_TIME_ASSIGNMENT ( #139, #115, ( #20 ) ) ;
#78 = DIRECTION ( 'NONE',  ( 0.000000000000000000, 0.000000000000000000, -1.000000000000000000 ) ) ;
#79 = CIRCLE ( 'NONE', #169, 14.85000000000000142 ) ;
#80 = CARTESIAN_POINT ( 'NONE',  ( -60.00000000000000000, 0.000000000000000000, 0.000000000000000000 ) ) ;
#81 = DIRECTION ( 'NONE',  ( 0.000000000000000000, 0.000000000000000000, -1.000000000000000000 ) ) ;
#82 = ADVANCED_BREP_SHAPE_REPRESENTATION ( '3D_GR1002_33.7x2_188701900', ( #223, #252 ), #311 ) ;
#83 = DIRECTION ( 'NONE',  ( 0.000000000000000000, 0.000000000000000000, -1.000000000000000000 ) ) ;
#84 = AXIS2_PLACEMENT_3D ( 'NONE', #324, #1, #218 ) ;
#85 = CC_DESIGN_APPROVAL ( #304, ( #97 ) ) ;
#86 = EDGE_CURVE ( 'NONE', #17, #160, #217, .T. ) ;
#87 = CARTESIAN_POINT ( 'NONE',  ( 60.00000000000000000, 0.000000000000000000, 0.000000000000000000 ) ) ;
#88 =( NAMED_UNIT ( * ) SI_UNIT ( $, .STERADIAN. ) SOLID_ANGLE_UNIT ( ) );
#89 = DIRECTION ( 'NONE',  ( 0.000000000000000000, 0.000000000000000000, 1.000000000000000000 ) ) ;
#90 = PERSON_AND_ORGANIZATION_ROLE ( 'creator' ) ;
#91 = DIRECTION ( 'NONE',  ( 1.000000000000000000, 0.000000000000000000, 0.000000000000000000 ) ) ;
#92 = VECTOR ( 'NONE', #344, 1000.000000000000000 ) ;
#93 = PERSON_AND_ORGANIZATION ( #146, #239 ) ;
#94 = AXIS2_PLACEMENT_3D ( 'NONE', #11, #117, #121 ) ;
#95 = COORDINATED_UNIVERSAL_TIME_OFFSET ( 1, 0, .AHEAD. ) ;
#96 = CARTESIAN_POINT ( 'NONE',  ( -60.00000000000000000, 0.000000000000000000, 0.000000000000000000 ) ) ;
#97 = PRODUCT_DEFINITION_FORMATION_WITH_SPECIFIED_SOURCE ( 'ANY', '', #76, .NOT_KNOWN. ) ;
#98 = CARTESIAN_POINT ( 'NONE',  ( 59.69999999999999574, 0.000000000000000000, 0.000000000000000000 ) ) ;
#99 = ORIENTED_EDGE ( 'NONE', *, *, #274, .F. ) ;
#100 = APPLICATION_CONTEXT ( 'configuration controlled 3d designs of mechanical parts and assemblies' ) ;
#101 = DIRECTION ( 'NONE',  ( -1.000000000000000000, -0.000000000000000000, -0.000000000000000000 ) ) ;
#102 = EDGE_CURVE ( 'NONE', #259, #284, #199, .T. ) ;
#103 = EDGE_LOOP ( 'NONE', ( #212, #347 ) ) ;
#104 = CIRCLE ( 'NONE', #298, 0.3000000000000016542 ) ;
#105 = EDGE_LOOP ( 'NONE', ( #211, #158 ) ) ;
#106 = EDGE_LOOP ( 'NONE', ( #349, #128 ) ) ;
#107 = ORIENTED_EDGE ( 'NONE', *, *, #235, .T. ) ;
#108 = DIRECTION ( 'NONE',  ( 1.000000000000000000, 0.000000000000000000, 0.000000000000000000 ) ) ;
#109 = CARTESIAN_POINT ( 'NONE',  ( 59.69999999999999574, 0.000000000000000000, 0.000000000000000000 ) ) ;
#110 = FACE_OUTER_BOUND ( 'NONE', #178, .T. ) ;
#111 = ADVANCED_FACE ( 'NONE', ( #134 ), #268, .T. ) ;
#112 = DIRECTION ( 'NONE',  ( -1.000000000000000000, -0.000000000000000000, -0.000000000000000000 ) ) ;
#113 = CC_DESIGN_APPROVAL ( #258, ( #22 ) ) ;
#114 = CARTESIAN_POINT ( 'NONE',  ( 59.69999999999999574, 0.000000000000000000, 0.000000000000000000 ) ) ;
#115 = DATE_TIME_ROLE ( 'creation_date' ) ;
#116 = ADVANCED_FACE ( 'NONE', ( #191 ), #159, .T. ) ;
#117 = DIRECTION ( 'NONE',  ( 0.000000000000000000, -1.000000000000000000, 0.000000000000000000 ) ) ;
#118 = APPLICATION_PROTOCOL_DEFINITION ( 'international standard', 'config_control_design', 1994, #63 ) ;
#119 = APPROVAL_STATUS ( 'not_yet_approved' ) ;
#120 = CARTESIAN_POINT ( 'NONE',  ( 60.00000000000000000, 0.000000000000000000, 16.85000000000000142 ) ) ;
#121 = DIRECTION ( 'NONE',  ( 0.000000000000000000, 0.000000000000000000, -1.000000000000000000 ) ) ;
#122 = VECTOR ( 'NONE', #31, 1000.000000000000000 ) ;
#123 = ORIENTED_EDGE ( 'NONE', *, *, #210, .T. ) ;
#124 = APPROVAL_ROLE ( '' ) ;
#125 = LINE ( 'NONE', #283, #122 ) ;
#126 = EDGE_CURVE ( 'NONE', #17, #292, #287, .T. ) ;
#127 = ORIENTED_EDGE ( 'NONE', *, *, #202, .F. ) ;
#128 = ORIENTED_EDGE ( 'NONE', *, *, #47, .F. ) ;
#129 = CC_DESIGN_APPROVAL ( #248, ( #20 ) ) ;
#130 = ORIENTED_EDGE ( 'NONE', *, *, #264, .T. ) ;
#131 = VERTEX_POINT ( 'NONE', #243 ) ;
#132 = CIRCLE ( 'NONE', #193, 14.85000000000000142 ) ;
#133 = CC_DESIGN_DATE_AND_TIME_ASSIGNMENT ( #198, #149, ( #22 ) ) ;
#134 = FACE_OUTER_BOUND ( 'NONE', #234, .T. ) ;
#135 = AXIS2_PLACEMENT_3D ( 'NONE', #295, #352, #53 ) ;
#136 = DIRECTION ( 'NONE',  ( 0.000000000000000000, 0.000000000000000000, -1.000000000000000000 ) ) ;
#137 = EDGE_CURVE ( 'NONE', #290, #318, #238, .T. ) ;
#138 = DIRECTION ( 'NONE',  ( 1.000000000000000000, 0.000000000000000000, 0.000000000000000000 ) ) ;
#139 = DATE_AND_TIME ( #276, #326 ) ;
#140 = DIRECTION ( 'NONE',  ( 0.000000000000000000, 0.000000000000000000, -1.000000000000000000 ) ) ;
#141 = CIRCLE ( 'NONE', #250, 16.54999999999999716 ) ;
#142 = APPROVAL_PERSON_ORGANIZATION ( #192, #304, #65 ) ;
#143 = DATE_AND_TIME ( #222, #3 ) ;
#144 = FACE_BOUND ( 'NONE', #265, .T. ) ;
#145 = CARTESIAN_POINT ( 'NONE',  ( 0.000000000000000000, 0.000000000000000000, 0.000000000000000000 ) ) ;
#146 = PERSON ( 'UNSPECIFIED', 'UNSPECIFIED', 'UNSPECIFIED', ('UNSPECIFIED'), ('UNSPECIFIED'), ('UNSPECIFIED') ) ;
#147 = TOROIDAL_SURFACE ( 'NONE', #189, 16.54999999999999716, 0.2999999999999999889 ) ;
#148 = CC_DESIGN_PERSON_AND_ORGANIZATION_ASSIGNMENT ( #220, #4, ( #76 ) ) ;
#149 = DATE_TIME_ROLE ( 'classification_date' ) ;
#150 = AXIS2_PLACEMENT_3D ( 'NONE', #68, #38, #260 ) ;
#151 = EDGE_LOOP ( 'NONE', ( #154, #74, #319, #184 ) ) ;
#152 = ADVANCED_FACE ( 'NONE', ( #216 ), #321, .T. ) ;
#153 = DIRECTION ( 'NONE',  ( 0.000000000000000000, 0.000000000000000000, -1.000000000000000000 ) ) ;
#154 = ORIENTED_EDGE ( 'NONE', *, *, #254, .F. ) ;
#155 = LINE ( 'NONE', #120, #230 ) ;
#156 = VERTEX_POINT ( 'NONE', #162 ) ;
#157 = DATE_AND_TIME ( #18, #269 ) ;
#158 = ORIENTED_EDGE ( 'NONE', *, *, #254, .T. ) ;
#159 = TOROIDAL_SURFACE ( 'NONE', #49, 16.54999999999999716, 0.2999999999999999889 ) ;
#160 = VERTEX_POINT ( 'NONE', #275 ) ;
#161 = DIRECTION ( 'NONE',  ( 1.000000000000000000, 0.000000000000000000, 0.000000000000000000 ) ) ;
#162 = CARTESIAN_POINT ( 'NONE',  ( 60.00000000000000000, 0.000000000000000000, -16.54999999999999716 ) ) ;
#163 = EDGE_CURVE ( 'NONE', #292, #17, #227, .T. ) ;
#164 = CARTESIAN_POINT ( 'NONE',  ( -59.70000000000000284, 2.026790452588869384E-15, 16.54999999999999716 ) ) ;
#165 = CARTESIAN_POINT ( 'NONE',  ( -59.70000000000000284, 0.000000000000000000, 0.000000000000000000 ) ) ;
#166 = DIRECTION ( 'NONE',  ( 0.000000000000000000, 0.000000000000000000, 1.000000000000000000 ) ) ;
#167 = COORDINATED_UNIVERSAL_TIME_OFFSET ( 1, 0, .AHEAD. ) ;
#168 = FACE_OUTER_BOUND ( 'NONE', #103, .T. ) ;
#169 = AXIS2_PLACEMENT_3D ( 'NONE', #96, #257, #229 ) ;
#170 = EDGE_CURVE ( 'NONE', #131, #236, #255, .T. ) ;
#171 = AXIS2_PLACEMENT_3D ( 'NONE', #24, #245, #166 ) ;
#172 = LOCAL_TIME ( 17, 9, 16.00000000000000000, #167 ) ;
#173 = PERSON_AND_ORGANIZATION_ROLE ( 'design_supplier' ) ;
#174 = DIRECTION ( 'NONE',  ( 0.000000000000000000, 0.000000000000000000, -1.000000000000000000 ) ) ;
#175 = EDGE_CURVE ( 'NONE', #284, #236, #104, .T. ) ;
#176 = ORIENTED_EDGE ( 'NONE', *, *, #274, .T. ) ;
#177 = CARTESIAN_POINT ( 'NONE',  ( 60.00000000000000000, 0.000000000000000000, 0.000000000000000000 ) ) ;
#178 = EDGE_LOOP ( 'NONE', ( #70, #176, #291, #317 ) ) ;
#179 = DIRECTION ( 'NONE',  ( 0.000000000000000000, 0.000000000000000000, -1.000000000000000000 ) ) ;
#180 = AXIS2_PLACEMENT_3D ( 'NONE', #224, #71, #174 ) ;
#181 = EDGE_LOOP ( 'NONE', ( #99, #205, #130, #346 ) ) ;
#182 = SHAPE_DEFINITION_REPRESENTATION ( #262, #82 ) ;
#183 = VERTEX_POINT ( 'NONE', #273 ) ;
#184 = ORIENTED_EDGE ( 'NONE', *, *, #235, .F. ) ;
#185 = CC_DESIGN_PERSON_AND_ORGANIZATION_ASSIGNMENT ( #46, #203, ( #22 ) ) ;
#186 = DIRECTION ( 'NONE',  ( 0.000000000000000000, 0.000000000000000000, -1.000000000000000000 ) ) ;
#187 = ADVANCED_FACE ( 'NONE', ( #26 ), #147, .T. ) ;
#188 = DIRECTION ( 'NONE',  ( 0.000000000000000000, 1.000000000000000000, -1.224646799147353207E-16 ) ) ;
#189 = AXIS2_PLACEMENT_3D ( 'NONE', #246, #138, #247 ) ;
#190 = CARTESIAN_POINT ( 'NONE',  ( -59.70000000000000284, 0.000000000000000000, 0.000000000000000000 ) ) ;
#191 = FACE_OUTER_BOUND ( 'NONE', #343, .T. ) ;
#192 = PERSON_AND_ORGANIZATION ( #146, #239 ) ;
#193 = AXIS2_PLACEMENT_3D ( 'NONE', #341, #337, #153 ) ;
#194 = DIRECTION ( 'NONE',  ( 0.000000000000000000, 0.000000000000000000, -1.000000000000000000 ) ) ;
#195 = CARTESIAN_POINT ( 'NONE',  ( 60.00000000000000000, 1.818600496733819948E-15, -14.85000000000000142 ) ) ;
#196 = PERSON_AND_ORGANIZATION ( #146, #239 ) ;
#197 = APPROVAL_DATE_TIME ( #143, #248 ) ;
#198 = DATE_AND_TIME ( #9, #293 ) ;
#199 = CIRCLE ( 'NONE', #66, 16.54999999999999716 ) ;
#200 = CC_DESIGN_SECURITY_CLASSIFICATION ( #22, ( #97 ) ) ;
#201 = DIRECTION ( 'NONE',  ( -1.000000000000000000, -0.000000000000000000, -0.000000000000000000 ) ) ;
#202 = EDGE_CURVE ( 'NONE', #236, #131, #34, .T. ) ;
#203 = PERSON_AND_ORGANIZATION_ROLE ( 'classification_officer' ) ;
#204 = CYLINDRICAL_SURFACE ( 'NONE', #228, 14.85000000000000142 ) ;
#205 = ORIENTED_EDGE ( 'NONE', *, *, #163, .T. ) ;
#206 = DIRECTION ( 'NONE',  ( -1.000000000000000000, -0.000000000000000000, -0.000000000000000000 ) ) ;
#207 = DESIGN_CONTEXT ( 'detailed design', #100, 'design' ) ;
#208 = EDGE_LOOP ( 'NONE', ( #345, #12, #232, #15 ) ) ;
#209 = ORIENTED_EDGE ( 'NONE', *, *, #137, .F. ) ;
#210 = EDGE_CURVE ( 'NONE', #286, #290, #44, .T. ) ;
#211 = ORIENTED_EDGE ( 'NONE', *, *, #102, .T. ) ;
#212 = ORIENTED_EDGE ( 'NONE', *, *, #52, .T. ) ;
#213 = ADVANCED_FACE ( 'NONE', ( #5, #144 ), #35, .F. ) ;
#214 = DIRECTION ( 'NONE',  ( 1.000000000000000000, 0.000000000000000000, 0.000000000000000000 ) ) ;
#215 = CARTESIAN_POINT ( 'NONE',  ( 59.69999999999999574, 0.000000000000000000, 0.000000000000000000 ) ) ;
#216 = FACE_OUTER_BOUND ( 'NONE', #181, .T. ) ;
#217 = CIRCLE ( 'NONE', #338, 0.3000000000000016542 ) ;
#218 = DIRECTION ( 'NONE',  ( 0.000000000000000000, 0.000000000000000000, -1.000000000000000000 ) ) ;
#219 = AXIS2_PLACEMENT_3D ( 'NONE', #313, #206, #316 ) ;
#220 = PERSON_AND_ORGANIZATION ( #146, #239 ) ;
#221 = CARTESIAN_POINT ( 'NONE',  ( 60.00000000000000000, 0.000000000000000000, 14.85000000000000142 ) ) ;
#222 = CALENDAR_DATE ( 2024, 8, 10 ) ;
#223 = MANIFOLD_SOLID_BREP ( 'Verrundung1', #325 ) ;
#224 = CARTESIAN_POINT ( 'NONE',  ( -60.00000000000000000, 0.000000000000000000, 0.000000000000000000 ) ) ;
#225 = PERSON_AND_ORGANIZATION_ROLE ( 'creator' ) ;
#226 = CC_DESIGN_PERSON_AND_ORGANIZATION_ASSIGNMENT ( #93, #90, ( #97 ) ) ;
#227 = CIRCLE ( 'NONE', #72, 16.85000000000000142 ) ;
#228 = AXIS2_PLACEMENT_3D ( 'NONE', #69, #101, #89 ) ;
#229 = DIRECTION ( 'NONE',  ( 0.000000000000000000, 0.000000000000000000, -1.000000000000000000 ) ) ;
#230 = VECTOR ( 'NONE', #201, 1000.000000000000000 ) ;
#231 = CARTESIAN_POINT ( 'NONE',  ( -60.00000000000000000, 0.000000000000000000, 0.000000000000000000 ) ) ;
#232 = ORIENTED_EDGE ( 'NONE', *, *, #52, .F. ) ;
#233 = PLANE ( 'NONE',  #150 ) ;
#234 = EDGE_LOOP ( 'NONE', ( #45, #315, #267, #48 ) ) ;
#235 = EDGE_CURVE ( 'NONE', #259, #131, #351, .T. ) ;
#236 = VERTEX_POINT ( 'NONE', #256 ) ;
#237 = CIRCLE ( 'NONE', #19, 14.85000000000000142 ) ;
#238 = CIRCLE ( 'NONE', #55, 14.85000000000000142 ) ;
#239 = ORGANIZATION ( 'UNSPECIFIED', 'UNSPECIFIED', '' ) ;
#240 = ORIENTED_EDGE ( 'NONE', *, *, #175, .F. ) ;
#241 = ORIENTED_EDGE ( 'NONE', *, *, #102, .F. ) ;
#242 = AXIS2_PLACEMENT_3D ( 'NONE', #98, #91, #194 ) ;
#243 = CARTESIAN_POINT ( 'NONE',  ( -59.70000000000000284, 2.063529856563290244E-15, -16.85000000000000142 ) ) ;
#244 = AXIS2_PLACEMENT_3D ( 'NONE', #190, #58, #136 ) ;
#245 = DIRECTION ( 'NONE',  ( -1.000000000000000000, -0.000000000000000000, -0.000000000000000000 ) ) ;
#246 = CARTESIAN_POINT ( 'NONE',  ( -59.70000000000000284, 0.000000000000000000, 0.000000000000000000 ) ) ;
#247 = DIRECTION ( 'NONE',  ( 0.000000000000000000, 0.000000000000000000, -1.000000000000000000 ) ) ;
#248 = APPROVAL ( #119, 'UNSPECIFIED' ) ;
#249 = PRODUCT_RELATED_PRODUCT_CATEGORY ( 'detail', '', ( #76 ) ) ;
#250 = AXIS2_PLACEMENT_3D ( 'NONE', #87, #28, #27 ) ;
#251 = CARTESIAN_POINT ( 'NONE',  ( 60.00000000000000000, 0.000000000000000000, 0.000000000000000000 ) ) ;
#252 = AXIS2_PLACEMENT_3D ( 'NONE', #145, #253, #61 ) ;
#253 = DIRECTION ( 'NONE',  ( 0.000000000000000000, 0.000000000000000000, 1.000000000000000000 ) ) ;
#254 = EDGE_CURVE ( 'NONE', #284, #259, #30, .T. ) ;
#255 = CIRCLE ( 'NONE', #244, 16.85000000000000142 ) ;
#256 = CARTESIAN_POINT ( 'NONE',  ( -59.70000000000000284, 0.000000000000000000, 16.85000000000000142 ) ) ;
#257 = DIRECTION ( 'NONE',  ( 1.000000000000000000, 0.000000000000000000, 0.000000000000000000 ) ) ;
#258 = APPROVAL ( #37, 'UNSPECIFIED' ) ;
#259 = VERTEX_POINT ( 'NONE', #8 ) ;
#260 = DIRECTION ( 'NONE',  ( 0.000000000000000000, 0.000000000000000000, -1.000000000000000000 ) ) ;
#261 = ORIENTED_EDGE ( 'NONE', *, *, #64, .F. ) ;
#262 = PRODUCT_DEFINITION_SHAPE ( 'NONE', 'NONE',  #20 ) ;
#263 = FACE_BOUND ( 'NONE', #106, .T. ) ;
#264 = EDGE_CURVE ( 'NONE', #17, #236, #155, .T. ) ;
#265 = EDGE_LOOP ( 'NONE', ( #75, #21 ) ) ;
#266 = PERSON_AND_ORGANIZATION ( #146, #239 ) ;
#267 = ORIENTED_EDGE ( 'NONE', *, *, #6, .T. ) ;
#268 = TOROIDAL_SURFACE ( 'NONE', #310, 16.54999999999999716, 0.2999999999999999889 ) ;
#269 = LOCAL_TIME ( 17, 9, 16.00000000000000000, #340 ) ;
#270 = ORIENTED_EDGE ( 'NONE', *, *, #314, .T. ) ;
#271 = CARTESIAN_POINT ( 'NONE',  ( 59.69999999999999574, 2.026790452588869384E-15, 16.54999999999999716 ) ) ;
#272 = DIRECTION ( 'NONE',  ( -1.000000000000000000, -0.000000000000000000, -0.000000000000000000 ) ) ;
#273 = CARTESIAN_POINT ( 'NONE',  ( 60.00000000000000000, 0.000000000000000000, 14.85000000000000142 ) ) ;
#274 = EDGE_CURVE ( 'NONE', #292, #131, #125, .T. ) ;
#275 = CARTESIAN_POINT ( 'NONE',  ( 60.00000000000000000, 2.045160154576079814E-15, 16.54999999999999716 ) ) ;
#276 = CALENDAR_DATE ( 2024, 8, 10 ) ;
#277 = CYLINDRICAL_SURFACE ( 'NONE', #171, 16.85000000000000142 ) ;
#278 = FACE_OUTER_BOUND ( 'NONE', #42, .T. ) ;
#279 = EDGE_CURVE ( 'NONE', #318, #290, #79, .T. ) ;
#280 = COORDINATED_UNIVERSAL_TIME_OFFSET ( 1, 0, .AHEAD. ) ;
#281 = DIRECTION ( 'NONE',  ( 1.000000000000000000, 0.000000000000000000, 0.000000000000000000 ) ) ;
#282 = VECTOR ( 'NONE', #112, 1000.000000000000000 ) ;
#283 = CARTESIAN_POINT ( 'NONE',  ( 60.00000000000000000, 2.063529856563290244E-15, -16.85000000000000142 ) ) ;
#284 = VERTEX_POINT ( 'NONE', #16 ) ;
#285 = DIRECTION ( 'NONE',  ( 1.000000000000000000, 0.000000000000000000, 0.000000000000000000 ) ) ;
#286 = VERTEX_POINT ( 'NONE', #312 ) ;
#287 = CIRCLE ( 'NONE', #334, 16.85000000000000142 ) ;
#288 = CC_DESIGN_PERSON_AND_ORGANIZATION_ASSIGNMENT ( #307, #225, ( #20 ) ) ;
#289 = CARTESIAN_POINT ( 'NONE',  ( -60.00000000000000000, 0.000000000000000000, 14.85000000000000142 ) ) ;
#290 = VERTEX_POINT ( 'NONE', #305 ) ;
#291 = ORIENTED_EDGE ( 'NONE', *, *, #170, .T. ) ;
#292 = VERTEX_POINT ( 'NONE', #62 ) ;
#293 = LOCAL_TIME ( 17, 9, 16.00000000000000000, #95 ) ;
#294 = CARTESIAN_POINT ( 'NONE',  ( -59.70000000000000284, 0.000000000000000000, 0.000000000000000000 ) ) ;
#295 = CARTESIAN_POINT ( 'NONE',  ( 60.00000000000000000, 0.000000000000000000, 0.000000000000000000 ) ) ;
#296 = DIRECTION ( 'NONE',  ( 0.000000000000000000, 0.000000000000000000, -1.000000000000000000 ) ) ;
#297 = EDGE_CURVE ( 'NONE', #160, #156, #306, .T. ) ;
#298 = AXIS2_PLACEMENT_3D ( 'NONE', #164, #188, #299 ) ;
#299 = DIRECTION ( 'NONE',  ( 0.000000000000000000, 1.224646799147346305E-16, 1.000000000000000000 ) ) ;
#300 = APPLICATION_PROTOCOL_DEFINITION ( 'international standard', 'config_control_design', 1994, #100 ) ;
#301 = DIRECTION ( 'NONE',  ( 1.000000000000000000, 0.000000000000000000, 0.000000000000000000 ) ) ;
#302 = PERSON_AND_ORGANIZATION ( #146, #239 ) ;
#303 = CYLINDRICAL_SURFACE ( 'NONE', #219, 14.85000000000000142 ) ;
#304 = APPROVAL ( #59, 'UNSPECIFIED' ) ;
#305 = CARTESIAN_POINT ( 'NONE',  ( -60.00000000000000000, 1.818600496733819948E-15, -14.85000000000000142 ) ) ;
#306 = CIRCLE ( 'NONE', #348, 16.54999999999999716 ) ;
#307 = PERSON_AND_ORGANIZATION ( #146, #239 ) ;
#308 = APPROVAL_DATE_TIME ( #157, #258 ) ;
#309 = ADVANCED_FACE ( 'NONE', ( #168, #263 ), #233, .T. ) ;
#310 = AXIS2_PLACEMENT_3D ( 'NONE', #114, #214, #140 ) ;
#311 =( GEOMETRIC_REPRESENTATION_CONTEXT ( 3 ) GLOBAL_UNCERTAINTY_ASSIGNED_CONTEXT ( ( #40 ) ) GLOBAL_UNIT_ASSIGNED_CONTEXT ( ( #57, #328, #88 ) ) REPRESENTATION_CONTEXT ( 'NONE', 'WORKASPACE' ) );
#312 = CARTESIAN_POINT ( 'NONE',  ( 60.00000000000000000, 1.818600496733819948E-15, -14.85000000000000142 ) ) ;
#313 = CARTESIAN_POINT ( 'NONE',  ( 60.00000000000000000, 0.000000000000000000, 0.000000000000000000 ) ) ;
#314 = EDGE_CURVE ( 'NONE', #183, #286, #132, .T. ) ;
#315 = ORIENTED_EDGE ( 'NONE', *, *, #163, .F. ) ;
#316 = DIRECTION ( 'NONE',  ( 0.000000000000000000, 0.000000000000000000, 1.000000000000000000 ) ) ;
#317 = ORIENTED_EDGE ( 'NONE', *, *, #264, .F. ) ;
#318 = VERTEX_POINT ( 'NONE', #289 ) ;
#319 = ORIENTED_EDGE ( 'NONE', *, *, #170, .F. ) ;
#320 = EDGE_LOOP ( 'NONE', ( #270, #123, #73, #261 ) ) ;
#321 = CYLINDRICAL_SURFACE ( 'NONE', #135, 16.85000000000000142 ) ;
#322 = CARTESIAN_POINT ( 'NONE',  ( 59.69999999999999574, 0.000000000000000000, 16.85000000000000142 ) ) ;
#323 = ADVANCED_FACE ( 'NONE', ( #14 ), #330, .T. ) ;
#324 = CARTESIAN_POINT ( 'NONE',  ( 59.69999999999999574, 0.000000000000000000, -16.54999999999999716 ) ) ;
#325 = CLOSED_SHELL ( 'NONE', ( #187, #323, #336, #10, #309, #213, #152, #342, #111, #116 ) ) ;
#326 = LOCAL_TIME ( 17, 9, 16.00000000000000000, #33 ) ;
#327 = DIRECTION ( 'NONE',  ( 0.000000000000000000, 1.000000000000000000, -1.224646799147353207E-16 ) ) ;
#328 =( NAMED_UNIT ( * ) PLANE_ANGLE_UNIT ( ) SI_UNIT ( $, .RADIAN. ) );
#329 = FACE_OUTER_BOUND ( 'NONE', #320, .T. ) ;
#330 = TOROIDAL_SURFACE ( 'NONE', #242, 16.54999999999999716, 0.2999999999999999889 ) ;
#331 = CALENDAR_DATE ( 2024, 8, 10 ) ;
#332 = DIRECTION ( 'NONE',  ( 1.000000000000000000, 0.000000000000000000, 0.000000000000000000 ) ) ;
#333 = DATE_AND_TIME ( #331, #172 ) ;
#334 = AXIS2_PLACEMENT_3D ( 'NONE', #109, #51, #186 ) ;
#335 = APPROVAL_ROLE ( '' ) ;
#336 = ADVANCED_FACE ( 'NONE', ( #329 ), #204, .F. ) ;
#337 = DIRECTION ( 'NONE',  ( 1.000000000000000000, 0.000000000000000000, 0.000000000000000000 ) ) ;
#338 = AXIS2_PLACEMENT_3D ( 'NONE', #271, #327, #353 ) ;
#339 = APPROVAL_PERSON_ORGANIZATION ( #266, #258, #124 ) ;
#340 = COORDINATED_UNIVERSAL_TIME_OFFSET ( 1, 0, .AHEAD. ) ;
#341 = CARTESIAN_POINT ( 'NONE',  ( 60.00000000000000000, 0.000000000000000000, 0.000000000000000000 ) ) ;
#342 = ADVANCED_FACE ( 'NONE', ( #278 ), #303, .F. ) ;
#343 = EDGE_LOOP ( 'NONE', ( #240, #241, #107, #127 ) ) ;
#344 = DIRECTION ( 'NONE',  ( -1.000000000000000000, -0.000000000000000000, -0.000000000000000000 ) ) ;
#345 = ORIENTED_EDGE ( 'NONE', *, *, #126, .F. ) ;
#346 = ORIENTED_EDGE ( 'NONE', *, *, #202, .T. ) ;
#347 = ORIENTED_EDGE ( 'NONE', *, *, #297, .T. ) ;
#348 = AXIS2_PLACEMENT_3D ( 'NONE', #177, #332, #179 ) ;
#349 = ORIENTED_EDGE ( 'NONE', *, *, #314, .F. ) ;
#350 = DIRECTION ( 'NONE',  ( 0.000000000000000000, 0.000000000000000000, -1.000000000000000000 ) ) ;
#351 = CIRCLE ( 'NONE', #94, 0.3000000000000016542 ) ;
#352 = DIRECTION ( 'NONE',  ( -1.000000000000000000, -0.000000000000000000, -0.000000000000000000 ) ) ;
#353 = DIRECTION ( 'NONE',  ( 0.000000000000000000, 1.224646799147346305E-16, 1.000000000000000000 ) ) ;
ENDSEC;
END-ISO-10303-21;
