ISO-10303-21;
HEADER;
FILE_DESCRIPTION (( 'STEP AP203' ),
    '1' );
FILE_NAME ('OT200-65-76_1x2_6_OSTP.step',
    '2020-12-16T02:34:39',
    ( '' ),
    ( '' ),
    'SwSTEP 2.0',
    'SolidWorks 2014',
    '' );
FILE_SCHEMA (( 'CONFIG_CONTROL_DESIGN' ));
ENDSEC;

DATA;
#1 = COORDINATED_UNIVERSAL_TIME_OFFSET ( 1, 0, .AHEAD. ) ;
#2 = DIRECTION ( 'NONE',  ( 0.0000000000000000000, 0.0000000000000000000, 1.000000000000000000 ) ) ;
#3 = FACE_OUTER_BOUND ( 'NONE', #79, .T. ) ;
#4 = AXIS2_PLACEMENT_3D ( 'NONE', #84, #207, #170 ) ;
#5 = CARTESIAN_POINT ( 'NONE',  ( 0.0000000000000000000, 0.0000000000000000000, 0.0000000000000000000 ) ) ;
#6 = CC_DESIGN_DATE_AND_TIME_ASSIGNMENT ( #212, #51, ( #228 ) ) ;
#7 = CARTESIAN_POINT ( 'NONE',  ( 95.00000000000000000, 0.0000000000000000000, 0.0000000000000000000 ) ) ;
#8 = ORIENTED_EDGE ( 'NONE', *, *, #99, .T. ) ;
#9 = CARTESIAN_POINT ( 'NONE',  ( 95.00000000000000000, 0.0000000000000000000, 0.0000000000000000000 ) ) ;
#10 = DIRECTION ( 'NONE',  ( 0.0000000000000000000, 1.000000000000000000, 0.0000000000000000000 ) ) ;
#11 = APPROVAL_STATUS ( 'not_yet_approved' ) ;
#12 = DATE_TIME_ROLE ( 'creation_date' ) ;
#13 = COORDINATED_UNIVERSAL_TIME_OFFSET ( 1, 0, .AHEAD. ) ;
#14 = TOROIDAL_SURFACE ( 'NONE', #17, 95.00000000000000000, 35.45000000000000300 ) ;
#15 = ADVANCED_FACE ( 'NONE', ( #16, #28 ), #124, .T. ) ;
#16 = FACE_BOUND ( 'NONE', #128, .T. ) ;
#17 = AXIS2_PLACEMENT_3D ( 'NONE', #9, #83, #205 ) ;
#18 = DATE_AND_TIME ( #222, #115 ) ;
#19 = PRODUCT_DEFINITION ( 'UNKNOWN', '', #78, #220 ) ;
#20 = DATE_AND_TIME ( #117, #223 ) ;
#21 = VERTEX_POINT ( 'NONE', #41 ) ;
#22 = DIRECTION ( 'NONE',  ( 0.0000000000000000000, 0.0000000000000000000, 1.000000000000000000 ) ) ;
#23 = EDGE_CURVE ( 'NONE', #219, #120, #160, .T. ) ;
#24 = EDGE_LOOP ( 'NONE', ( #139, #47, #107, #214 ) ) ;
#25 = DIRECTION ( 'NONE',  ( 0.0000000000000000000, 0.0000000000000000000, 1.000000000000000000 ) ) ;
#26 = DIRECTION ( 'NONE',  ( 0.0000000000000000000, 0.0000000000000000000, 1.000000000000000000 ) ) ;
#27 = DATE_AND_TIME ( #151, #175 ) ;
#28 = FACE_OUTER_BOUND ( 'NONE', #199, .T. ) ;
#29 = DIRECTION ( 'NONE',  ( 1.000000000000000000, 6.123233995736766000E-017, 0.0000000000000000000 ) ) ;
#30 = DIRECTION ( 'NONE',  ( 0.0000000000000000000, 1.000000000000000000, 0.0000000000000000000 ) ) ;
#31 = EDGE_CURVE ( 'NONE', #152, #101, #245, .T. ) ;
#32 = DIRECTION ( 'NONE',  ( 1.000000000000000000, 6.123233995736766000E-017, 0.0000000000000000000 ) ) ;
#33 = ORGANIZATION ( 'UNSPECIFIED', 'UNSPECIFIED', '' ) ;
#34 = APPROVAL_ROLE ( '' ) ;
#35 = ORIENTED_EDGE ( 'NONE', *, *, #76, .T. ) ;
#36 = CIRCLE ( 'NONE', #39, 133.0500000000000100 ) ;
#37 = ORIENTED_EDGE ( 'NONE', *, *, #121, .F. ) ;
#38 = ADVANCED_FACE ( 'NONE', ( #3 ), #161, .F. ) ;
#39 = AXIS2_PLACEMENT_3D ( 'NONE', #7, #85, #169 ) ;
#40 = FACE_OUTER_BOUND ( 'NONE', #71, .T. ) ;
#41 = CARTESIAN_POINT ( 'NONE',  ( 94.99999999999997200, 133.0500000000000100, 0.0000000000000000000 ) ) ;
#42 = CALENDAR_DATE ( 2020, 16, 12 ) ;
#43 = CIRCLE ( 'NONE', #192, 35.45000000000001000 ) ;
#44 = DIRECTION ( 'NONE',  ( 1.000000000000000000, 0.0000000000000000000, 0.0000000000000000000 ) ) ;
#45 = MANIFOLD_SOLID_BREP ( 'cut-body', #201 ) ;
#46 = FACE_BOUND ( 'NONE', #96, .T. ) ;
#47 = ORIENTED_EDGE ( 'NONE', *, *, #213, .T. ) ;
#48 = CARTESIAN_POINT ( 'NONE',  ( 94.99999999999998600, 95.00000000000000000, 0.0000000000000000000 ) ) ;
#49 = DIRECTION ( 'NONE',  ( 1.000000000000000000, 6.123233995736766000E-017, 0.0000000000000000000 ) ) ;
#50 = FACE_OUTER_BOUND ( 'NONE', #177, .T. ) ;
#51 = DATE_TIME_ROLE ( 'classification_date' ) ;
#52 = VERTEX_POINT ( 'NONE', #224 ) ;
#53 = AXIS2_PLACEMENT_3D ( 'NONE', #90, #211, #69 ) ;
#54 = LOCAL_TIME ( 3, 34, 39.00000000000000000, #180 ) ;
#55 = APPROVAL ( #193, 'UNSPECIFIED' ) ;
#56 = ORIENTED_EDGE ( 'NONE', *, *, #95, .T. ) ;
#57 = DIRECTION ( 'NONE',  ( 1.000000000000000000, 0.0000000000000000000, 0.0000000000000000000 ) ) ;
#58 = AXIS2_PLACEMENT_3D ( 'NONE', #168, #29, #30 ) ;
#59 = PERSON_AND_ORGANIZATION ( #138, #33 ) ;
#60 = CARTESIAN_POINT ( 'NONE',  ( 38.04999999999999700, 0.0000000000000000000, -4.659781070755679000E-015 ) ) ;
#61 = DIRECTION ( 'NONE',  ( 1.000000000000000000, 6.123233995736766000E-017, -0.0000000000000000000 ) ) ;
#62 = CARTESIAN_POINT ( 'NONE',  ( -38.04999999999999700, 0.0000000000000000000, 0.0000000000000000000 ) ) ;
#63 = APPROVAL_DATE_TIME ( #27, #202 ) ;
#64 = ORIENTED_EDGE ( 'NONE', *, *, #226, .F. ) ;
#65 = ORIENTED_EDGE ( 'NONE', *, *, #221, .F. ) ;
#66 = CC_DESIGN_DATE_AND_TIME_ASSIGNMENT ( #111, #12, ( #19 ) ) ;
#67 = CARTESIAN_POINT ( 'NONE',  ( 95.00000000000000000, 59.54999999999999700, -4.341372902977367000E-015 ) ) ;
#68 = CALENDAR_DATE ( 2020, 16, 12 ) ;
#69 = DIRECTION ( 'NONE',  ( 1.000000000000000000, 0.0000000000000000000, 0.0000000000000000000 ) ) ;
#70 = PERSON_AND_ORGANIZATION ( #138, #33 ) ;
#71 = EDGE_LOOP ( 'NONE', ( #182, #98, #82, #91 ) ) ;
#72 = CC_DESIGN_APPROVAL ( #55, ( #228 ) ) ;
#73 = APPLICATION_PROTOCOL_DEFINITION ( 'international standard', 'config_control_design', 1994, #134 ) ;
#74 = PERSON_AND_ORGANIZATION ( #138, #33 ) ;
#75 = ORIENTED_EDGE ( 'NONE', *, *, #149, .F. ) ;
#76 = EDGE_CURVE ( 'NONE', #116, #52, #190, .T. ) ;
#77 = CIRCLE ( 'NONE', #162, 38.04999999999999700 ) ;
#78 = PRODUCT_DEFINITION_FORMATION_WITH_SPECIFIED_SOURCE ( 'ANY', '', #171, .NOT_KNOWN. ) ;
#79 = EDGE_LOOP ( 'NONE', ( #237, #35, #65, #185 ) ) ;
#80 = ORIENTED_EDGE ( 'NONE', *, *, #149, .T. ) ;
#81 = APPROVAL_PERSON_ORGANIZATION ( #70, #143, #34 ) ;
#82 = ORIENTED_EDGE ( 'NONE', *, *, #31, .T. ) ;
#83 = DIRECTION ( 'NONE',  ( 0.0000000000000000000, 0.0000000000000000000, 1.000000000000000000 ) ) ;
#84 = CARTESIAN_POINT ( 'NONE',  ( 0.0000000000000000000, 0.0000000000000000000, 0.0000000000000000000 ) ) ;
#85 = DIRECTION ( 'NONE',  ( 0.0000000000000000000, 0.0000000000000000000, 1.000000000000000000 ) ) ;
#86 = DIRECTION ( 'NONE',  ( 0.0000000000000000000, -0.0000000000000000000, 1.000000000000000000 ) ) ;
#87 = APPROVAL_STATUS ( 'not_yet_approved' ) ;
#88 =( GEOMETRIC_REPRESENTATION_CONTEXT ( 3 ) GLOBAL_UNCERTAINTY_ASSIGNED_CONTEXT ( ( #197 ) ) GLOBAL_UNIT_ASSIGNED_CONTEXT ( ( #154, #248, #217 ) ) REPRESENTATION_CONTEXT ( 'NONE', 'WORKASPACE' ) );
#89 = LOCAL_TIME ( 3, 34, 39.00000000000000000, #13 ) ;
#90 = CARTESIAN_POINT ( 'NONE',  ( 0.0000000000000000000, 0.0000000000000000000, 0.0000000000000000000 ) ) ;
#91 = ORIENTED_EDGE ( 'NONE', *, *, #109, .F. ) ;
#92 = PRODUCT_DEFINITION_SHAPE ( 'NONE', 'NONE',  #19 ) ;
#93 = PERSON_AND_ORGANIZATION_ROLE ( 'creator' ) ;
#94 = SHAPE_DEFINITION_REPRESENTATION ( #92, #148 ) ;
#95 = EDGE_CURVE ( 'NONE', #21, #218, #234, .T. ) ;
#96 = EDGE_LOOP ( 'NONE', ( #229, #239 ) ) ;
#97 = APPROVAL_DATE_TIME ( #20, #143 ) ;
#98 = ORIENTED_EDGE ( 'NONE', *, *, #226, .T. ) ;
#99 = EDGE_CURVE ( 'NONE', #218, #120, #208, .T. ) ;
#100 = FACE_OUTER_BOUND ( 'NONE', #241, .T. ) ;
#101 = VERTEX_POINT ( 'NONE', #243 ) ;
#102 = CC_DESIGN_PERSON_AND_ORGANIZATION_ASSIGNMENT ( #127, #250, ( #19 ) ) ;
#103 = CIRCLE ( 'NONE', #4, 38.04999999999999700 ) ;
#104 = CARTESIAN_POINT ( 'NONE',  ( 95.00000000000000000, 0.0000000000000000000, 0.0000000000000000000 ) ) ;
#105 = CARTESIAN_POINT ( 'NONE',  ( 0.0000000000000000000, 0.0000000000000000000, 0.0000000000000000000 ) ) ;
#106 = PERSON_AND_ORGANIZATION ( #138, #33 ) ;
#107 = ORIENTED_EDGE ( 'NONE', *, *, #23, .T. ) ;
#108 = DIRECTION ( 'NONE',  ( 1.000000000000000000, 0.0000000000000000000, 0.0000000000000000000 ) ) ;
#109 = EDGE_CURVE ( 'NONE', #52, #101, #156, .T. ) ;
#110 = PERSON_AND_ORGANIZATION_ROLE ( 'design_supplier' ) ;
#111 = DATE_AND_TIME ( #68, #89 ) ;
#112 = PERSON_AND_ORGANIZATION_ROLE ( 'design_owner' ) ;
#113 = AXIS2_PLACEMENT_3D ( 'NONE', #203, #26, #188 ) ;
#114 = ADVANCED_FACE ( 'NONE', ( #187 ), #141, .T. ) ;
#115 = LOCAL_TIME ( 3, 34, 39.00000000000000000, #167 ) ;
#116 = VERTEX_POINT ( 'NONE', #163 ) ;
#117 = CALENDAR_DATE ( 2020, 16, 12 ) ;
#118 = AXIS2_PLACEMENT_3D ( 'NONE', #104, #129, #150 ) ;
#119 = PERSON_AND_ORGANIZATION ( #138, #33 ) ;
#120 = VERTEX_POINT ( 'NONE', #60 ) ;
#121 = EDGE_CURVE ( 'NONE', #152, #116, #147, .T. ) ;
#122 = CARTESIAN_POINT ( 'NONE',  ( 95.00000000000000000, 0.0000000000000000000, 0.0000000000000000000 ) ) ;
#123 = CARTESIAN_POINT ( 'NONE',  ( 94.99999999999998600, 95.00000000000000000, 0.0000000000000000000 ) ) ;
#124 = PLANE ( 'NONE',  #158 ) ;
#125 = CARTESIAN_POINT ( 'NONE',  ( 94.99999999999998600, 56.95000000000000300, -4.659781070755679000E-015 ) ) ;
#126 = DIRECTION ( 'NONE',  ( 0.0000000000000000000, 0.0000000000000000000, 1.000000000000000000 ) ) ;
#127 = PERSON_AND_ORGANIZATION ( #138, #33 ) ;
#128 = EDGE_LOOP ( 'NONE', ( #37, #64 ) ) ;
#129 = DIRECTION ( 'NONE',  ( 0.0000000000000000000, 0.0000000000000000000, 1.000000000000000000 ) ) ;
#130 = CC_DESIGN_SECURITY_CLASSIFICATION ( #228, ( #78 ) ) ;
#131 = DIRECTION ( 'NONE',  ( 0.0000000000000000000, 1.000000000000000000, 0.0000000000000000000 ) ) ;
#132 = CARTESIAN_POINT ( 'NONE',  ( 0.0000000000000000000, 0.0000000000000000000, 0.0000000000000000000 ) ) ;
#133 = AXIS2_PLACEMENT_3D ( 'NONE', #122, #2, #164 ) ;
#134 = APPLICATION_CONTEXT ( 'configuration controlled 3d designs of mechanical parts and assemblies' ) ;
#135 = TOROIDAL_SURFACE ( 'NONE', #118, 95.00000000000000000, 38.04999999999999700 ) ;
#136 = AXIS2_PLACEMENT_3D ( 'NONE', #5, #165, #240 ) ;
#137 = ORIENTED_EDGE ( 'NONE', *, *, #23, .F. ) ;
#138 = PERSON ( 'UNSPECIFIED', 'UNSPECIFIED', 'UNSPECIFIED', ('UNSPECIFIED'), ('UNSPECIFIED'), ('UNSPECIFIED') ) ;
#139 = ORIENTED_EDGE ( 'NONE', *, *, #95, .F. ) ;
#140 = PRODUCT_RELATED_PRODUCT_CATEGORY ( 'detail', '', ( #171 ) ) ;
#141 = TOROIDAL_SURFACE ( 'NONE', #244, 95.00000000000000000, 38.04999999999999700 ) ;
#142 = CARTESIAN_POINT ( 'NONE',  ( 95.00000000000000000, 0.0000000000000000000, -4.341372902977367000E-015 ) ) ;
#143 = APPROVAL ( #11, 'UNSPECIFIED' ) ;
#144 = DIRECTION ( 'NONE',  ( 0.0000000000000000000, 0.0000000000000000000, 1.000000000000000000 ) ) ;
#145 = DIRECTION ( 'NONE',  ( 0.0000000000000000000, 0.0000000000000000000, 1.000000000000000000 ) ) ;
#146 = DIRECTION ( 'NONE',  ( 0.0000000000000000000, 0.0000000000000000000, 1.000000000000000000 ) ) ;
#147 = CIRCLE ( 'NONE', #58, 35.45000000000001000 ) ;
#148 = ADVANCED_BREP_SHAPE_REPRESENTATION ( 'OT200-65-76_1x2_6_OSTP', ( #45, #53 ), #88 ) ;
#149 = EDGE_CURVE ( 'NONE', #120, #219, #103, .T. ) ;
#150 = DIRECTION ( 'NONE',  ( 1.000000000000000000, 0.0000000000000000000, 0.0000000000000000000 ) ) ;
#151 = CALENDAR_DATE ( 2020, 16, 12 ) ;
#152 = VERTEX_POINT ( 'NONE', #67 ) ;
#153 = MECHANICAL_CONTEXT ( 'NONE', #134, 'mechanical' ) ;
#154 =( LENGTH_UNIT ( ) NAMED_UNIT ( * ) SI_UNIT ( .MILLI., .METRE. ) );
#155 = PERSON_AND_ORGANIZATION ( #138, #33 ) ;
#156 = CIRCLE ( 'NONE', #179, 35.45000000000000300 ) ;
#157 = ORIENTED_EDGE ( 'NONE', *, *, #198, .F. ) ;
#158 = AXIS2_PLACEMENT_3D ( 'NONE', #123, #61, #25 ) ;
#159 = APPROVAL_PERSON_ORGANIZATION ( #181, #55, #195 ) ;
#160 = CIRCLE ( 'NONE', #136, 38.04999999999999700 ) ;
#161 = TOROIDAL_SURFACE ( 'NONE', #133, 95.00000000000000000, 35.45000000000000300 ) ;
#162 = AXIS2_PLACEMENT_3D ( 'NONE', #48, #189, #209 ) ;
#163 = CARTESIAN_POINT ( 'NONE',  ( 95.00000000000000000, 130.4500000000000200, 0.0000000000000000000 ) ) ;
#164 = DIRECTION ( 'NONE',  ( 1.000000000000000000, 0.0000000000000000000, 0.0000000000000000000 ) ) ;
#165 = DIRECTION ( 'NONE',  ( 0.0000000000000000000, 1.000000000000000000, 0.0000000000000000000 ) ) ;
#166 = CARTESIAN_POINT ( 'NONE',  ( 95.00000000000000000, 0.0000000000000000000, 0.0000000000000000000 ) ) ;
#167 = COORDINATED_UNIVERSAL_TIME_OFFSET ( 1, 0, .AHEAD. ) ;
#168 = CARTESIAN_POINT ( 'NONE',  ( 95.00000000000000000, 95.00000000000000000, 0.0000000000000000000 ) ) ;
#169 = DIRECTION ( 'NONE',  ( 1.000000000000000000, 0.0000000000000000000, 0.0000000000000000000 ) ) ;
#170 = DIRECTION ( 'NONE',  ( 0.0000000000000000000, 0.0000000000000000000, 1.000000000000000000 ) ) ;
#171 = PRODUCT ( 'OT200-65-76_1x2_6_OSTP', 'OT200-65-76_1x2_6_OSTP', '', ( #153 ) ) ;
#172 = COORDINATED_UNIVERSAL_TIME_OFFSET ( 1, 0, .AHEAD. ) ;
#173 = CC_DESIGN_PERSON_AND_ORGANIZATION_ASSIGNMENT ( #119, #112, ( #171 ) ) ;
#174 = APPROVAL_ROLE ( '' ) ;
#175 = LOCAL_TIME ( 3, 34, 39.00000000000000000, #1 ) ;
#176 = DIRECTION ( 'NONE',  ( 0.0000000000000000000, 1.000000000000000000, 0.0000000000000000000 ) ) ;
#177 = EDGE_LOOP ( 'NONE', ( #75, #137 ) ) ;
#178 = ADVANCED_FACE ( 'NONE', ( #46, #50 ), #242, .F. ) ;
#179 = AXIS2_PLACEMENT_3D ( 'NONE', #191, #227, #206 ) ;
#180 = COORDINATED_UNIVERSAL_TIME_OFFSET ( 1, 0, .AHEAD. ) ;
#181 = PERSON_AND_ORGANIZATION ( #138, #33 ) ;
#182 = ORIENTED_EDGE ( 'NONE', *, *, #76, .F. ) ;
#183 = AXIS2_PLACEMENT_3D ( 'NONE', #246, #126, #108 ) ;
#184 = ADVANCED_FACE ( 'NONE', ( #40 ), #14, .F. ) ;
#185 = ORIENTED_EDGE ( 'NONE', *, *, #31, .F. ) ;
#186 = AXIS2_PLACEMENT_3D ( 'NONE', #105, #10, #144 ) ;
#187 = FACE_OUTER_BOUND ( 'NONE', #24, .T. ) ;
#188 = DIRECTION ( 'NONE',  ( 1.000000000000000000, 0.0000000000000000000, 0.0000000000000000000 ) ) ;
#189 = DIRECTION ( 'NONE',  ( 1.000000000000000000, 6.123233995736766000E-017, 0.0000000000000000000 ) ) ;
#190 = CIRCLE ( 'NONE', #113, 130.4500000000000200 ) ;
#191 = CARTESIAN_POINT ( 'NONE',  ( 0.0000000000000000000, 0.0000000000000000000, 0.0000000000000000000 ) ) ;
#192 = AXIS2_PLACEMENT_3D ( 'NONE', #210, #49, #176 ) ;
#193 = APPROVAL_STATUS ( 'not_yet_approved' ) ;
#194 = ORIENTED_EDGE ( 'NONE', *, *, #198, .T. ) ;
#195 = APPROVAL_ROLE ( '' ) ;
#196 = AXIS2_PLACEMENT_3D ( 'NONE', #132, #131, #86 ) ;
#197 = UNCERTAINTY_MEASURE_WITH_UNIT (LENGTH_MEASURE( 1.000000000000000100E-005 ), #154, 'distance_accuracy_value', 'NONE');
#198 = EDGE_CURVE ( 'NONE', #218, #21, #77, .T. ) ;
#199 = EDGE_LOOP ( 'NONE', ( #194, #56 ) ) ;
#200 = CC_DESIGN_APPROVAL ( #143, ( #78 ) ) ;
#201 = CLOSED_SHELL ( 'NONE', ( #38, #114, #251, #15, #178, #184 ) ) ;
#202 = APPROVAL ( #87, 'UNSPECIFIED' ) ;
#203 = CARTESIAN_POINT ( 'NONE',  ( 95.00000000000000000, 0.0000000000000000000, 0.0000000000000000000 ) ) ;
#204 = CIRCLE ( 'NONE', #186, 35.45000000000000300 ) ;
#205 = DIRECTION ( 'NONE',  ( 1.000000000000000000, 0.0000000000000000000, 0.0000000000000000000 ) ) ;
#206 = DIRECTION ( 'NONE',  ( 0.0000000000000000000, 0.0000000000000000000, 1.000000000000000000 ) ) ;
#207 = DIRECTION ( 'NONE',  ( 0.0000000000000000000, 1.000000000000000000, 0.0000000000000000000 ) ) ;
#208 = CIRCLE ( 'NONE', #183, 56.95000000000000300 ) ;
#209 = DIRECTION ( 'NONE',  ( 0.0000000000000000000, 0.0000000000000000000, 1.000000000000000000 ) ) ;
#210 = CARTESIAN_POINT ( 'NONE',  ( 95.00000000000000000, 95.00000000000000000, 0.0000000000000000000 ) ) ;
#211 = DIRECTION ( 'NONE',  ( 0.0000000000000000000, 0.0000000000000000000, 1.000000000000000000 ) ) ;
#212 = DATE_AND_TIME ( #42, #54 ) ;
#213 = EDGE_CURVE ( 'NONE', #21, #219, #36, .T. ) ;
#214 = ORIENTED_EDGE ( 'NONE', *, *, #99, .F. ) ;
#215 = CC_DESIGN_PERSON_AND_ORGANIZATION_ASSIGNMENT ( #74, #93, ( #78 ) ) ;
#216 = APPLICATION_PROTOCOL_DEFINITION ( 'international standard', 'config_control_design', 1994, #232 ) ;
#217 =( NAMED_UNIT ( * ) SI_UNIT ( $, .STERADIAN. ) SOLID_ANGLE_UNIT ( ) );
#218 = VERTEX_POINT ( 'NONE', #125 ) ;
#219 = VERTEX_POINT ( 'NONE', #62 ) ;
#220 = DESIGN_CONTEXT ( 'detailed design', #232, 'design' ) ;
#221 = EDGE_CURVE ( 'NONE', #101, #52, #204, .T. ) ;
#222 = CALENDAR_DATE ( 2020, 16, 12 ) ;
#223 = LOCAL_TIME ( 3, 34, 39.00000000000000000, #172 ) ;
#224 = CARTESIAN_POINT ( 'NONE',  ( -35.45000000000001000, 0.0000000000000000000, 0.0000000000000000000 ) ) ;
#225 = APPROVAL_PERSON_ORGANIZATION ( #106, #202, #174 ) ;
#226 = EDGE_CURVE ( 'NONE', #116, #152, #43, .T. ) ;
#227 = DIRECTION ( 'NONE',  ( 0.0000000000000000000, 1.000000000000000000, 0.0000000000000000000 ) ) ;
#228 = SECURITY_CLASSIFICATION ( '', '', #247 ) ;
#229 = ORIENTED_EDGE ( 'NONE', *, *, #221, .T. ) ;
#230 = CARTESIAN_POINT ( 'NONE',  ( 94.99999999999998600, 95.00000000000000000, 0.0000000000000000000 ) ) ;
#231 = AXIS2_PLACEMENT_3D ( 'NONE', #142, #22, #57 ) ;
#232 = APPLICATION_CONTEXT ( 'configuration controlled 3d designs of mechanical parts and assemblies' ) ;
#233 = PERSON_AND_ORGANIZATION_ROLE ( 'classification_officer' ) ;
#234 = CIRCLE ( 'NONE', #235, 38.04999999999999700 ) ;
#235 = AXIS2_PLACEMENT_3D ( 'NONE', #230, #32, #146 ) ;
#236 = APPROVAL_DATE_TIME ( #18, #55 ) ;
#237 = ORIENTED_EDGE ( 'NONE', *, *, #121, .T. ) ;
#238 = CC_DESIGN_PERSON_AND_ORGANIZATION_ASSIGNMENT ( #155, #110, ( #78 ) ) ;
#239 = ORIENTED_EDGE ( 'NONE', *, *, #109, .T. ) ;
#240 = DIRECTION ( 'NONE',  ( 0.0000000000000000000, 0.0000000000000000000, 1.000000000000000000 ) ) ;
#241 = EDGE_LOOP ( 'NONE', ( #253, #157, #8, #80 ) ) ;
#242 = PLANE ( 'NONE',  #196 ) ;
#243 = CARTESIAN_POINT ( 'NONE',  ( 35.45000000000000300, 0.0000000000000000000, -4.341372902977367000E-015 ) ) ;
#244 = AXIS2_PLACEMENT_3D ( 'NONE', #166, #145, #44 ) ;
#245 = CIRCLE ( 'NONE', #231, 59.54999999999999000 ) ;
#246 = CARTESIAN_POINT ( 'NONE',  ( 95.00000000000000000, 0.0000000000000000000, -4.659781070755679000E-015 ) ) ;
#247 = SECURITY_CLASSIFICATION_LEVEL ( 'unclassified' ) ;
#248 =( NAMED_UNIT ( * ) PLANE_ANGLE_UNIT ( ) SI_UNIT ( $, .RADIAN. ) );
#249 = CC_DESIGN_PERSON_AND_ORGANIZATION_ASSIGNMENT ( #59, #233, ( #228 ) ) ;
#250 = PERSON_AND_ORGANIZATION_ROLE ( 'creator' ) ;
#251 = ADVANCED_FACE ( 'NONE', ( #100 ), #135, .T. ) ;
#252 = CC_DESIGN_APPROVAL ( #202, ( #19 ) ) ;
#253 = ORIENTED_EDGE ( 'NONE', *, *, #213, .F. ) ;
ENDSEC;
END-ISO-10303-21;
