ISO-10303-21;
HEADER;
FILE_DESCRIPTION (( 'STEP AP203' ),
    '1' );
FILE_NAME ('3D_R245_104_17386330.STEP',
    '2024-08-06T09:41:05',
    ( '' ),
    ( '' ),
    'SwSTEP 2.0',
    'SolidWorks 2024',
    '' );
FILE_SCHEMA (( 'CONFIG_CONTROL_DESIGN' ));
ENDSEC;

DATA;
#1 = CC_DESIGN_PERSON_AND_ORGANIZATION_ASSIGNMENT ( #178, #64, ( #189 ) ) ;
#2 = VECTOR ( 'NONE', #77, 1000.000000000000000 ) ;
#3 = PRODUCT_DEFINITION ( 'UNKNOWN', '', #189, #171 ) ;
#4 = PERSON_AND_ORGANIZATION ( #134, #168 ) ;
#5 = DIRECTION ( 'NONE',  ( 0.000000000000000000, 0.000000000000000000, -1.000000000000000000 ) ) ;
#6 = EDGE_CURVE ( 'NONE', #147, #164, #145, .T. ) ;
#7 = FACE_OUTER_BOUND ( 'NONE', #203, .T. ) ;
#8 = AXIS2_PLACEMENT_3D ( 'NONE', #165, #37, #246 ) ;
#9 = APPROVAL_DATE_TIME ( #101, #40 ) ;
#10 = CARTESIAN_POINT ( 'NONE',  ( 0.000000000000000000, 4.000000000000000000, 0.000000000000000000 ) ) ;
#11 = EDGE_LOOP ( 'NONE', ( #184, #243, #68, #69 ) ) ;
#12 = SECURITY_CLASSIFICATION_LEVEL ( 'unclassified' ) ;
#13 = EDGE_LOOP ( 'NONE', ( #31, #196, #182, #245 ) ) ;
#14 = COORDINATED_UNIVERSAL_TIME_OFFSET ( 1, 0, .AHEAD. ) ;
#15 = AXIS2_PLACEMENT_3D ( 'NONE', #116, #193, #152 ) ;
#16 = ORIENTED_EDGE ( 'NONE', *, *, #57, .F. ) ;
#17 = ORIENTED_EDGE ( 'NONE', *, *, #181, .F. ) ;
#18 = CC_DESIGN_DATE_AND_TIME_ASSIGNMENT ( #139, #158, ( #3 ) ) ;
#19 = ORIENTED_EDGE ( 'NONE', *, *, #153, .T. ) ;
#20 = CARTESIAN_POINT ( 'NONE',  ( 0.000000000000000000, 4.000000000000000000, 0.000000000000000000 ) ) ;
#21 = CC_DESIGN_APPROVAL ( #40, ( #229 ) ) ;
#22 = VECTOR ( 'NONE', #118, 1000.000000000000000 ) ;
#23 = CC_DESIGN_PERSON_AND_ORGANIZATION_ASSIGNMENT ( #103, #239, ( #189 ) ) ;
#24 = CC_DESIGN_DATE_AND_TIME_ASSIGNMENT ( #142, #198, ( #229 ) ) ;
#25 = LINE ( 'NONE', #174, #2 ) ;
#26 = PLANE ( 'NONE',  #61 ) ;
#27 = APPLICATION_CONTEXT ( 'configuration controlled 3d designs of mechanical parts and assemblies' ) ;
#28 = FACE_BOUND ( 'NONE', #138, .T. ) ;
#29 = ORIENTED_EDGE ( 'NONE', *, *, #202, .F. ) ;
#30 = APPROVAL_STATUS ( 'not_yet_approved' ) ;
#31 = ORIENTED_EDGE ( 'NONE', *, *, #181, .T. ) ;
#32 = CALENDAR_DATE ( 2024, 6, 8 ) ;
#33 = CARTESIAN_POINT ( 'NONE',  ( 0.000000000000000000, 0.000000000000000000, 0.000000000000000000 ) ) ;
#34 = DIRECTION ( 'NONE',  ( 0.000000000000000000, 0.000000000000000000, 1.000000000000000000 ) ) ;
#35 = ADVANCED_FACE ( 'NONE', ( #83 ), #163, .F. ) ;
#36 =( LENGTH_UNIT ( ) NAMED_UNIT ( * ) SI_UNIT ( .MILLI., .METRE. ) );
#37 = DIRECTION ( 'NONE',  ( 0.000000000000000000, 1.000000000000000000, 0.000000000000000000 ) ) ;
#38 = CYLINDRICAL_SURFACE ( 'NONE', #206, 103.2500000000000000 ) ;
#39 = EDGE_LOOP ( 'NONE', ( #199, #208, #19, #177 ) ) ;
#40 = APPROVAL ( #30, 'UNSPECIFIED' ) ;
#41 = COORDINATED_UNIVERSAL_TIME_OFFSET ( 1, 0, .AHEAD. ) ;
#42 = FACE_OUTER_BOUND ( 'NONE', #11, .T. ) ;
#43 = CIRCLE ( 'NONE', #204, 53.25000000000000000 ) ;
#44 = PLANE ( 'NONE',  #15 ) ;
#45 = AXIS2_PLACEMENT_3D ( 'NONE', #215, #212, #62 ) ;
#46 = DIRECTION ( 'NONE',  ( -0.000000000000000000, -1.000000000000000000, -0.000000000000000000 ) ) ;
#47 = CARTESIAN_POINT ( 'NONE',  ( 0.000000000000000000, 4.000000000000000000, 0.000000000000000000 ) ) ;
#48 = PERSON_AND_ORGANIZATION ( #134, #168 ) ;
#49 = CC_DESIGN_PERSON_AND_ORGANIZATION_ASSIGNMENT ( #228, #131, ( #151 ) ) ;
#50 = ORIENTED_EDGE ( 'NONE', *, *, #117, .T. ) ;
#51 = CALENDAR_DATE ( 2024, 6, 8 ) ;
#52 = DIRECTION ( 'NONE',  ( -0.000000000000000000, -1.000000000000000000, -0.000000000000000000 ) ) ;
#53 = CARTESIAN_POINT ( 'NONE',  ( 0.000000000000000000, 4.000000000000000000, 0.000000000000000000 ) ) ;
#54 = LINE ( 'NONE', #155, #123 ) ;
#55 = AXIS2_PLACEMENT_3D ( 'NONE', #82, #159, #96 ) ;
#56 = AXIS2_PLACEMENT_3D ( 'NONE', #191, #172, #5 ) ;
#57 = EDGE_CURVE ( 'NONE', #226, #201, #43, .T. ) ;
#58 = APPROVAL_STATUS ( 'not_yet_approved' ) ;
#59 = CYLINDRICAL_SURFACE ( 'NONE', #148, 53.25000000000000000 ) ;
#60 = CARTESIAN_POINT ( 'NONE',  ( 6.521244205459656106E-15, 0.000000000000000000, 53.25000000000000000 ) ) ;
#61 = AXIS2_PLACEMENT_3D ( 'NONE', #10, #140, #133 ) ;
#62 = DIRECTION ( 'NONE',  ( 0.000000000000000000, 0.000000000000000000, 1.000000000000000000 ) ) ;
#63 = EDGE_CURVE ( 'NONE', #90, #175, #167, .T. ) ;
#64 = PERSON_AND_ORGANIZATION_ROLE ( 'design_supplier' ) ;
#65 = FACE_BOUND ( 'NONE', #220, .T. ) ;
#66 = COORDINATED_UNIVERSAL_TIME_OFFSET ( 1, 0, .AHEAD. ) ;
#67 = ORIENTED_EDGE ( 'NONE', *, *, #63, .T. ) ;
#68 = ORIENTED_EDGE ( 'NONE', *, *, #86, .T. ) ;
#69 = ORIENTED_EDGE ( 'NONE', *, *, #117, .F. ) ;
#70 = ORIENTED_EDGE ( 'NONE', *, *, #202, .T. ) ;
#71 = PERSON_AND_ORGANIZATION_ROLE ( 'creator' ) ;
#72 = EDGE_CURVE ( 'NONE', #102, #147, #105, .T. ) ;
#73 = CIRCLE ( 'NONE', #213, 103.2500000000000000 ) ;
#74 = CC_DESIGN_SECURITY_CLASSIFICATION ( #229, ( #189 ) ) ;
#75 = DATE_AND_TIME ( #190, #157 ) ;
#76 = UNCERTAINTY_MEASURE_WITH_UNIT (LENGTH_MEASURE( 1.000000000000000082E-05 ), #36, 'distance_accuracy_value', 'NONE');
#77 = DIRECTION ( 'NONE',  ( -0.000000000000000000, -1.000000000000000000, -0.000000000000000000 ) ) ;
#78 = ADVANCED_BREP_SHAPE_REPRESENTATION ( '3D_R245_104_17386330', ( #115, #227 ), #192 ) ;
#79 = CARTESIAN_POINT ( 'NONE',  ( 0.000000000000000000, 4.000000000000000000, -103.2500000000000000 ) ) ;
#80 = CARTESIAN_POINT ( 'NONE',  ( 0.000000000000000000, 4.000000000000000000, 0.000000000000000000 ) ) ;
#81 = DATE_AND_TIME ( #51, #143 ) ;
#82 = CARTESIAN_POINT ( 'NONE',  ( 0.000000000000000000, 0.000000000000000000, 0.000000000000000000 ) ) ;
#83 = FACE_OUTER_BOUND ( 'NONE', #13, .T. ) ;
#84 = COORDINATED_UNIVERSAL_TIME_OFFSET ( 1, 0, .AHEAD. ) ;
#85 = ORIENTED_EDGE ( 'NONE', *, *, #86, .F. ) ;
#86 = EDGE_CURVE ( 'NONE', #164, #247, #111, .T. ) ;
#87 = ORIENTED_EDGE ( 'NONE', *, *, #188, .T. ) ;
#88 = CARTESIAN_POINT ( 'NONE',  ( 0.000000000000000000, 4.000000000000000000, 0.000000000000000000 ) ) ;
#89 = CALENDAR_DATE ( 2024, 6, 8 ) ;
#90 = VERTEX_POINT ( 'NONE', #144 ) ;
#91 = LOCAL_TIME ( 11, 41, 5.000000000000000000, #66 ) ;
#92 = AXIS2_PLACEMENT_3D ( 'NONE', #160, #121, #34 ) ;
#93 = CC_DESIGN_APPROVAL ( #214, ( #3 ) ) ;
#94 = APPLICATION_PROTOCOL_DEFINITION ( 'international standard', 'config_control_design', 1994, #130 ) ;
#95 = PRODUCT_DEFINITION_SHAPE ( 'NONE', 'NONE',  #3 ) ;
#96 = DIRECTION ( 'NONE',  ( 0.000000000000000000, 0.000000000000000000, 1.000000000000000000 ) ) ;
#97 = EDGE_CURVE ( 'NONE', #175, #90, #233, .T. ) ;
#98 = DIRECTION ( 'NONE',  ( 0.000000000000000000, 0.000000000000000000, 1.000000000000000000 ) ) ;
#99 = DIRECTION ( 'NONE',  ( 0.000000000000000000, 0.000000000000000000, -1.000000000000000000 ) ) ;
#100 = DIRECTION ( 'NONE',  ( 0.000000000000000000, 1.000000000000000000, 0.000000000000000000 ) ) ;
#101 = DATE_AND_TIME ( #32, #166 ) ;
#102 = VERTEX_POINT ( 'NONE', #179 ) ;
#103 = PERSON_AND_ORGANIZATION ( #134, #168 ) ;
#104 = DIRECTION ( 'NONE',  ( 0.000000000000000000, 0.000000000000000000, 1.000000000000000000 ) ) ;
#105 = CIRCLE ( 'NONE', #180, 103.2500000000000000 ) ;
#106 = DIRECTION ( 'NONE',  ( 0.000000000000000000, 1.000000000000000000, 0.000000000000000000 ) ) ;
#107 = CIRCLE ( 'NONE', #55, 103.2500000000000000 ) ;
#108 = EDGE_LOOP ( 'NONE', ( #241, #238, #50, #70 ) ) ;
#109 = DIRECTION ( 'NONE',  ( -0.000000000000000000, -1.000000000000000000, -0.000000000000000000 ) ) ;
#110 = EDGE_CURVE ( 'NONE', #226, #175, #54, .T. ) ;
#111 = CIRCLE ( 'NONE', #8, 103.2500000000000000 ) ;
#112 = CARTESIAN_POINT ( 'NONE',  ( 0.000000000000000000, 0.000000000000000000, 0.000000000000000000 ) ) ;
#113 = CYLINDRICAL_SURFACE ( 'NONE', #56, 103.2500000000000000 ) ;
#114 = AXIS2_PLACEMENT_3D ( 'NONE', #33, #223, #104 ) ;
#115 = MANIFOLD_SOLID_BREP ( 'Aufsatz-Linear austragen1', #156 ) ;
#116 = CARTESIAN_POINT ( 'NONE',  ( 0.000000000000000000, 0.000000000000000000, 0.000000000000000000 ) ) ;
#117 = EDGE_CURVE ( 'NONE', #102, #247, #240, .T. ) ;
#118 = DIRECTION ( 'NONE',  ( -0.000000000000000000, -1.000000000000000000, -0.000000000000000000 ) ) ;
#119 = PERSON_AND_ORGANIZATION_ROLE ( 'classification_officer' ) ;
#120 = APPROVAL_ROLE ( '' ) ;
#121 = DIRECTION ( 'NONE',  ( 0.000000000000000000, 1.000000000000000000, 0.000000000000000000 ) ) ;
#122 = DIRECTION ( 'NONE',  ( 0.000000000000000000, 0.000000000000000000, 1.000000000000000000 ) ) ;
#123 = VECTOR ( 'NONE', #195, 1000.000000000000000 ) ;
#124 = PERSON_AND_ORGANIZATION ( #134, #168 ) ;
#125 = DIRECTION ( 'NONE',  ( -0.000000000000000000, -1.000000000000000000, -0.000000000000000000 ) ) ;
#126 = APPROVAL ( #217, 'UNSPECIFIED' ) ;
#127 = APPROVAL_PERSON_ORGANIZATION ( #4, #214, #170 ) ;
#128 = FACE_OUTER_BOUND ( 'NONE', #108, .T. ) ;
#129 = ADVANCED_FACE ( 'NONE', ( #211, #65 ), #44, .F. ) ;
#130 = APPLICATION_CONTEXT ( 'configuration controlled 3d designs of mechanical parts and assemblies' ) ;
#131 = PERSON_AND_ORGANIZATION_ROLE ( 'design_owner' ) ;
#132 = DIRECTION ( 'NONE',  ( 0.000000000000000000, 0.000000000000000000, 1.000000000000000000 ) ) ;
#133 = DIRECTION ( 'NONE',  ( 0.000000000000000000, -0.000000000000000000, 1.000000000000000000 ) ) ;
#134 = PERSON ( 'UNSPECIFIED', 'UNSPECIFIED', 'UNSPECIFIED', ('UNSPECIFIED'), ('UNSPECIFIED'), ('UNSPECIFIED') ) ;
#135 = FACE_OUTER_BOUND ( 'NONE', #39, .T. ) ;
#136 = AXIS2_PLACEMENT_3D ( 'NONE', #53, #52, #205 ) ;
#137 = DIRECTION ( 'NONE',  ( 0.000000000000000000, 1.000000000000000000, 0.000000000000000000 ) ) ;
#138 = EDGE_LOOP ( 'NONE', ( #17, #16 ) ) ;
#139 = DATE_AND_TIME ( #89, #236 ) ;
#140 = DIRECTION ( 'NONE',  ( 0.000000000000000000, 1.000000000000000000, 0.000000000000000000 ) ) ;
#141 = DIRECTION ( 'NONE',  ( 0.000000000000000000, 0.000000000000000000, 1.000000000000000000 ) ) ;
#142 = DATE_AND_TIME ( #242, #91 ) ;
#143 = LOCAL_TIME ( 11, 41, 5.000000000000000000, #84 ) ;
#144 = CARTESIAN_POINT ( 'NONE',  ( 0.000000000000000000, 0.000000000000000000, -53.25000000000000000 ) ) ;
#145 = LINE ( 'NONE', #221, #224 ) ;
#146 = ORIENTED_EDGE ( 'NONE', *, *, #72, .T. ) ;
#147 = VERTEX_POINT ( 'NONE', #234 ) ;
#148 = AXIS2_PLACEMENT_3D ( 'NONE', #80, #46, #99 ) ;
#149 = CC_DESIGN_PERSON_AND_ORGANIZATION_ASSIGNMENT ( #124, #71, ( #3 ) ) ;
#150 = MECHANICAL_CONTEXT ( 'NONE', #27, 'mechanical' ) ;
#151 = PRODUCT ( '3D_R245_104_17386330', '3D_R245_104_17386330', '', ( #150 ) ) ;
#152 = DIRECTION ( 'NONE',  ( 0.000000000000000000, -0.000000000000000000, 1.000000000000000000 ) ) ;
#153 = EDGE_CURVE ( 'NONE', #201, #90, #25, .T. ) ;
#154 = CARTESIAN_POINT ( 'NONE',  ( 0.000000000000000000, 4.000000000000000000, -53.25000000000000000 ) ) ;
#155 = CARTESIAN_POINT ( 'NONE',  ( 6.521244205459656106E-15, 4.000000000000000000, 53.25000000000000000 ) ) ;
#156 = CLOSED_SHELL ( 'NONE', ( #35, #235, #169, #129, #248, #194 ) ) ;
#157 = LOCAL_TIME ( 11, 41, 5.000000000000000000, #41 ) ;
#158 = DATE_TIME_ROLE ( 'creation_date' ) ;
#159 = DIRECTION ( 'NONE',  ( 0.000000000000000000, 1.000000000000000000, 0.000000000000000000 ) ) ;
#160 = CARTESIAN_POINT ( 'NONE',  ( 0.000000000000000000, 0.000000000000000000, 0.000000000000000000 ) ) ;
#161 = PRODUCT_RELATED_PRODUCT_CATEGORY ( 'detail', '', ( #151 ) ) ;
#162 = APPROVAL_ROLE ( '' ) ;
#163 = CYLINDRICAL_SURFACE ( 'NONE', #136, 53.25000000000000000 ) ;
#164 = VERTEX_POINT ( 'NONE', #173 ) ;
#165 = CARTESIAN_POINT ( 'NONE',  ( 0.000000000000000000, 0.000000000000000000, 0.000000000000000000 ) ) ;
#166 = LOCAL_TIME ( 11, 41, 5.000000000000000000, #14 ) ;
#167 = CIRCLE ( 'NONE', #92, 53.25000000000000000 ) ;
#168 = ORGANIZATION ( 'UNSPECIFIED', 'UNSPECIFIED', '' ) ;
#169 = ADVANCED_FACE ( 'NONE', ( #7, #28 ), #26, .T. ) ;
#170 = APPROVAL_ROLE ( '' ) ;
#171 = DESIGN_CONTEXT ( 'detailed design', #130, 'design' ) ;
#172 = DIRECTION ( 'NONE',  ( -0.000000000000000000, -1.000000000000000000, -0.000000000000000000 ) ) ;
#173 = CARTESIAN_POINT ( 'NONE',  ( 1.264447820119642140E-14, 0.000000000000000000, 103.2500000000000000 ) ) ;
#174 = CARTESIAN_POINT ( 'NONE',  ( 0.000000000000000000, 4.000000000000000000, -53.25000000000000000 ) ) ;
#175 = VERTEX_POINT ( 'NONE', #60 ) ;
#176 = APPROVAL_DATE_TIME ( #81, #126 ) ;
#177 = ORIENTED_EDGE ( 'NONE', *, *, #97, .F. ) ;
#178 = PERSON_AND_ORGANIZATION ( #134, #168 ) ;
#179 = CARTESIAN_POINT ( 'NONE',  ( 0.000000000000000000, 4.000000000000000000, -103.2500000000000000 ) ) ;
#180 = AXIS2_PLACEMENT_3D ( 'NONE', #88, #106, #141 ) ;
#181 = EDGE_CURVE ( 'NONE', #201, #226, #237, .T. ) ;
#182 = ORIENTED_EDGE ( 'NONE', *, *, #63, .F. ) ;
#183 = COORDINATED_UNIVERSAL_TIME_OFFSET ( 1, 0, .AHEAD. ) ;
#184 = ORIENTED_EDGE ( 'NONE', *, *, #188, .F. ) ;
#185 =( NAMED_UNIT ( * ) PLANE_ANGLE_UNIT ( ) SI_UNIT ( $, .RADIAN. ) );
#186 = APPROVAL_PERSON_ORGANIZATION ( #200, #126, #162 ) ;
#187 = SHAPE_DEFINITION_REPRESENTATION ( #95, #78 ) ;
#188 = EDGE_CURVE ( 'NONE', #147, #102, #73, .T. ) ;
#189 = PRODUCT_DEFINITION_FORMATION_WITH_SPECIFIED_SOURCE ( 'ANY', '', #151, .NOT_KNOWN. ) ;
#190 = CALENDAR_DATE ( 2024, 6, 8 ) ;
#191 = CARTESIAN_POINT ( 'NONE',  ( 0.000000000000000000, 4.000000000000000000, 0.000000000000000000 ) ) ;
#192 =( GEOMETRIC_REPRESENTATION_CONTEXT ( 3 ) GLOBAL_UNCERTAINTY_ASSIGNED_CONTEXT ( ( #76 ) ) GLOBAL_UNIT_ASSIGNED_CONTEXT ( ( #36, #185, #225 ) ) REPRESENTATION_CONTEXT ( 'NONE', 'WORKASPACE' ) );
#193 = DIRECTION ( 'NONE',  ( 0.000000000000000000, 1.000000000000000000, 0.000000000000000000 ) ) ;
#194 = ADVANCED_FACE ( 'NONE', ( #135 ), #59, .F. ) ;
#195 = DIRECTION ( 'NONE',  ( -0.000000000000000000, -1.000000000000000000, -0.000000000000000000 ) ) ;
#196 = ORIENTED_EDGE ( 'NONE', *, *, #110, .T. ) ;
#197 = CC_DESIGN_APPROVAL ( #126, ( #189 ) ) ;
#198 = DATE_TIME_ROLE ( 'classification_date' ) ;
#199 = ORIENTED_EDGE ( 'NONE', *, *, #110, .F. ) ;
#200 = PERSON_AND_ORGANIZATION ( #134, #168 ) ;
#201 = VERTEX_POINT ( 'NONE', #154 ) ;
#202 = EDGE_CURVE ( 'NONE', #247, #164, #107, .T. ) ;
#203 = EDGE_LOOP ( 'NONE', ( #146, #87 ) ) ;
#204 = AXIS2_PLACEMENT_3D ( 'NONE', #47, #100, #122 ) ;
#205 = DIRECTION ( 'NONE',  ( 0.000000000000000000, 0.000000000000000000, -1.000000000000000000 ) ) ;
#206 = AXIS2_PLACEMENT_3D ( 'NONE', #20, #109, #222 ) ;
#207 = CC_DESIGN_PERSON_AND_ORGANIZATION_ASSIGNMENT ( #48, #119, ( #229 ) ) ;
#208 = ORIENTED_EDGE ( 'NONE', *, *, #57, .T. ) ;
#209 = APPLICATION_PROTOCOL_DEFINITION ( 'international standard', 'config_control_design', 1994, #27 ) ;
#210 = CARTESIAN_POINT ( 'NONE',  ( 6.521244205459656106E-15, 4.000000000000000000, 53.25000000000000000 ) ) ;
#211 = FACE_OUTER_BOUND ( 'NONE', #218, .T. ) ;
#212 = DIRECTION ( 'NONE',  ( 0.000000000000000000, 1.000000000000000000, 0.000000000000000000 ) ) ;
#213 = AXIS2_PLACEMENT_3D ( 'NONE', #231, #137, #98 ) ;
#214 = APPROVAL ( #58, 'UNSPECIFIED' ) ;
#215 = CARTESIAN_POINT ( 'NONE',  ( 0.000000000000000000, 4.000000000000000000, 0.000000000000000000 ) ) ;
#216 = ORIENTED_EDGE ( 'NONE', *, *, #97, .T. ) ;
#217 = APPROVAL_STATUS ( 'not_yet_approved' ) ;
#218 = EDGE_LOOP ( 'NONE', ( #29, #85 ) ) ;
#219 = PERSON_AND_ORGANIZATION ( #134, #168 ) ;
#220 = EDGE_LOOP ( 'NONE', ( #67, #216 ) ) ;
#221 = CARTESIAN_POINT ( 'NONE',  ( 1.264447820119642140E-14, 4.000000000000000000, 103.2500000000000000 ) ) ;
#222 = DIRECTION ( 'NONE',  ( 0.000000000000000000, 0.000000000000000000, -1.000000000000000000 ) ) ;
#223 = DIRECTION ( 'NONE',  ( 0.000000000000000000, 1.000000000000000000, 0.000000000000000000 ) ) ;
#224 = VECTOR ( 'NONE', #125, 1000.000000000000000 ) ;
#225 =( NAMED_UNIT ( * ) SI_UNIT ( $, .STERADIAN. ) SOLID_ANGLE_UNIT ( ) );
#226 = VERTEX_POINT ( 'NONE', #210 ) ;
#227 = AXIS2_PLACEMENT_3D ( 'NONE', #112, #132, #230 ) ;
#228 = PERSON_AND_ORGANIZATION ( #134, #168 ) ;
#229 = SECURITY_CLASSIFICATION ( '', '', #12 ) ;
#230 = DIRECTION ( 'NONE',  ( 1.000000000000000000, 0.000000000000000000, 0.000000000000000000 ) ) ;
#231 = CARTESIAN_POINT ( 'NONE',  ( 0.000000000000000000, 4.000000000000000000, 0.000000000000000000 ) ) ;
#232 = CARTESIAN_POINT ( 'NONE',  ( 0.000000000000000000, 0.000000000000000000, -103.2500000000000000 ) ) ;
#233 = CIRCLE ( 'NONE', #114, 53.25000000000000000 ) ;
#234 = CARTESIAN_POINT ( 'NONE',  ( 1.264447820119642140E-14, 4.000000000000000000, 103.2500000000000000 ) ) ;
#235 = ADVANCED_FACE ( 'NONE', ( #42 ), #113, .T. ) ;
#236 = LOCAL_TIME ( 11, 41, 5.000000000000000000, #183 ) ;
#237 = CIRCLE ( 'NONE', #45, 53.25000000000000000 ) ;
#238 = ORIENTED_EDGE ( 'NONE', *, *, #72, .F. ) ;
#239 = PERSON_AND_ORGANIZATION_ROLE ( 'creator' ) ;
#240 = LINE ( 'NONE', #79, #22 ) ;
#241 = ORIENTED_EDGE ( 'NONE', *, *, #6, .F. ) ;
#242 = CALENDAR_DATE ( 2024, 6, 8 ) ;
#243 = ORIENTED_EDGE ( 'NONE', *, *, #6, .T. ) ;
#244 = APPROVAL_PERSON_ORGANIZATION ( #219, #40, #120 ) ;
#245 = ORIENTED_EDGE ( 'NONE', *, *, #153, .F. ) ;
#246 = DIRECTION ( 'NONE',  ( 0.000000000000000000, 0.000000000000000000, 1.000000000000000000 ) ) ;
#247 = VERTEX_POINT ( 'NONE', #232 ) ;
#248 = ADVANCED_FACE ( 'NONE', ( #128 ), #38, .T. ) ;
#249 = APPROVAL_DATE_TIME ( #75, #214 ) ;
ENDSEC;
END-ISO-10303-21;
