ISO-10303-21;
HEADER;
FILE_DESCRIPTION (( 'STEP AP203' ),
    '1' );
FILE_NAME ('19-0402-56_outokumpu.step',
    '2015-08-11T09:31:52',
    ( '' ),
    ( '' ),
    'SwSTEP 2.0',
    'SolidWorks 2008',
    '' );
FILE_SCHEMA (( 'CONFIG_CONTROL_DESIGN' ));
ENDSEC;

DATA;
#1 = ADVANCED_FACE ( 'NONE', ( #126 ), #181, .T. ) ;
#2 = EDGE_LOOP ( 'NONE', ( #3, #4, #5, #98 ) ) ;
#3 = ORIENTED_EDGE ( 'NONE', *, *, #41, .F. ) ;
#4 = ORIENTED_EDGE ( 'NONE', *, *, #80, .T. ) ;
#5 = ORIENTED_EDGE ( 'NONE', *, *, #111, .T. ) ;
#6 = EDGE_CURVE ( 'NONE', #28, #14, #209, .T. ) ;
#7 = ORIENTED_EDGE ( 'NONE', *, *, #8, .F. ) ;
#8 = EDGE_CURVE ( 'NONE', #9, #10, #287, .T. ) ;
#9 = VERTEX_POINT ( 'NONE', #288 ) ;
#10 = VERTEX_POINT ( 'NONE', #125 ) ;
#11 = EDGE_CURVE ( 'NONE', #17, #28, #124, .T. ) ;
#12 = ORIENTED_EDGE ( 'NONE', *, *, #13, .F. ) ;
#13 = EDGE_CURVE ( 'NONE', #14, #28, #120, .T. ) ;
#14 = VERTEX_POINT ( 'NONE', #234 ) ;
#15 = EDGE_CURVE ( 'NONE', #16, #17, #119, .T. ) ;
#16 = VERTEX_POINT ( 'NONE', #114 ) ;
#17 = VERTEX_POINT ( 'NONE', #113 ) ;
#18 = MANIFOLD_SOLID_BREP ( 'NONE', #106 ) ;
#19 = ORIENTED_EDGE ( 'NONE', *, *, #21, .F. ) ;
#20 = VERTEX_POINT ( 'NONE', #204 ) ;
#21 = EDGE_CURVE ( 'NONE', #20, #14, #203, .T. ) ;
#22 = ORIENTED_EDGE ( 'NONE', *, *, #34, .T. ) ;
#23 = ORIENTED_EDGE ( 'NONE', *, *, #24, .T. ) ;
#24 = EDGE_CURVE ( 'NONE', #25, #26, #199, .T. ) ;
#25 = VERTEX_POINT ( 'NONE', #194 ) ;
#26 = VERTEX_POINT ( 'NONE', #193 ) ;
#27 = ORIENTED_EDGE ( 'NONE', *, *, #11, .T. ) ;
#28 = VERTEX_POINT ( 'NONE', #192 ) ;
#29 = ADVANCED_FACE ( 'NONE', ( #191 ), #189, .F. ) ;
#30 = EDGE_LOOP ( 'NONE', ( #47, #27, #12, #19, #22 ) ) ;
#31 = ORIENTED_EDGE ( 'NONE', *, *, #32, .T. ) ;
#32 = EDGE_CURVE ( 'NONE', #39, #33, #157, .T. ) ;
#33 = VERTEX_POINT ( 'NONE', #152 ) ;
#34 = EDGE_CURVE ( 'NONE', #20, #16, #150, .T. ) ;
#35 = ADVANCED_FACE ( 'NONE', ( #151 ), #144, .F. ) ;
#36 = EDGE_LOOP ( 'NONE', ( #7, #37, #31, #48, #51 ) ) ;
#37 = ORIENTED_EDGE ( 'NONE', *, *, #38, .T. ) ;
#38 = EDGE_CURVE ( 'NONE', #9, #39, #140, .T. ) ;
#39 = VERTEX_POINT ( 'NONE', #136 ) ;
#40 = ORIENTED_EDGE ( 'NONE', *, *, #41, .T. ) ;
#41 = EDGE_CURVE ( 'NONE', #26, #42, #135, .T. ) ;
#42 = VERTEX_POINT ( 'NONE', #131 ) ;
#43 = ORIENTED_EDGE ( 'NONE', *, *, #44, .F. ) ;
#44 = EDGE_CURVE ( 'NONE', #45, #42, #130, .T. ) ;
#45 = VERTEX_POINT ( 'NONE', #257 ) ;
#46 = ORIENTED_EDGE ( 'NONE', *, *, #111, .F. ) ;
#47 = ORIENTED_EDGE ( 'NONE', *, *, #15, .T. ) ;
#48 = ORIENTED_EDGE ( 'NONE', *, *, #49, .F. ) ;
#49 = EDGE_CURVE ( 'NONE', #50, #33, #256, .T. ) ;
#50 = VERTEX_POINT ( 'NONE', #252 ) ;
#51 = ORIENTED_EDGE ( 'NONE', *, *, #52, .F. ) ;
#52 = EDGE_CURVE ( 'NONE', #10, #50, #251, .T. ) ;
#53 = ADVANCED_FACE ( 'NONE', ( #246 ), #245, .T. ) ;
#54 = EDGE_LOOP ( 'NONE', ( #23, #40, #43, #46 ) ) ;
#55 = EDGE_LOOP ( 'NONE', ( #57, #97 ) ) ;
#56 = ADVANCED_FACE ( 'NONE', ( #244, #243 ), #228, .F. ) ;
#57 = ORIENTED_EDGE ( 'NONE', *, *, #24, .F. ) ;
#58 = ORIENTED_EDGE ( 'NONE', *, *, #73, .T. ) ;
#59 = ORIENTED_EDGE ( 'NONE', *, *, #60, .F. ) ;
#60 = EDGE_CURVE ( 'NONE', #17, #71, #222, .T. ) ;
#61 = ORIENTED_EDGE ( 'NONE', *, *, #15, .F. ) ;
#62 = EDGE_CURVE ( 'NONE', #50, #76, #178, .T. ) ;
#63 = ORIENTED_EDGE ( 'NONE', *, *, #62, .T. ) ;
#64 = ORIENTED_EDGE ( 'NONE', *, *, #34, .F. ) ;
#65 = ORIENTED_EDGE ( 'NONE', *, *, #67, .F. ) ;
#66 = ORIENTED_EDGE ( 'NONE', *, *, #110, .F. ) ;
#67 = EDGE_CURVE ( 'NONE', #71, #20, #173, .T. ) ;
#68 = ORIENTED_EDGE ( 'NONE', *, *, #73, .F. ) ;
#69 = ADVANCED_FACE ( 'NONE', ( #168 ), #167, .F. ) ;
#70 = EDGE_LOOP ( 'NONE', ( #66, #72, #63, #58, #59, #61 ) ) ;
#71 = VERTEX_POINT ( 'NONE', #166 ) ;
#72 = ORIENTED_EDGE ( 'NONE', *, *, #52, .T. ) ;
#73 = EDGE_CURVE ( 'NONE', #76, #71, #161, .T. ) ;
#74 = ORIENTED_EDGE ( 'NONE', *, *, #110, .T. ) ;
#75 = EDGE_CURVE ( 'NONE', #76, #9, #308, .T. ) ;
#76 = VERTEX_POINT ( 'NONE', #303 ) ;
#77 = ORIENTED_EDGE ( 'NONE', *, *, #8, .T. ) ;
#78 = ORIENTED_EDGE ( 'NONE', *, *, #75, .T. ) ;
#79 = EDGE_LOOP ( 'NONE', ( #85, #86, #87, #104, #105 ) ) ;
#80 = EDGE_CURVE ( 'NONE', #26, #25, #302, .T. ) ;
#81 = ORIENTED_EDGE ( 'NONE', *, *, #6, .T. ) ;
#82 = EDGE_LOOP ( 'NONE', ( #93, #94 ) ) ;
#83 = ORIENTED_EDGE ( 'NONE', *, *, #88, .T. ) ;
#84 = ADVANCED_FACE ( 'NONE', ( #297 ), #296, .F. ) ;
#85 = ORIENTED_EDGE ( 'NONE', *, *, #11, .F. ) ;
#86 = ORIENTED_EDGE ( 'NONE', *, *, #60, .T. ) ;
#87 = ORIENTED_EDGE ( 'NONE', *, *, #67, .T. ) ;
#88 = EDGE_CURVE ( 'NONE', #33, #39, #291, .T. ) ;
#89 = ORIENTED_EDGE ( 'NONE', *, *, #32, .F. ) ;
#90 = ORIENTED_EDGE ( 'NONE', *, *, #38, .F. ) ;
#91 = ORIENTED_EDGE ( 'NONE', *, *, #75, .F. ) ;
#92 = ADVANCED_FACE ( 'NONE', ( #218, #217 ), #216, .F. ) ;
#93 = ORIENTED_EDGE ( 'NONE', *, *, #44, .T. ) ;
#94 = ORIENTED_EDGE ( 'NONE', *, *, #101, .T. ) ;
#95 = ORIENTED_EDGE ( 'NONE', *, *, #13, .T. ) ;
#96 = EDGE_LOOP ( 'NONE', ( #95, #81 ) ) ;
#97 = ORIENTED_EDGE ( 'NONE', *, *, #80, .F. ) ;
#98 = ORIENTED_EDGE ( 'NONE', *, *, #101, .F. ) ;
#99 = ADVANCED_FACE ( 'NONE', ( #214 ), #210, .F. ) ;
#100 = EDGE_LOOP ( 'NONE', ( #90, #91, #107, #108, #83 ) ) ;
#101 = EDGE_CURVE ( 'NONE', #42, #45, #275, .T. ) ;
#102 = EDGE_LOOP ( 'NONE', ( #103, #89 ) ) ;
#103 = ORIENTED_EDGE ( 'NONE', *, *, #88, .F. ) ;
#104 = ORIENTED_EDGE ( 'NONE', *, *, #21, .T. ) ;
#105 = ORIENTED_EDGE ( 'NONE', *, *, #6, .F. ) ;
#106 = CLOSED_SHELL ( 'NONE', ( #29, #35, #53, #109, #69, #56, #92, #1, #99, #84 ) ) ;
#107 = ORIENTED_EDGE ( 'NONE', *, *, #62, .F. ) ;
#108 = ORIENTED_EDGE ( 'NONE', *, *, #49, .T. ) ;
#109 = ADVANCED_FACE ( 'NONE', ( #270 ), #269, .F. ) ;
#110 = EDGE_CURVE ( 'NONE', #10, #16, #264, .T. ) ;
#111 = EDGE_CURVE ( 'NONE', #25, #45, #233, .T. ) ;
#112 = EDGE_LOOP ( 'NONE', ( #78, #77, #74, #64, #65, #68 ) ) ;
#113 = CARTESIAN_POINT ( 'NONE',  ( 16.62450000000000100, 2.071393501898324800E-015, -59.41945966758442700 ) ) ;
#114 = CARTESIAN_POINT ( 'NONE',  ( 2.035846832912012100E-015, -16.62450000000000100, -59.41945966758442700 ) ) ;
#115 = DIRECTION ( 'NONE',  ( 1.000000000000000000, 0.0000000000000000000, 0.0000000000000000000 ) ) ;
#116 = DIRECTION ( 'NONE',  ( -0.0000000000000000000, -0.0000000000000000000, 1.000000000000000000 ) ) ;
#117 = CARTESIAN_POINT ( 'NONE',  ( 0.0000000000000000000, 0.0000000000000000000, -59.41945966758442700 ) ) ;
#118 = AXIS2_PLACEMENT_3D ( 'NONE', #117, #116, #115 ) ;
#119 = CIRCLE ( 'NONE', #118, 16.62450000000000100 ) ;
#120 = CIRCLE ( 'NONE', #238, 17.20504033241557800 ) ;
#121 = DIRECTION ( 'NONE',  ( 0.7071067811865517900, 8.659274570719408400E-017, -0.7071067811865433500 ) ) ;
#122 = VECTOR ( 'NONE', #121, 1000.000000000000000 ) ;
#123 = CARTESIAN_POINT ( 'NONE',  ( 17.20504033241557800, 2.106940170884638300E-015, -60.00000000000000000 ) ) ;
#124 = LINE ( 'NONE', #123, #122 ) ;
#125 = CARTESIAN_POINT ( 'NONE',  ( 2.035846832912012100E-015, -16.62450000000000100, -0.5805403324154406700 ) ) ;
#126 = FACE_OUTER_BOUND ( 'NONE', #2, .T. ) ;
#127 =( NAMED_UNIT ( * ) SI_UNIT ( $, .STERADIAN. ) SOLID_ANGLE_UNIT ( ) );
#128 =( NAMED_UNIT ( * ) PLANE_ANGLE_UNIT ( ) SI_UNIT ( $, .RADIAN. ) );
#129 = AXIS2_PLACEMENT_3D ( 'NONE', #260, #259, #258 ) ;
#130 = CIRCLE ( 'NONE', #129, 19.89999999999999900 ) ;
#131 = CARTESIAN_POINT ( 'NONE',  ( -19.89999999999999900, 2.436966644106530700E-015, 0.0000000000000000000 ) ) ;
#132 = DIRECTION ( 'NONE',  ( -0.0000000000000000000, -0.0000000000000000000, 1.000000000000000000 ) ) ;
#133 = VECTOR ( 'NONE', #132, 1000.000000000000000 ) ;
#134 = CARTESIAN_POINT ( 'NONE',  ( -19.90000000000000200, 2.436966644106531100E-015, -4.336808689942017700E-016 ) ) ;
#135 = LINE ( 'NONE', #134, #133 ) ;
#136 = CARTESIAN_POINT ( 'NONE',  ( -17.20504033241544700, 2.106940170884622500E-015, -3.304181524667523600E-019 ) ) ;
#137 = DIRECTION ( 'NONE',  ( -0.7071067811865512400, 8.659274570719401000E-017, 0.7071067811865439100 ) ) ;
#138 = VECTOR ( 'NONE', #137, 1000.000000000000000 ) ;
#139 = CARTESIAN_POINT ( 'NONE',  ( -16.62450000000000100, 2.035846832912011300E-015, -0.5805403324154406700 ) ) ;
#140 = LINE ( 'NONE', #139, #138 ) ;
#141 = DIRECTION ( 'NONE',  ( 1.000000000000000000, 0.0000000000000000000, 0.0000000000000000000 ) ) ;
#142 = DIRECTION ( 'NONE',  ( -0.0000000000000000000, -0.0000000000000000000, 1.000000000000000000 ) ) ;
#143 = AXIS2_PLACEMENT_3D ( 'NONE', #145, #142, #141 ) ;
#144 = CONICAL_SURFACE ( 'NONE', #143, 16.62450000000000100, 0.7853981633974535000 ) ;
#145 = CARTESIAN_POINT ( 'NONE',  ( 0.0000000000000000000, 0.0000000000000000000, -0.5805403324154406700 ) ) ;
#146 = DIRECTION ( 'NONE',  ( 1.000000000000000000, 0.0000000000000000000, 0.0000000000000000000 ) ) ;
#147 = DIRECTION ( 'NONE',  ( -0.0000000000000000000, -0.0000000000000000000, 1.000000000000000000 ) ) ;
#148 = CARTESIAN_POINT ( 'NONE',  ( 0.0000000000000000000, 0.0000000000000000000, -59.41945966758442700 ) ) ;
#149 = AXIS2_PLACEMENT_3D ( 'NONE', #148, #147, #146 ) ;
#150 = CIRCLE ( 'NONE', #149, 16.62450000000000100 ) ;
#151 = FACE_OUTER_BOUND ( 'NONE', #36, .T. ) ;
#152 = CARTESIAN_POINT ( 'NONE',  ( 17.20504033241544700, 0.0000000000000000000, -3.304181524667523600E-019 ) ) ;
#153 = DIRECTION ( 'NONE',  ( 1.000000000000000000, 0.0000000000000000000, 0.0000000000000000000 ) ) ;
#154 = DIRECTION ( 'NONE',  ( -0.0000000000000000000, -0.0000000000000000000, 1.000000000000000000 ) ) ;
#155 = CARTESIAN_POINT ( 'NONE',  ( 0.0000000000000000000, 0.0000000000000000000, -3.304181524667523600E-019 ) ) ;
#156 = AXIS2_PLACEMENT_3D ( 'NONE', #155, #154, #153 ) ;
#157 = CIRCLE ( 'NONE', #156, 17.20504033241544700 ) ;
#158 = DIRECTION ( 'NONE',  ( -0.0000000000000000000, 1.108921438289453500E-016, -1.000000000000000000 ) ) ;
#159 = VECTOR ( 'NONE', #158, 1000.000000000000000 ) ;
#160 = CARTESIAN_POINT ( 'NONE',  ( 0.0000000000000000000, 16.62450000000001200, -60.00000000000005700 ) ) ;
#161 = LINE ( 'NONE', #160, #159 ) ;
#162 = DIRECTION ( 'NONE',  ( 0.0000000000000000000, 1.000000000000000000, 0.0000000000000000000 ) ) ;
#163 = DIRECTION ( 'NONE',  ( -0.0000000000000000000, 1.108921438289453500E-016, -1.000000000000000000 ) ) ;
#164 = CARTESIAN_POINT ( 'NONE',  ( 0.0000000000000000000, 3.184081677783111500E-015, -60.00000000000005700 ) ) ;
#165 = AXIS2_PLACEMENT_3D ( 'NONE', #164, #163, #162 ) ;
#166 = CARTESIAN_POINT ( 'NONE',  ( 0.0000000000000000000, 16.62450000000000100, -59.41945966758442700 ) ) ;
#167 = CYLINDRICAL_SURFACE ( 'NONE', #165, 16.62450000000000800 ) ;
#168 = FACE_OUTER_BOUND ( 'NONE', #70, .T. ) ;
#169 = DIRECTION ( 'NONE',  ( 1.000000000000000000, 0.0000000000000000000, 0.0000000000000000000 ) ) ;
#170 = DIRECTION ( 'NONE',  ( -0.0000000000000000000, -0.0000000000000000000, 1.000000000000000000 ) ) ;
#171 = CARTESIAN_POINT ( 'NONE',  ( 0.0000000000000000000, 0.0000000000000000000, -59.41945966758442700 ) ) ;
#172 = AXIS2_PLACEMENT_3D ( 'NONE', #171, #170, #169 ) ;
#173 = CIRCLE ( 'NONE', #172, 16.62450000000000100 ) ;
#174 = DIRECTION ( 'NONE',  ( 1.000000000000000000, 0.0000000000000000000, 0.0000000000000000000 ) ) ;
#175 = DIRECTION ( 'NONE',  ( -0.0000000000000000000, -0.0000000000000000000, 1.000000000000000000 ) ) ;
#176 = CARTESIAN_POINT ( 'NONE',  ( 0.0000000000000000000, 0.0000000000000000000, -0.5805403324154406700 ) ) ;
#177 = AXIS2_PLACEMENT_3D ( 'NONE', #176, #175, #174 ) ;
#178 = CIRCLE ( 'NONE', #177, 16.62450000000000100 ) ;
#179 = DIRECTION ( 'NONE',  ( 1.000000000000000000, 0.0000000000000000000, 0.0000000000000000000 ) ) ;
#180 = DIRECTION ( 'NONE',  ( -0.0000000000000000000, -0.0000000000000000000, 1.000000000000000000 ) ) ;
#181 = CYLINDRICAL_SURFACE ( 'NONE', #206, 19.90000000000000200 ) ;
#182 = DIRECTION ( 'NONE',  ( 1.000000000000000000, 0.0000000000000000000, 0.0000000000000000000 ) ) ;
#183 = DIRECTION ( 'NONE',  ( -0.0000000000000000000, -0.0000000000000000000, 1.000000000000000000 ) ) ;
#184 = CARTESIAN_POINT ( 'NONE',  ( 0.0000000000000000000, 0.0000000000000000000, -60.00000000000000000 ) ) ;
#185 = AXIS2_PLACEMENT_3D ( 'NONE', #184, #183, #182 ) ;
#186 = DIRECTION ( 'NONE',  ( -1.000000000000000000, 0.0000000000000000000, 0.0000000000000000000 ) ) ;
#187 = DIRECTION ( 'NONE',  ( 0.0000000000000000000, 0.0000000000000000000, -1.000000000000000000 ) ) ;
#188 = AXIS2_PLACEMENT_3D ( 'NONE', #190, #187, #186 ) ;
#189 = CONICAL_SURFACE ( 'NONE', #188, 17.20504033241557800, 0.7853981633974542700 ) ;
#190 = CARTESIAN_POINT ( 'NONE',  ( 0.0000000000000000000, 0.0000000000000000000, -60.00000000000000000 ) ) ;
#191 = FACE_OUTER_BOUND ( 'NONE', #30, .T. ) ;
#192 = CARTESIAN_POINT ( 'NONE',  ( 17.20504033241557800, 2.106940170884638300E-015, -60.00000000000000000 ) ) ;
#193 = CARTESIAN_POINT ( 'NONE',  ( -19.90000000000000200, 2.436966644106531100E-015, -60.00000000000000000 ) ) ;
#194 = CARTESIAN_POINT ( 'NONE',  ( 19.90000000000000200, 0.0000000000000000000, -60.00000000000000000 ) ) ;
#195 = DIRECTION ( 'NONE',  ( 1.000000000000000000, 0.0000000000000000000, 0.0000000000000000000 ) ) ;
#196 = DIRECTION ( 'NONE',  ( -0.0000000000000000000, -0.0000000000000000000, 1.000000000000000000 ) ) ;
#197 = CARTESIAN_POINT ( 'NONE',  ( 0.0000000000000000000, 0.0000000000000000000, -60.00000000000000000 ) ) ;
#198 = AXIS2_PLACEMENT_3D ( 'NONE', #197, #196, #195 ) ;
#199 = CIRCLE ( 'NONE', #198, 19.90000000000000200 ) ;
#200 = DIRECTION ( 'NONE',  ( -0.7071067811865517900, 0.0000000000000000000, -0.7071067811865433500 ) ) ;
#201 = VECTOR ( 'NONE', #200, 1000.000000000000000 ) ;
#202 = CARTESIAN_POINT ( 'NONE',  ( -17.20504033241557800, 0.0000000000000000000, -60.00000000000000000 ) ) ;
#203 = LINE ( 'NONE', #202, #201 ) ;
#204 = CARTESIAN_POINT ( 'NONE',  ( -16.62450000000000100, 0.0000000000000000000, -59.41945966758442700 ) ) ;
#205 = CARTESIAN_POINT ( 'NONE',  ( 0.0000000000000000000, 0.0000000000000000000, -4.336808689942017700E-016 ) ) ;
#206 = AXIS2_PLACEMENT_3D ( 'NONE', #205, #208, #207 ) ;
#207 = DIRECTION ( 'NONE',  ( 1.000000000000000000, 0.0000000000000000000, 0.0000000000000000000 ) ) ;
#208 = DIRECTION ( 'NONE',  ( -0.0000000000000000000, -0.0000000000000000000, 1.000000000000000000 ) ) ;
#209 = CIRCLE ( 'NONE', #185, 17.20504033241557800 ) ;
#210 = CONICAL_SURFACE ( 'NONE', #279, 16.62450000000000100, 0.7853981633974535000 ) ;
#211 = DIRECTION ( 'NONE',  ( -1.000000000000000000, 0.0000000000000000000, -0.0000000000000000000 ) ) ;
#212 = DIRECTION ( 'NONE',  ( 0.0000000000000000000, 0.0000000000000000000, -1.000000000000000000 ) ) ;
#213 = AXIS2_PLACEMENT_3D ( 'NONE', #215, #212, #211 ) ;
#214 = FACE_OUTER_BOUND ( 'NONE', #100, .T. ) ;
#215 = CARTESIAN_POINT ( 'NONE',  ( 0.0000000000000000000, 19.89999999999999900, -2.168404344971008900E-016 ) ) ;
#216 = PLANE ( 'NONE',  #213 ) ;
#217 = FACE_BOUND ( 'NONE', #102, .T. ) ;
#218 = FACE_OUTER_BOUND ( 'NONE', #82, .T. ) ;
#219 = DIRECTION ( 'NONE',  ( 1.000000000000000000, 0.0000000000000000000, 0.0000000000000000000 ) ) ;
#220 = DIRECTION ( 'NONE',  ( -0.0000000000000000000, -0.0000000000000000000, 1.000000000000000000 ) ) ;
#221 = AXIS2_PLACEMENT_3D ( 'NONE', #226, #180, #179 ) ;
#222 = CIRCLE ( 'NONE', #221, 16.62450000000000100 ) ;
#223 = DIRECTION ( 'NONE',  ( 1.000000000000000000, 0.0000000000000000000, 0.0000000000000000000 ) ) ;
#224 = DIRECTION ( 'NONE',  ( 0.0000000000000000000, -0.0000000000000000000, 1.000000000000000000 ) ) ;
#225 = AXIS2_PLACEMENT_3D ( 'NONE', #227, #224, #223 ) ;
#226 = CARTESIAN_POINT ( 'NONE',  ( 0.0000000000000000000, 0.0000000000000000000, -59.41945966758442700 ) ) ;
#227 = CARTESIAN_POINT ( 'NONE',  ( 0.0000000000000000000, 19.90000000000000200, -60.00000000000000000 ) ) ;
#228 = PLANE ( 'NONE',  #225 ) ;
#229 =( LENGTH_UNIT ( ) NAMED_UNIT ( * ) SI_UNIT ( .MILLI., .METRE. ) );
#230 = DIRECTION ( 'NONE',  ( -0.0000000000000000000, -0.0000000000000000000, 1.000000000000000000 ) ) ;
#231 = VECTOR ( 'NONE', #230, 1000.000000000000000 ) ;
#232 = CARTESIAN_POINT ( 'NONE',  ( 19.90000000000000200, 0.0000000000000000000, -4.336808689942017700E-016 ) ) ;
#233 = LINE ( 'NONE', #232, #231 ) ;
#234 = CARTESIAN_POINT ( 'NONE',  ( -17.20504033241557800, 0.0000000000000000000, -60.00000000000000000 ) ) ;
#235 = DIRECTION ( 'NONE',  ( 1.000000000000000000, 0.0000000000000000000, 0.0000000000000000000 ) ) ;
#236 = DIRECTION ( 'NONE',  ( -0.0000000000000000000, -0.0000000000000000000, 1.000000000000000000 ) ) ;
#237 = CARTESIAN_POINT ( 'NONE',  ( 0.0000000000000000000, 0.0000000000000000000, -60.00000000000000000 ) ) ;
#238 = AXIS2_PLACEMENT_3D ( 'NONE', #237, #236, #235 ) ;
#239 = DIRECTION ( 'NONE',  ( 1.000000000000000000, 0.0000000000000000000, 0.0000000000000000000 ) ) ;
#240 = DIRECTION ( 'NONE',  ( -0.0000000000000000000, -0.0000000000000000000, 1.000000000000000000 ) ) ;
#241 = CARTESIAN_POINT ( 'NONE',  ( 0.0000000000000000000, 0.0000000000000000000, -4.336808689942017700E-016 ) ) ;
#242 = AXIS2_PLACEMENT_3D ( 'NONE', #241, #240, #239 ) ;
#243 = FACE_BOUND ( 'NONE', #96, .T. ) ;
#244 = FACE_OUTER_BOUND ( 'NONE', #55, .T. ) ;
#245 = CYLINDRICAL_SURFACE ( 'NONE', #242, 19.90000000000000200 ) ;
#246 = FACE_OUTER_BOUND ( 'NONE', #54, .T. ) ;
#247 = DIRECTION ( 'NONE',  ( 1.000000000000000000, 0.0000000000000000000, 0.0000000000000000000 ) ) ;
#248 = DIRECTION ( 'NONE',  ( -0.0000000000000000000, -0.0000000000000000000, 1.000000000000000000 ) ) ;
#249 = CARTESIAN_POINT ( 'NONE',  ( 0.0000000000000000000, 0.0000000000000000000, -0.5805403324154406700 ) ) ;
#250 = AXIS2_PLACEMENT_3D ( 'NONE', #249, #248, #247 ) ;
#251 = CIRCLE ( 'NONE', #250, 16.62450000000000100 ) ;
#252 = CARTESIAN_POINT ( 'NONE',  ( 16.62450000000000100, 0.0000000000000000000, -0.5805403324154406700 ) ) ;
#253 = DIRECTION ( 'NONE',  ( 0.7071067811865512400, 0.0000000000000000000, 0.7071067811865439100 ) ) ;
#254 = VECTOR ( 'NONE', #253, 1000.000000000000000 ) ;
#255 = CARTESIAN_POINT ( 'NONE',  ( 16.62450000000000100, 0.0000000000000000000, -0.5805403324154406700 ) ) ;
#256 = LINE ( 'NONE', #255, #254 ) ;
#257 = CARTESIAN_POINT ( 'NONE',  ( 19.89999999999999900, 0.0000000000000000000, 0.0000000000000000000 ) ) ;
#258 = DIRECTION ( 'NONE',  ( 1.000000000000000000, 0.0000000000000000000, 0.0000000000000000000 ) ) ;
#259 = DIRECTION ( 'NONE',  ( -0.0000000000000000000, -0.0000000000000000000, 1.000000000000000000 ) ) ;
#260 = CARTESIAN_POINT ( 'NONE',  ( 0.0000000000000000000, 0.0000000000000000000, 0.0000000000000000000 ) ) ;
#261 = DIRECTION ( 'NONE',  ( -0.0000000000000000000, 1.108921438289453500E-016, -1.000000000000000000 ) ) ;
#262 = VECTOR ( 'NONE', #261, 1000.000000000000000 ) ;
#263 = CARTESIAN_POINT ( 'NONE',  ( 2.035846832912012100E-015, -16.62450000000000500, -60.00000000000005700 ) ) ;
#264 = LINE ( 'NONE', #263, #262 ) ;
#265 = DIRECTION ( 'NONE',  ( 0.0000000000000000000, 1.000000000000000000, 0.0000000000000000000 ) ) ;
#266 = DIRECTION ( 'NONE',  ( -0.0000000000000000000, 1.108921438289453500E-016, -1.000000000000000000 ) ) ;
#267 = CARTESIAN_POINT ( 'NONE',  ( 0.0000000000000000000, 3.184081677783111500E-015, -60.00000000000005700 ) ) ;
#268 = AXIS2_PLACEMENT_3D ( 'NONE', #267, #266, #265 ) ;
#269 = CYLINDRICAL_SURFACE ( 'NONE', #268, 16.62450000000000800 ) ;
#270 = FACE_OUTER_BOUND ( 'NONE', #112, .T. ) ;
#271 = DIRECTION ( 'NONE',  ( 1.000000000000000000, 0.0000000000000000000, 0.0000000000000000000 ) ) ;
#272 = DIRECTION ( 'NONE',  ( -0.0000000000000000000, -0.0000000000000000000, 1.000000000000000000 ) ) ;
#273 = CARTESIAN_POINT ( 'NONE',  ( 0.0000000000000000000, 0.0000000000000000000, 0.0000000000000000000 ) ) ;
#274 = AXIS2_PLACEMENT_3D ( 'NONE', #273, #272, #271 ) ;
#275 = CIRCLE ( 'NONE', #274, 19.89999999999999900 ) ;
#276 = DIRECTION ( 'NONE',  ( 1.000000000000000000, 0.0000000000000000000, 0.0000000000000000000 ) ) ;
#277 = DIRECTION ( 'NONE',  ( -0.0000000000000000000, -0.0000000000000000000, 1.000000000000000000 ) ) ;
#278 = CARTESIAN_POINT ( 'NONE',  ( 0.0000000000000000000, 0.0000000000000000000, -0.5805403324154406700 ) ) ;
#279 = AXIS2_PLACEMENT_3D ( 'NONE', #278, #277, #276 ) ;
#280 = ADVANCED_BREP_SHAPE_REPRESENTATION ( '19-0402-56_outokumpu', ( #18, #309 ), #281 ) ;
#281 =( GEOMETRIC_REPRESENTATION_CONTEXT ( 3 ) GLOBAL_UNCERTAINTY_ASSIGNED_CONTEXT ( ( #282 ) ) GLOBAL_UNIT_ASSIGNED_CONTEXT ( ( #229, #128, #127 ) ) REPRESENTATION_CONTEXT ( 'NONE', 'WORKASPACE' ) );
#282 = UNCERTAINTY_MEASURE_WITH_UNIT (LENGTH_MEASURE( 1.000000000000000100E-005 ), #229, 'distance_accuracy_value', 'NONE');
#283 = DIRECTION ( 'NONE',  ( 1.000000000000000000, 0.0000000000000000000, 0.0000000000000000000 ) ) ;
#284 = DIRECTION ( 'NONE',  ( -0.0000000000000000000, -0.0000000000000000000, 1.000000000000000000 ) ) ;
#285 = CARTESIAN_POINT ( 'NONE',  ( 0.0000000000000000000, 0.0000000000000000000, -0.5805403324154406700 ) ) ;
#286 = AXIS2_PLACEMENT_3D ( 'NONE', #285, #284, #283 ) ;
#287 = CIRCLE ( 'NONE', #286, 16.62450000000000100 ) ;
#288 = CARTESIAN_POINT ( 'NONE',  ( -16.62450000000000100, 2.071393501898316500E-015, -0.5805403324154406700 ) ) ;
#289 = CARTESIAN_POINT ( 'NONE',  ( 0.0000000000000000000, 0.0000000000000000000, -3.304181524667523600E-019 ) ) ;
#290 = AXIS2_PLACEMENT_3D ( 'NONE', #289, #220, #219 ) ;
#291 = CIRCLE ( 'NONE', #290, 17.20504033241544700 ) ;
#292 = DIRECTION ( 'NONE',  ( -1.000000000000000000, 0.0000000000000000000, 0.0000000000000000000 ) ) ;
#293 = DIRECTION ( 'NONE',  ( 0.0000000000000000000, 0.0000000000000000000, -1.000000000000000000 ) ) ;
#294 = CARTESIAN_POINT ( 'NONE',  ( 0.0000000000000000000, 0.0000000000000000000, -60.00000000000000000 ) ) ;
#295 = AXIS2_PLACEMENT_3D ( 'NONE', #294, #293, #292 ) ;
#296 = CONICAL_SURFACE ( 'NONE', #295, 17.20504033241557800, 0.7853981633974542700 ) ;
#297 = FACE_OUTER_BOUND ( 'NONE', #79, .T. ) ;
#298 = DIRECTION ( 'NONE',  ( 1.000000000000000000, 0.0000000000000000000, 0.0000000000000000000 ) ) ;
#299 = DIRECTION ( 'NONE',  ( -0.0000000000000000000, -0.0000000000000000000, 1.000000000000000000 ) ) ;
#300 = CARTESIAN_POINT ( 'NONE',  ( 0.0000000000000000000, 0.0000000000000000000, -60.00000000000000000 ) ) ;
#301 = AXIS2_PLACEMENT_3D ( 'NONE', #300, #299, #298 ) ;
#302 = CIRCLE ( 'NONE', #301, 19.90000000000000200 ) ;
#303 = CARTESIAN_POINT ( 'NONE',  ( 0.0000000000000000000, 16.62450000000000100, -0.5805403324154406700 ) ) ;
#304 = DIRECTION ( 'NONE',  ( 1.000000000000000000, 0.0000000000000000000, 0.0000000000000000000 ) ) ;
#305 = DIRECTION ( 'NONE',  ( -0.0000000000000000000, -0.0000000000000000000, 1.000000000000000000 ) ) ;
#306 = CARTESIAN_POINT ( 'NONE',  ( 0.0000000000000000000, 0.0000000000000000000, -0.5805403324154406700 ) ) ;
#307 = AXIS2_PLACEMENT_3D ( 'NONE', #306, #305, #304 ) ;
#308 = CIRCLE ( 'NONE', #307, 16.62450000000000100 ) ;
#309 = AXIS2_PLACEMENT_3D ( 'NONE', #354, #365, #364 ) ;
#310 = CC_DESIGN_SECURITY_CLASSIFICATION ( #331, ( #350 ) ) ;
#311 = CC_DESIGN_APPROVAL ( #319, ( #331 ) ) ;
#312 = APPROVAL_DATE_TIME ( #313, #319 ) ;
#313 = DATE_AND_TIME ( #314, #315 ) ;
#314 = CALENDAR_DATE ( 2015, 11, 8 ) ;
#315 = LOCAL_TIME ( 11, 31, 52.00000000000000000, #316 ) ;
#316 = COORDINATED_UNIVERSAL_TIME_OFFSET ( 1, 0, .AHEAD. ) ;
#317 = APPROVAL_PERSON_ORGANIZATION ( #321, #319, #318 ) ;
#318 = APPROVAL_ROLE ( '' ) ;
#319 = APPROVAL ( #320, 'UNSPECIFIED' ) ;
#320 = APPROVAL_STATUS ( 'not_yet_approved' ) ;
#321 = PERSON_AND_ORGANIZATION ( #358, #357 ) ;
#322 = CC_DESIGN_DATE_AND_TIME_ASSIGNMENT ( #324, #323, ( #331 ) ) ;
#323 = DATE_TIME_ROLE ( 'classification_date' ) ;
#324 = DATE_AND_TIME ( #325, #326 ) ;
#325 = CALENDAR_DATE ( 2015, 11, 8 ) ;
#326 = LOCAL_TIME ( 11, 31, 52.00000000000000000, #327 ) ;
#327 = COORDINATED_UNIVERSAL_TIME_OFFSET ( 1, 0, .AHEAD. ) ;
#328 = CC_DESIGN_PERSON_AND_ORGANIZATION_ASSIGNMENT ( #330, #329, ( #331 ) ) ;
#329 = PERSON_AND_ORGANIZATION_ROLE ( 'classification_officer' ) ;
#330 = PERSON_AND_ORGANIZATION ( #358, #357 ) ;
#331 = SECURITY_CLASSIFICATION ( '', '', #332 ) ;
#332 = SECURITY_CLASSIFICATION_LEVEL ( 'unclassified' ) ;
#333 = CC_DESIGN_PERSON_AND_ORGANIZATION_ASSIGNMENT ( #335, #334, ( #350 ) ) ;
#334 = PERSON_AND_ORGANIZATION_ROLE ( 'design_supplier' ) ;
#335 = PERSON_AND_ORGANIZATION ( #358, #357 ) ;
#336 = CC_DESIGN_PERSON_AND_ORGANIZATION_ASSIGNMENT ( #338, #337, ( #350 ) ) ;
#337 = PERSON_AND_ORGANIZATION_ROLE ( 'creator' ) ;
#338 = PERSON_AND_ORGANIZATION ( #358, #357 ) ;
#339 = CC_DESIGN_APPROVAL ( #347, ( #350 ) ) ;
#340 = APPROVAL_DATE_TIME ( #341, #347 ) ;
#341 = DATE_AND_TIME ( #342, #343 ) ;
#342 = CALENDAR_DATE ( 2015, 11, 8 ) ;
#343 = LOCAL_TIME ( 11, 31, 52.00000000000000000, #344 ) ;
#344 = COORDINATED_UNIVERSAL_TIME_OFFSET ( 1, 0, .AHEAD. ) ;
#345 = APPROVAL_PERSON_ORGANIZATION ( #349, #347, #346 ) ;
#346 = APPROVAL_ROLE ( '' ) ;
#347 = APPROVAL ( #348, 'UNSPECIFIED' ) ;
#348 = APPROVAL_STATUS ( 'not_yet_approved' ) ;
#349 = PERSON_AND_ORGANIZATION ( #358, #357 ) ;
#350 = PRODUCT_DEFINITION_FORMATION_WITH_SPECIFIED_SOURCE ( 'ANY', '', #359, .NOT_KNOWN. ) ;
#351 = CC_DESIGN_DATE_AND_TIME_ASSIGNMENT ( #367, #352, ( #384 ) ) ;
#352 = DATE_TIME_ROLE ( 'creation_date' ) ;
#353 = CALENDAR_DATE ( 2015, 11, 8 ) ;
#354 = CARTESIAN_POINT ( 'NONE',  ( 0.0000000000000000000, 0.0000000000000000000, 0.0000000000000000000 ) ) ;
#355 = PERSON_AND_ORGANIZATION_ROLE ( 'design_owner' ) ;
#356 = PERSON_AND_ORGANIZATION ( #358, #357 ) ;
#357 = ORGANIZATION ( 'UNSPECIFIED', 'UNSPECIFIED', '' ) ;
#358 = PERSON ( 'UNSPECIFIED', 'UNSPECIFIED', 'UNSPECIFIED', ('UNSPECIFIED'), ('UNSPECIFIED'), ('UNSPECIFIED') ) ;
#359 = PRODUCT ( '19-0402-56_outokumpu', '19-0402-56_outokumpu', '', ( #360 ) ) ;
#360 = MECHANICAL_CONTEXT ( 'NONE', #366, 'mechanical' ) ;
#361 = APPLICATION_PROTOCOL_DEFINITION ( 'international standard', 'config_control_design', 1994, #366 ) ;
#362 = PRODUCT_DEFINITION_SHAPE ( 'NONE', 'NONE',  #384 ) ;
#363 = PRODUCT_RELATED_PRODUCT_CATEGORY ( 'detail', '', ( #359 ) ) ;
#364 = DIRECTION ( 'NONE',  ( 1.000000000000000000, 0.0000000000000000000, 0.0000000000000000000 ) ) ;
#365 = DIRECTION ( 'NONE',  ( 0.0000000000000000000, 0.0000000000000000000, 1.000000000000000000 ) ) ;
#366 = APPLICATION_CONTEXT ( 'configuration controlled 3d designs of mechanical parts and assemblies' ) ;
#367 = DATE_AND_TIME ( #353, #368 ) ;
#368 = LOCAL_TIME ( 11, 31, 52.00000000000000000, #369 ) ;
#369 = COORDINATED_UNIVERSAL_TIME_OFFSET ( 1, 0, .AHEAD. ) ;
#370 = CC_DESIGN_PERSON_AND_ORGANIZATION_ASSIGNMENT ( #372, #371, ( #384 ) ) ;
#371 = PERSON_AND_ORGANIZATION_ROLE ( 'creator' ) ;
#372 = PERSON_AND_ORGANIZATION ( #358, #357 ) ;
#373 = CC_DESIGN_APPROVAL ( #381, ( #384 ) ) ;
#374 = APPROVAL_DATE_TIME ( #375, #381 ) ;
#375 = DATE_AND_TIME ( #376, #377 ) ;
#376 = CALENDAR_DATE ( 2015, 11, 8 ) ;
#377 = LOCAL_TIME ( 11, 31, 52.00000000000000000, #378 ) ;
#378 = COORDINATED_UNIVERSAL_TIME_OFFSET ( 1, 0, .AHEAD. ) ;
#379 = APPROVAL_PERSON_ORGANIZATION ( #383, #381, #380 ) ;
#380 = APPROVAL_ROLE ( '' ) ;
#381 = APPROVAL ( #382, 'UNSPECIFIED' ) ;
#382 = APPROVAL_STATUS ( 'not_yet_approved' ) ;
#383 = PERSON_AND_ORGANIZATION ( #358, #357 ) ;
#384 = PRODUCT_DEFINITION ( 'UNKNOWN', '', #350, #385 ) ;
#385 = DESIGN_CONTEXT ( 'detailed design', #387, 'design' ) ;
#386 = APPLICATION_PROTOCOL_DEFINITION ( 'international standard', 'config_control_design', 1994, #387 ) ;
#387 = APPLICATION_CONTEXT ( 'configuration controlled 3d designs of mechanical parts and assemblies' ) ;
#388 = CC_DESIGN_PERSON_AND_ORGANIZATION_ASSIGNMENT ( #356, #355, ( #359 ) ) ;
#389 = SHAPE_DEFINITION_REPRESENTATION ( #362, #280 ) ;
ENDSEC;
END-ISO-10303-21;
