ISO-10303-21;
HEADER;
FILE_DESCRIPTION (( 'STEP AP203' ),
    '1' );
FILE_NAME ('19-0408-07_outokumpu.step',
    '2015-08-11T09:42:27',
    ( '' ),
    ( '' ),
    'SwSTEP 2.0',
    'SolidWorks 2008',
    '' );
FILE_SCHEMA (( 'CONFIG_CONTROL_DESIGN' ));
ENDSEC;

DATA;
#1 = APPROVAL_STATUS ( 'not_yet_approved' ) ;
#2 = PERSON_AND_ORGANIZATION ( #417, #14 ) ;
#3 = DATE_AND_TIME ( #10, #9 ) ;
#4 = COORDINATED_UNIVERSAL_TIME_OFFSET ( 1, 0, .AHEAD. ) ;
#5 = APPROVAL_PERSON_ORGANIZATION ( #2, #7, #6 ) ;
#6 = APPROVAL_ROLE ( '' ) ;
#7 = APPROVAL ( #1, 'UNSPECIFIED' ) ;
#8 = APPROVAL_DATE_TIME ( #3, #7 ) ;
#9 = LOCAL_TIME ( 11, 42, 27.00000000000000000, #4 ) ;
#10 = CALENDAR_DATE ( 2015, 11, 8 ) ;
#11 = CC_DESIGN_APPROVAL ( #7, ( #418 ) ) ;
#12 = CC_DESIGN_PERSON_AND_ORGANIZATION_ASSIGNMENT ( #15, #13, ( #415 ) ) ;
#13 = PERSON_AND_ORGANIZATION_ROLE ( 'design_owner' ) ;
#14 = ORGANIZATION ( 'UNSPECIFIED', 'UNSPECIFIED', '' ) ;
#15 = PERSON_AND_ORGANIZATION ( #417, #14 ) ;
#16 = APPLICATION_PROTOCOL_DEFINITION ( 'international standard', 'config_control_design', 1994, #17 ) ;
#17 = APPLICATION_CONTEXT ( 'configuration controlled 3d designs of mechanical parts and assemblies' ) ;
#18 = ORIENTED_EDGE ( 'NONE', *, *, #91, .F. ) ;
#19 = EDGE_CURVE ( 'NONE', #48, #94, #219, .T. ) ;
#20 = ORIENTED_EDGE ( 'NONE', *, *, #19, .F. ) ;
#21 = ORIENTED_EDGE ( 'NONE', *, *, #32, .T. ) ;
#22 = ORIENTED_EDGE ( 'NONE', *, *, #134, .F. ) ;
#23 = ADVANCED_FACE ( 'NONE', ( #229 ), #217, .F. ) ;
#24 = EDGE_LOOP ( 'NONE', ( #22, #185, #182, #181, #174 ) ) ;
#25 = EDGE_LOOP ( 'NONE', ( #31, #30, #27, #28 ) ) ;
#26 = ORIENTED_EDGE ( 'NONE', *, *, #134, .T. ) ;
#27 = ORIENTED_EDGE ( 'NONE', *, *, #176, .T. ) ;
#28 = ORIENTED_EDGE ( 'NONE', *, *, #29, .T. ) ;
#29 = EDGE_CURVE ( 'NONE', #99, #104, #261, .T. ) ;
#30 = ORIENTED_EDGE ( 'NONE', *, *, #32, .F. ) ;
#31 = ORIENTED_EDGE ( 'NONE', *, *, #178, .F. ) ;
#32 = EDGE_CURVE ( 'NONE', #87, #86, #247, .T. ) ;
#33 = ORIENTED_EDGE ( 'NONE', *, *, #125, .T. ) ;
#34 = ORIENTED_EDGE ( 'NONE', *, *, #37, .F. ) ;
#35 = CLOSED_SHELL ( 'NONE', ( #83, #106, #112, #52, #47, #180, #36, #23, #179, #68, #75, #74 ) ) ;
#36 = ADVANCED_FACE ( 'NONE', ( #248 ), #242, .F. ) ;
#37 = EDGE_CURVE ( 'NONE', #90, #123, #237, .T. ) ;
#38 = ORIENTED_EDGE ( 'NONE', *, *, #37, .T. ) ;
#39 = EDGE_LOOP ( 'NONE', ( #40, #38 ) ) ;
#40 = ORIENTED_EDGE ( 'NONE', *, *, #122, .T. ) ;
#41 = COORDINATED_UNIVERSAL_TIME_OFFSET ( 1, 0, .AHEAD. ) ;
#42 = LOCAL_TIME ( 11, 42, 27.00000000000000000, #41 ) ;
#43 = DATE_TIME_ROLE ( 'creation_date' ) ;
#44 = DATE_AND_TIME ( #45, #42 ) ;
#45 = CALENDAR_DATE ( 2015, 11, 8 ) ;
#46 = CC_DESIGN_DATE_AND_TIME_ASSIGNMENT ( #44, #43, ( #418 ) ) ;
#47 = ADVANCED_FACE ( 'NONE', ( #238 ), #231, .F. ) ;
#48 = VERTEX_POINT ( 'NONE', #260 ) ;
#49 = ORIENTED_EDGE ( 'NONE', *, *, #89, .F. ) ;
#50 = VERTEX_POINT ( 'NONE', #257 ) ;
#51 = ORIENTED_EDGE ( 'NONE', *, *, #53, .F. ) ;
#52 = ADVANCED_FACE ( 'NONE', ( #256 ), #254, .F. ) ;
#53 = EDGE_CURVE ( 'NONE', #120, #55, #272, .T. ) ;
#54 = ORIENTED_EDGE ( 'NONE', *, *, #72, .F. ) ;
#55 = VERTEX_POINT ( 'NONE', #268 ) ;
#56 = EDGE_LOOP ( 'NONE', ( #49, #21, #33, #34 ) ) ;
#57 = ORIENTED_EDGE ( 'NONE', *, *, #93, .T. ) ;
#58 = ORIENTED_EDGE ( 'NONE', *, *, #19, .T. ) ;
#59 = ORIENTED_EDGE ( 'NONE', *, *, #72, .T. ) ;
#60 = ORIENTED_EDGE ( 'NONE', *, *, #61, .F. ) ;
#61 = EDGE_CURVE ( 'NONE', #55, #118, #267, .T. ) ;
#62 = EDGE_LOOP ( 'NONE', ( #63, #59 ) ) ;
#63 = ORIENTED_EDGE ( 'NONE', *, *, #183, .T. ) ;
#64 = EDGE_LOOP ( 'NONE', ( #78, #80 ) ) ;
#65 = ORIENTED_EDGE ( 'NONE', *, *, #175, .T. ) ;
#66 = EDGE_CURVE ( 'NONE', #118, #55, #262, .T. ) ;
#67 = ORIENTED_EDGE ( 'NONE', *, *, #66, .F. ) ;
#68 = ADVANCED_FACE ( 'NONE', ( #296, #295 ), #294, .F. ) ;
#69 = VERTEX_POINT ( 'NONE', #289 ) ;
#70 = EDGE_LOOP ( 'NONE', ( #71, #65, #58, #57, #73 ) ) ;
#71 = ORIENTED_EDGE ( 'NONE', *, *, #100, .F. ) ;
#72 = EDGE_CURVE ( 'NONE', #50, #69, #288, .T. ) ;
#73 = ORIENTED_EDGE ( 'NONE', *, *, #29, .F. ) ;
#74 = ADVANCED_FACE ( 'NONE', ( #283 ), #282, .F. ) ;
#75 = ADVANCED_FACE ( 'NONE', ( #281 ), #276, .F. ) ;
#76 = ORIENTED_EDGE ( 'NONE', *, *, #53, .T. ) ;
#77 = EDGE_LOOP ( 'NONE', ( #79, #81, #76, #67 ) ) ;
#78 = ORIENTED_EDGE ( 'NONE', *, *, #61, .T. ) ;
#79 = ORIENTED_EDGE ( 'NONE', *, *, #117, .F. ) ;
#80 = ORIENTED_EDGE ( 'NONE', *, *, #66, .T. ) ;
#81 = ORIENTED_EDGE ( 'NONE', *, *, #132, .T. ) ;
#82 = MANIFOLD_SOLID_BREP ( 'NONE', #35 ) ;
#83 = ADVANCED_FACE ( 'NONE', ( #311 ), #306, .F. ) ;
#84 = ORIENTED_EDGE ( 'NONE', *, *, #85, .T. ) ;
#85 = EDGE_CURVE ( 'NONE', #86, #87, #305, .T. ) ;
#86 = VERTEX_POINT ( 'NONE', #312 ) ;
#87 = VERTEX_POINT ( 'NONE', #342 ) ;
#88 = ORIENTED_EDGE ( 'NONE', *, *, #89, .T. ) ;
#89 = EDGE_CURVE ( 'NONE', #87, #90, #327, .T. ) ;
#90 = VERTEX_POINT ( 'NONE', #323 ) ;
#91 = EDGE_CURVE ( 'NONE', #94, #102, #321, .T. ) ;
#92 = ORIENTED_EDGE ( 'NONE', *, *, #91, .T. ) ;
#93 = EDGE_CURVE ( 'NONE', #94, #104, #322, .T. ) ;
#94 = VERTEX_POINT ( 'NONE', #313 ) ;
#95 = ORIENTED_EDGE ( 'NONE', *, *, #93, .F. ) ;
#96 = EDGE_CURVE ( 'NONE', #102, #97, #341, .T. ) ;
#97 = VERTEX_POINT ( 'NONE', #336 ) ;
#98 = EDGE_CURVE ( 'NONE', #104, #99, #335, .T. ) ;
#99 = VERTEX_POINT ( 'NONE', #330 ) ;
#100 = EDGE_CURVE ( 'NONE', #97, #99, #328, .T. ) ;
#101 = ORIENTED_EDGE ( 'NONE', *, *, #98, .F. ) ;
#102 = VERTEX_POINT ( 'NONE', #343 ) ;
#103 = ORIENTED_EDGE ( 'NONE', *, *, #100, .T. ) ;
#104 = VERTEX_POINT ( 'NONE', #352 ) ;
#105 = ORIENTED_EDGE ( 'NONE', *, *, #96, .T. ) ;
#106 = ADVANCED_FACE ( 'NONE', ( #351 ), #348, .F. ) ;
#107 = CC_DESIGN_PERSON_AND_ORGANIZATION_ASSIGNMENT ( #109, #108, ( #418 ) ) ;
#108 = PERSON_AND_ORGANIZATION_ROLE ( 'creator' ) ;
#109 = PERSON_AND_ORGANIZATION ( #417, #14 ) ;
#110 = EDGE_LOOP ( 'NONE', ( #105, #103, #101, #95, #92 ) ) ;
#111 = EDGE_LOOP ( 'NONE', ( #54, #26, #18, #20, #184 ) ) ;
#112 = ADVANCED_FACE ( 'NONE', ( #346 ), #225, .T. ) ;
#113 = ORIENTED_EDGE ( 'NONE', *, *, #114, .T. ) ;
#114 = EDGE_CURVE ( 'NONE', #120, #119, #356, .T. ) ;
#115 = ORIENTED_EDGE ( 'NONE', *, *, #117, .T. ) ;
#116 = EDGE_LOOP ( 'NONE', ( #113, #115, #60, #51 ) ) ;
#117 = EDGE_CURVE ( 'NONE', #119, #118, #155, .T. ) ;
#118 = VERTEX_POINT ( 'NONE', #159 ) ;
#119 = VERTEX_POINT ( 'NONE', #161 ) ;
#120 = VERTEX_POINT ( 'NONE', #160 ) ;
#121 = ORIENTED_EDGE ( 'NONE', *, *, #122, .F. ) ;
#122 = EDGE_CURVE ( 'NONE', #123, #90, #158, .T. ) ;
#123 = VERTEX_POINT ( 'NONE', #172 ) ;
#124 = ORIENTED_EDGE ( 'NONE', *, *, #125, .F. ) ;
#125 = EDGE_CURVE ( 'NONE', #86, #123, #171, .T. ) ;
#126 = EDGE_LOOP ( 'NONE', ( #84, #88, #121, #124 ) ) ;
#127 = SHAPE_DEFINITION_REPRESENTATION ( #128, #411 ) ;
#128 = PRODUCT_DEFINITION_SHAPE ( 'NONE', 'NONE',  #418 ) ;
#129 = PRODUCT_RELATED_PRODUCT_CATEGORY ( 'detail', '', ( #415 ) ) ;
#130 = CC_DESIGN_SECURITY_CLASSIFICATION ( #329, ( #355 ) ) ;
#131 = ORIENTED_EDGE ( 'NONE', *, *, #114, .F. ) ;
#132 = EDGE_CURVE ( 'NONE', #119, #120, #361, .T. ) ;
#133 = EDGE_LOOP ( 'NONE', ( #131, #135 ) ) ;
#134 = EDGE_CURVE ( 'NONE', #50, #102, #368, .T. ) ;
#135 = ORIENTED_EDGE ( 'NONE', *, *, #132, .F. ) ;
#136 = DIRECTION ( 'NONE',  ( -0.0000000000000000000, -0.0000000000000000000, 1.000000000000000000 ) ) ;
#137 = DIRECTION ( 'NONE',  ( 1.000000000000000000, 0.0000000000000000000, 0.0000000000000000000 ) ) ;
#138 = APPROVAL_ROLE ( '' ) ;
#139 = CALENDAR_DATE ( 2015, 11, 8 ) ;
#140 = LOCAL_TIME ( 11, 42, 27.00000000000000000, #142 ) ;
#141 = CC_DESIGN_DATE_AND_TIME_ASSIGNMENT ( #148, #147, ( #329 ) ) ;
#142 = COORDINATED_UNIVERSAL_TIME_OFFSET ( 1, 0, .AHEAD. ) ;
#143 = APPROVAL_PERSON_ORGANIZATION ( #165, #163, #138 ) ;
#144 = DATE_AND_TIME ( #139, #140 ) ;
#145 = APPROVAL_DATE_TIME ( #144, #163 ) ;
#146 = CC_DESIGN_APPROVAL ( #163, ( #329 ) ) ;
#147 = DATE_TIME_ROLE ( 'classification_date' ) ;
#148 = DATE_AND_TIME ( #149, #150 ) ;
#149 = CALENDAR_DATE ( 2015, 11, 8 ) ;
#150 = LOCAL_TIME ( 11, 42, 27.00000000000000000, #151 ) ;
#151 = COORDINATED_UNIVERSAL_TIME_OFFSET ( 1, 0, .AHEAD. ) ;
#152 = DIRECTION ( 'NONE',  ( -0.0000000000000000000, -0.0000000000000000000, 1.000000000000000000 ) ) ;
#153 = VECTOR ( 'NONE', #152, 1000.000000000000000 ) ;
#154 = CARTESIAN_POINT ( 'NONE',  ( -24.14999999999999900, 2.957424344481040600E-015, -4.336808689942017700E-016 ) ) ;
#155 = LINE ( 'NONE', #154, #153 ) ;
#156 = CARTESIAN_POINT ( 'NONE',  ( 0.0000000000000000000, 0.0000000000000000000, -120.0000000000000000 ) ) ;
#157 = AXIS2_PLACEMENT_3D ( 'NONE', #156, #136, #137 ) ;
#158 = CIRCLE ( 'NONE', #157, 21.68676472469943700 ) ;
#159 = CARTESIAN_POINT ( 'NONE',  ( -24.14999999999999900, 2.957424344481040600E-015, 0.0000000000000000000 ) ) ;
#160 = CARTESIAN_POINT ( 'NONE',  ( 24.14999999999999900, 0.0000000000000000000, -120.0000000000000000 ) ) ;
#161 = CARTESIAN_POINT ( 'NONE',  ( -24.14999999999999900, 2.957424344481040600E-015, -120.0000000000000000 ) ) ;
#162 = ORIENTED_EDGE ( 'NONE', *, *, #98, .T. ) ;
#163 = APPROVAL ( #164, 'UNSPECIFIED' ) ;
#164 = APPROVAL_STATUS ( 'not_yet_approved' ) ;
#165 = PERSON_AND_ORGANIZATION ( #417, #14 ) ;
#166 = ORIENTED_EDGE ( 'NONE', *, *, #176, .F. ) ;
#167 = ORIENTED_EDGE ( 'NONE', *, *, #85, .F. ) ;
#168 = DIRECTION ( 'NONE',  ( -0.7071067811865575600, 0.0000000000000000000, -0.7071067811865374700 ) ) ;
#169 = VECTOR ( 'NONE', #168, 1000.000000000000000 ) ;
#170 = CARTESIAN_POINT ( 'NONE',  ( -21.68676472469943700, 0.0000000000000000000, -120.0000000000000000 ) ) ;
#171 = LINE ( 'NONE', #170, #169 ) ;
#172 = CARTESIAN_POINT ( 'NONE',  ( -21.68676472469943700, 0.0000000000000000000, -120.0000000000000000 ) ) ;
#173 = EDGE_LOOP ( 'NONE', ( #167, #177, #162, #166 ) ) ;
#174 = ORIENTED_EDGE ( 'NONE', *, *, #96, .F. ) ;
#175 = EDGE_CURVE ( 'NONE', #97, #48, #371, .T. ) ;
#176 = EDGE_CURVE ( 'NONE', #87, #99, #359, .T. ) ;
#177 = ORIENTED_EDGE ( 'NONE', *, *, #178, .T. ) ;
#178 = EDGE_CURVE ( 'NONE', #86, #104, #394, .T. ) ;
#179 = ADVANCED_FACE ( 'NONE', ( #390 ), #389, .T. ) ;
#180 = ADVANCED_FACE ( 'NONE', ( #388, #387 ), #382, .F. ) ;
#181 = ORIENTED_EDGE ( 'NONE', *, *, #175, .F. ) ;
#182 = ORIENTED_EDGE ( 'NONE', *, *, #186, .T. ) ;
#183 = EDGE_CURVE ( 'NONE', #69, #50, #396, .T. ) ;
#184 = ORIENTED_EDGE ( 'NONE', *, *, #186, .F. ) ;
#185 = ORIENTED_EDGE ( 'NONE', *, *, #183, .F. ) ;
#186 = EDGE_CURVE ( 'NONE', #69, #48, #400, .T. ) ;
#187 = DIRECTION ( 'NONE',  ( 0.7882747985675384600, 9.653263268838620300E-017, -0.6153233637229343900 ) ) ;
#188 = VECTOR ( 'NONE', #187, 1000.000000000000200 ) ;
#189 = CARTESIAN_POINT ( 'NONE',  ( 0.0000000000000000000, 0.0000000000000000000, -119.2682352753005700 ) ) ;
#190 = AXIS2_PLACEMENT_3D ( 'NONE', #189, #192, #191 ) ;
#191 = DIRECTION ( 'NONE',  ( 1.000000000000000000, 0.0000000000000000000, 0.0000000000000000000 ) ) ;
#192 = DIRECTION ( 'NONE',  ( -0.0000000000000000000, -0.0000000000000000000, 1.000000000000000000 ) ) ;
#193 = PERSON_AND_ORGANIZATION ( #417, #14 ) ;
#194 = CARTESIAN_POINT ( 'NONE',  ( 20.95499999999999500, 2.566162614434790800E-015, -99.15450000000001300 ) ) ;
#195 = APPROVAL ( #196, 'UNSPECIFIED' ) ;
#196 = APPROVAL_STATUS ( 'not_yet_approved' ) ;
#197 = CARTESIAN_POINT ( 'NONE',  ( 0.0000000000000000000, 0.0000000000000000000, -4.336808689942017700E-016 ) ) ;
#198 = DIRECTION ( 'NONE',  ( 1.000000000000000000, 0.0000000000000000000, 0.0000000000000000000 ) ) ;
#199 = DIRECTION ( 'NONE',  ( -0.0000000000000000000, -0.0000000000000000000, 1.000000000000000000 ) ) ;
#200 = AXIS2_PLACEMENT_3D ( 'NONE', #197, #199, #198 ) ;
#201 = APPROVAL_PERSON_ORGANIZATION ( #193, #195, #202 ) ;
#202 = APPROVAL_ROLE ( '' ) ;
#203 = SECURITY_CLASSIFICATION_LEVEL ( 'unclassified' ) ;
#204 = DATE_AND_TIME ( #209, #206 ) ;
#205 = PERSON_AND_ORGANIZATION ( #417, #14 ) ;
#206 = LOCAL_TIME ( 11, 42, 27.00000000000000000, #208 ) ;
#207 = PERSON_AND_ORGANIZATION_ROLE ( 'classification_officer' ) ;
#208 = COORDINATED_UNIVERSAL_TIME_OFFSET ( 1, 0, .AHEAD. ) ;
#209 = CALENDAR_DATE ( 2015, 11, 8 ) ;
#210 = APPROVAL_DATE_TIME ( #204, #195 ) ;
#211 = CC_DESIGN_APPROVAL ( #195, ( #355 ) ) ;
#212 = CC_DESIGN_PERSON_AND_ORGANIZATION_ASSIGNMENT ( #221, #220, ( #355 ) ) ;
#213 = DIRECTION ( 'NONE',  ( -0.0000000000000000000, -0.0000000000000000000, 1.000000000000000000 ) ) ;
#214 = DIRECTION ( 'NONE',  ( 1.000000000000000000, 0.0000000000000000000, 0.0000000000000000000 ) ) ;
#215 = AXIS2_PLACEMENT_3D ( 'NONE', #218, #213, #214 ) ;
#216 = CARTESIAN_POINT ( 'NONE',  ( 0.0000000000000000000, 1.224646799147375100E-015, -120.0000000000000700 ) ) ;
#217 = CYLINDRICAL_SURFACE ( 'NONE', #228, 19.47599999999999900 ) ;
#218 = CARTESIAN_POINT ( 'NONE',  ( 0.0000000000000000000, 0.0000000000000000000, -98.00000000000000000 ) ) ;
#219 = CIRCLE ( 'NONE', #215, 19.47599999999998500 ) ;
#220 = PERSON_AND_ORGANIZATION_ROLE ( 'design_supplier' ) ;
#221 = PERSON_AND_ORGANIZATION ( #417, #14 ) ;
#222 = CC_DESIGN_PERSON_AND_ORGANIZATION_ASSIGNMENT ( #224, #223, ( #355 ) ) ;
#223 = PERSON_AND_ORGANIZATION_ROLE ( 'creator' ) ;
#224 = PERSON_AND_ORGANIZATION ( #417, #14 ) ;
#225 = CYLINDRICAL_SURFACE ( 'NONE', #200, 24.14999999999999900 ) ;
#226 = DIRECTION ( 'NONE',  ( 0.0000000000000000000, 1.000000000000000000, 0.0000000000000000000 ) ) ;
#227 = DIRECTION ( 'NONE',  ( -0.0000000000000000000, 3.911744792584156100E-017, -1.000000000000000000 ) ) ;
#228 = AXIS2_PLACEMENT_3D ( 'NONE', #216, #227, #226 ) ;
#229 = FACE_OUTER_BOUND ( 'NONE', #24, .T. ) ;
#230 = CARTESIAN_POINT ( 'NONE',  ( 0.0000000000000000000, 0.0000000000000000000, -4.336808689942017700E-016 ) ) ;
#231 = CYLINDRICAL_SURFACE ( 'NONE', #259, 20.95499999999999500 ) ;
#232 = DIRECTION ( 'NONE',  ( -0.0000000000000000000, -0.0000000000000000000, 1.000000000000000000 ) ) ;
#233 = DIRECTION ( 'NONE',  ( 1.000000000000000000, 0.0000000000000000000, 0.0000000000000000000 ) ) ;
#234 = DIRECTION ( 'NONE',  ( -0.0000000000000000000, -0.0000000000000000000, 1.000000000000000000 ) ) ;
#235 = CARTESIAN_POINT ( 'NONE',  ( 0.0000000000000000000, 0.0000000000000000000, -120.0000000000000000 ) ) ;
#236 = AXIS2_PLACEMENT_3D ( 'NONE', #235, #234, #233 ) ;
#237 = CIRCLE ( 'NONE', #236, 21.68676472469943700 ) ;
#238 = FACE_OUTER_BOUND ( 'NONE', #173, .T. ) ;
#239 = DIRECTION ( 'NONE',  ( 1.000000000000000000, 0.0000000000000000000, 0.0000000000000000000 ) ) ;
#240 = DIRECTION ( 'NONE',  ( -0.0000000000000000000, -0.0000000000000000000, 1.000000000000000000 ) ) ;
#241 = AXIS2_PLACEMENT_3D ( 'NONE', #243, #240, #239 ) ;
#242 = CYLINDRICAL_SURFACE ( 'NONE', #241, 20.95499999999999500 ) ;
#243 = CARTESIAN_POINT ( 'NONE',  ( 0.0000000000000000000, 0.0000000000000000000, -4.336808689942017700E-016 ) ) ;
#244 = DIRECTION ( 'NONE',  ( 1.000000000000000000, 0.0000000000000000000, 0.0000000000000000000 ) ) ;
#245 = DIRECTION ( 'NONE',  ( -0.0000000000000000000, -0.0000000000000000000, 1.000000000000000000 ) ) ;
#246 = AXIS2_PLACEMENT_3D ( 'NONE', #253, #245, #244 ) ;
#247 = CIRCLE ( 'NONE', #246, 20.95499999999999500 ) ;
#248 = FACE_OUTER_BOUND ( 'NONE', #25, .T. ) ;
#249 = DIRECTION ( 'NONE',  ( 1.000000000000000000, 0.0000000000000000000, 0.0000000000000000000 ) ) ;
#250 = DIRECTION ( 'NONE',  ( -0.0000000000000000000, -0.0000000000000000000, 1.000000000000000000 ) ) ;
#251 = CARTESIAN_POINT ( 'NONE',  ( 0.0000000000000000000, 0.0000000000000000000, -99.15450000000001300 ) ) ;
#252 = AXIS2_PLACEMENT_3D ( 'NONE', #251, #250, #249 ) ;
#253 = CARTESIAN_POINT ( 'NONE',  ( 0.0000000000000000000, 0.0000000000000000000, -119.2682352753005700 ) ) ;
#254 = CYLINDRICAL_SURFACE ( 'NONE', #275, 19.47599999999999900 ) ;
#255 = CARTESIAN_POINT ( 'NONE',  ( 0.0000000000000000000, 1.224646799147375100E-015, -120.0000000000000700 ) ) ;
#256 = FACE_OUTER_BOUND ( 'NONE', #111, .T. ) ;
#257 = CARTESIAN_POINT ( 'NONE',  ( 2.385043334704461500E-015, -19.47599999999999200, -7.618514158036898000E-016 ) ) ;
#258 = DIRECTION ( 'NONE',  ( 1.000000000000000000, 0.0000000000000000000, 0.0000000000000000000 ) ) ;
#259 = AXIS2_PLACEMENT_3D ( 'NONE', #230, #232, #258 ) ;
#260 = CARTESIAN_POINT ( 'NONE',  ( 0.0000000000000000000, 19.47599999999998500, -98.00000000000000000 ) ) ;
#261 = CIRCLE ( 'NONE', #252, 20.95499999999999500 ) ;
#262 = CIRCLE ( 'NONE', #300, 24.14999999999999900 ) ;
#263 = DIRECTION ( 'NONE',  ( 1.000000000000000000, 0.0000000000000000000, 0.0000000000000000000 ) ) ;
#264 = DIRECTION ( 'NONE',  ( -0.0000000000000000000, -0.0000000000000000000, 1.000000000000000000 ) ) ;
#265 = CARTESIAN_POINT ( 'NONE',  ( 0.0000000000000000000, 0.0000000000000000000, 0.0000000000000000000 ) ) ;
#266 = AXIS2_PLACEMENT_3D ( 'NONE', #265, #264, #263 ) ;
#267 = CIRCLE ( 'NONE', #266, 24.14999999999999900 ) ;
#268 = CARTESIAN_POINT ( 'NONE',  ( 24.14999999999999900, 0.0000000000000000000, 0.0000000000000000000 ) ) ;
#269 = DIRECTION ( 'NONE',  ( -0.0000000000000000000, -0.0000000000000000000, 1.000000000000000000 ) ) ;
#270 = VECTOR ( 'NONE', #269, 1000.000000000000000 ) ;
#271 = CARTESIAN_POINT ( 'NONE',  ( 24.14999999999999900, 0.0000000000000000000, -4.336808689942017700E-016 ) ) ;
#272 = LINE ( 'NONE', #271, #270 ) ;
#273 = DIRECTION ( 'NONE',  ( 0.0000000000000000000, 1.000000000000000000, 0.0000000000000000000 ) ) ;
#274 = DIRECTION ( 'NONE',  ( -0.0000000000000000000, 3.911744792584156100E-017, -1.000000000000000000 ) ) ;
#275 = AXIS2_PLACEMENT_3D ( 'NONE', #255, #274, #273 ) ;
#276 = CONICAL_SURFACE ( 'NONE', #310, 20.95499999999999500, 0.9080002089392041900 ) ;
#277 = DIRECTION ( 'NONE',  ( -1.000000000000000000, 0.0000000000000000000, 0.0000000000000000000 ) ) ;
#278 = DIRECTION ( 'NONE',  ( 0.0000000000000000000, 0.0000000000000000000, -1.000000000000000000 ) ) ;
#279 = CARTESIAN_POINT ( 'NONE',  ( 0.0000000000000000000, 0.0000000000000000000, -120.0000000000000000 ) ) ;
#280 = AXIS2_PLACEMENT_3D ( 'NONE', #279, #278, #277 ) ;
#281 = FACE_OUTER_BOUND ( 'NONE', #70, .T. ) ;
#282 = CONICAL_SURFACE ( 'NONE', #280, 21.68676472469943700, 0.7853981633974624900 ) ;
#283 = FACE_OUTER_BOUND ( 'NONE', #56, .T. ) ;
#284 = DIRECTION ( 'NONE',  ( 0.0000000000000000000, 1.000000000000000000, 3.911744792584156100E-017 ) ) ;
#285 = DIRECTION ( 'NONE',  ( -0.0000000000000000000, 3.911744792584156100E-017, -1.000000000000000000 ) ) ;
#286 = CARTESIAN_POINT ( 'NONE',  ( 0.0000000000000000000, -3.469446951953615000E-015, 0.0000000000000000000 ) ) ;
#287 = AXIS2_PLACEMENT_3D ( 'NONE', #286, #285, #284 ) ;
#288 = CIRCLE ( 'NONE', #287, 19.47599999999998800 ) ;
#289 = CARTESIAN_POINT ( 'NONE',  ( 0.0000000000000000000, 19.47599999999998500, 7.618514158036898000E-016 ) ) ;
#290 = DIRECTION ( 'NONE',  ( -1.000000000000000000, 0.0000000000000000000, -0.0000000000000000000 ) ) ;
#291 = DIRECTION ( 'NONE',  ( 0.0000000000000000000, 0.0000000000000000000, -1.000000000000000000 ) ) ;
#292 = AXIS2_PLACEMENT_3D ( 'NONE', #293, #291, #290 ) ;
#293 = CARTESIAN_POINT ( 'NONE',  ( 0.0000000000000000000, 24.14999999999999900, -2.168404344971008900E-016 ) ) ;
#294 = PLANE ( 'NONE',  #292 ) ;
#295 = FACE_OUTER_BOUND ( 'NONE', #64, .T. ) ;
#296 = FACE_BOUND ( 'NONE', #62, .T. ) ;
#297 = DIRECTION ( 'NONE',  ( 1.000000000000000000, 0.0000000000000000000, 0.0000000000000000000 ) ) ;
#298 = DIRECTION ( 'NONE',  ( -0.0000000000000000000, -0.0000000000000000000, 1.000000000000000000 ) ) ;
#299 = CARTESIAN_POINT ( 'NONE',  ( 0.0000000000000000000, 0.0000000000000000000, 0.0000000000000000000 ) ) ;
#300 = AXIS2_PLACEMENT_3D ( 'NONE', #299, #298, #297 ) ;
#301 = DIRECTION ( 'NONE',  ( -1.000000000000000000, 0.0000000000000000000, 0.0000000000000000000 ) ) ;
#302 = DIRECTION ( 'NONE',  ( 0.0000000000000000000, 0.0000000000000000000, -1.000000000000000000 ) ) ;
#303 = CARTESIAN_POINT ( 'NONE',  ( 0.0000000000000000000, 0.0000000000000000000, -120.0000000000000000 ) ) ;
#304 = AXIS2_PLACEMENT_3D ( 'NONE', #303, #302, #301 ) ;
#305 = CIRCLE ( 'NONE', #190, 20.95499999999999500 ) ;
#306 = CONICAL_SURFACE ( 'NONE', #304, 21.68676472469943700, 0.7853981633974624900 ) ;
#307 = DIRECTION ( 'NONE',  ( -1.000000000000000000, 0.0000000000000000000, 0.0000000000000000000 ) ) ;
#308 = DIRECTION ( 'NONE',  ( 0.0000000000000000000, 0.0000000000000000000, -1.000000000000000000 ) ) ;
#309 = CARTESIAN_POINT ( 'NONE',  ( 0.0000000000000000000, 0.0000000000000000000, -99.15450000000001300 ) ) ;
#310 = AXIS2_PLACEMENT_3D ( 'NONE', #309, #308, #307 ) ;
#311 = FACE_OUTER_BOUND ( 'NONE', #126, .T. ) ;
#312 = CARTESIAN_POINT ( 'NONE',  ( -20.95499999999999500, 2.566162614434790800E-015, -119.2682352753005700 ) ) ;
#313 = CARTESIAN_POINT ( 'NONE',  ( -19.47599999999998500, 0.0000000000000000000, -98.00000000000000000 ) ) ;
#314 = DIRECTION ( 'NONE',  ( -0.7882747985675384600, 0.0000000000000000000, -0.6153233637229343900 ) ) ;
#315 = VECTOR ( 'NONE', #314, 1000.000000000000200 ) ;
#316 = CARTESIAN_POINT ( 'NONE',  ( -20.95499999999999500, 0.0000000000000000000, -99.15450000000001300 ) ) ;
#317 = DIRECTION ( 'NONE',  ( 1.000000000000000000, 0.0000000000000000000, 0.0000000000000000000 ) ) ;
#318 = DIRECTION ( 'NONE',  ( -0.0000000000000000000, -0.0000000000000000000, 1.000000000000000000 ) ) ;
#319 = CARTESIAN_POINT ( 'NONE',  ( 0.0000000000000000000, 0.0000000000000000000, -98.00000000000000000 ) ) ;
#320 = AXIS2_PLACEMENT_3D ( 'NONE', #319, #318, #317 ) ;
#321 = CIRCLE ( 'NONE', #320, 19.47599999999998500 ) ;
#322 = LINE ( 'NONE', #316, #315 ) ;
#323 = CARTESIAN_POINT ( 'NONE',  ( 21.68676472469943700, 2.655774987571792700E-015, -120.0000000000000000 ) ) ;
#324 = DIRECTION ( 'NONE',  ( 0.7071067811865575600, 8.659274570719478700E-017, -0.7071067811865374700 ) ) ;
#325 = VECTOR ( 'NONE', #324, 1000.000000000000000 ) ;
#326 = CARTESIAN_POINT ( 'NONE',  ( 21.68676472469943700, 2.655774987571792700E-015, -120.0000000000000000 ) ) ;
#327 = LINE ( 'NONE', #326, #325 ) ;
#328 = LINE ( 'NONE', #194, #188 ) ;
#329 = SECURITY_CLASSIFICATION ( '', '', #203 ) ;
#330 = CARTESIAN_POINT ( 'NONE',  ( 20.95499999999999500, 0.0000000000000000000, -99.15450000000001300 ) ) ;
#331 = DIRECTION ( 'NONE',  ( 1.000000000000000000, 0.0000000000000000000, 0.0000000000000000000 ) ) ;
#332 = DIRECTION ( 'NONE',  ( -0.0000000000000000000, -0.0000000000000000000, 1.000000000000000000 ) ) ;
#333 = CARTESIAN_POINT ( 'NONE',  ( 0.0000000000000000000, 0.0000000000000000000, -99.15450000000001300 ) ) ;
#334 = AXIS2_PLACEMENT_3D ( 'NONE', #333, #332, #331 ) ;
#335 = CIRCLE ( 'NONE', #334, 20.95499999999999500 ) ;
#336 = CARTESIAN_POINT ( 'NONE',  ( 19.47599999999998500, 2.475602974569625200E-015, -98.00000000000000000 ) ) ;
#337 = DIRECTION ( 'NONE',  ( 1.000000000000000000, 0.0000000000000000000, 0.0000000000000000000 ) ) ;
#338 = DIRECTION ( 'NONE',  ( -0.0000000000000000000, -0.0000000000000000000, 1.000000000000000000 ) ) ;
#339 = CARTESIAN_POINT ( 'NONE',  ( 0.0000000000000000000, 0.0000000000000000000, -98.00000000000000000 ) ) ;
#340 = AXIS2_PLACEMENT_3D ( 'NONE', #339, #338, #337 ) ;
#341 = CIRCLE ( 'NONE', #340, 19.47599999999998500 ) ;
#342 = CARTESIAN_POINT ( 'NONE',  ( 20.95499999999999500, 0.0000000000000000000, -119.2682352753005700 ) ) ;
#343 = CARTESIAN_POINT ( 'NONE',  ( 2.385043334704461100E-015, -19.47599999999998500, -98.00000000000000000 ) ) ;
#344 = DIRECTION ( 'NONE',  ( 0.0000000000000000000, 0.0000000000000000000, -1.000000000000000000 ) ) ;
#345 = DIRECTION ( 'NONE',  ( -1.000000000000000000, 0.0000000000000000000, 0.0000000000000000000 ) ) ;
#346 = FACE_OUTER_BOUND ( 'NONE', #116, .T. ) ;
#347 = AXIS2_PLACEMENT_3D ( 'NONE', #349, #344, #345 ) ;
#348 = CONICAL_SURFACE ( 'NONE', #347, 20.95499999999999500, 0.9080002089392041900 ) ;
#349 = CARTESIAN_POINT ( 'NONE',  ( 0.0000000000000000000, 0.0000000000000000000, -99.15450000000001300 ) ) ;
#350 = CC_DESIGN_PERSON_AND_ORGANIZATION_ASSIGNMENT ( #205, #207, ( #329 ) ) ;
#351 = FACE_OUTER_BOUND ( 'NONE', #110, .T. ) ;
#352 = CARTESIAN_POINT ( 'NONE',  ( -20.95499999999999500, 2.566162614434790800E-015, -99.15450000000001300 ) ) ;
#353 = DIRECTION ( 'NONE',  ( 1.000000000000000000, 0.0000000000000000000, 0.0000000000000000000 ) ) ;
#354 = DIRECTION ( 'NONE',  ( -0.0000000000000000000, -0.0000000000000000000, 1.000000000000000000 ) ) ;
#355 = PRODUCT_DEFINITION_FORMATION_WITH_SPECIFIED_SOURCE ( 'ANY', '', #415, .NOT_KNOWN. ) ;
#356 = CIRCLE ( 'NONE', #358, 24.14999999999999900 ) ;
#357 = CARTESIAN_POINT ( 'NONE',  ( 0.0000000000000000000, 0.0000000000000000000, -120.0000000000000000 ) ) ;
#358 = AXIS2_PLACEMENT_3D ( 'NONE', #357, #354, #353 ) ;
#359 = LINE ( 'NONE', #365, #395 ) ;
#360 = DIRECTION ( 'NONE',  ( 1.000000000000000000, 0.0000000000000000000, 0.0000000000000000000 ) ) ;
#361 = CIRCLE ( 'NONE', #367, 24.14999999999999900 ) ;
#362 = CARTESIAN_POINT ( 'NONE',  ( 0.0000000000000000000, 0.0000000000000000000, -120.0000000000000000 ) ) ;
#363 = VECTOR ( 'NONE', #366, 1000.000000000000000 ) ;
#364 = CARTESIAN_POINT ( 'NONE',  ( 2.385043334704461900E-015, -19.47599999999999900, -120.0000000000000700 ) ) ;
#365 = CARTESIAN_POINT ( 'NONE',  ( 20.95499999999999500, 0.0000000000000000000, -4.336808689942017700E-016 ) ) ;
#366 = DIRECTION ( 'NONE',  ( -0.0000000000000000000, 3.911744792584156100E-017, -1.000000000000000000 ) ) ;
#367 = AXIS2_PLACEMENT_3D ( 'NONE', #362, #370, #369 ) ;
#368 = LINE ( 'NONE', #364, #363 ) ;
#369 = DIRECTION ( 'NONE',  ( 1.000000000000000000, 0.0000000000000000000, 0.0000000000000000000 ) ) ;
#370 = DIRECTION ( 'NONE',  ( -0.0000000000000000000, -0.0000000000000000000, 1.000000000000000000 ) ) ;
#371 = CIRCLE ( 'NONE', #373, 19.47599999999998500 ) ;
#372 = DIRECTION ( 'NONE',  ( 1.000000000000000000, 0.0000000000000000000, 0.0000000000000000000 ) ) ;
#373 = AXIS2_PLACEMENT_3D ( 'NONE', #374, #375, #372 ) ;
#374 = CARTESIAN_POINT ( 'NONE',  ( 0.0000000000000000000, 0.0000000000000000000, -98.00000000000000000 ) ) ;
#375 = DIRECTION ( 'NONE',  ( -0.0000000000000000000, -0.0000000000000000000, 1.000000000000000000 ) ) ;
#376 = DIRECTION ( 'NONE',  ( -0.0000000000000000000, -0.0000000000000000000, 1.000000000000000000 ) ) ;
#377 = DIRECTION ( 'NONE',  ( 0.0000000000000000000, -0.0000000000000000000, 1.000000000000000000 ) ) ;
#378 = CARTESIAN_POINT ( 'NONE',  ( 0.0000000000000000000, 24.14999999999999900, -120.0000000000000000 ) ) ;
#379 = AXIS2_PLACEMENT_3D ( 'NONE', #378, #377, #360 ) ;
#380 = DIRECTION ( 'NONE',  ( -0.0000000000000000000, 3.911744792584156100E-017, -1.000000000000000000 ) ) ;
#381 = VECTOR ( 'NONE', #380, 1000.000000000000000 ) ;
#382 = PLANE ( 'NONE',  #379 ) ;
#383 = DIRECTION ( 'NONE',  ( 1.000000000000000000, 0.0000000000000000000, 0.0000000000000000000 ) ) ;
#384 = DIRECTION ( 'NONE',  ( -0.0000000000000000000, -0.0000000000000000000, 1.000000000000000000 ) ) ;
#385 = CARTESIAN_POINT ( 'NONE',  ( 0.0000000000000000000, 0.0000000000000000000, -4.336808689942017700E-016 ) ) ;
#386 = AXIS2_PLACEMENT_3D ( 'NONE', #385, #384, #383 ) ;
#387 = FACE_BOUND ( 'NONE', #39, .T. ) ;
#388 = FACE_OUTER_BOUND ( 'NONE', #133, .T. ) ;
#389 = CYLINDRICAL_SURFACE ( 'NONE', #386, 24.14999999999999900 ) ;
#390 = FACE_OUTER_BOUND ( 'NONE', #77, .T. ) ;
#391 = DIRECTION ( 'NONE',  ( -0.0000000000000000000, -0.0000000000000000000, 1.000000000000000000 ) ) ;
#392 = VECTOR ( 'NONE', #391, 1000.000000000000000 ) ;
#393 = CARTESIAN_POINT ( 'NONE',  ( -20.95499999999999500, 2.566162614434790800E-015, -4.336808689942017700E-016 ) ) ;
#394 = LINE ( 'NONE', #393, #392 ) ;
#395 = VECTOR ( 'NONE', #376, 1000.000000000000000 ) ;
#396 = CIRCLE ( 'NONE', #401, 19.47599999999998800 ) ;
#397 = CARTESIAN_POINT ( 'NONE',  ( 0.0000000000000000000, 19.47599999999999900, -120.0000000000000700 ) ) ;
#398 = DIRECTION ( 'NONE',  ( 0.0000000000000000000, 1.000000000000000000, 3.911744792584156100E-017 ) ) ;
#399 = DIRECTION ( 'NONE',  ( -0.0000000000000000000, 3.911744792584156100E-017, -1.000000000000000000 ) ) ;
#400 = LINE ( 'NONE', #397, #381 ) ;
#401 = AXIS2_PLACEMENT_3D ( 'NONE', #402, #399, #398 ) ;
#402 = CARTESIAN_POINT ( 'NONE',  ( 0.0000000000000000000, -3.469446951953615000E-015, 0.0000000000000000000 ) ) ;
#403 = CARTESIAN_POINT ( 'NONE',  ( 0.0000000000000000000, 0.0000000000000000000, 0.0000000000000000000 ) ) ;
#404 = UNCERTAINTY_MEASURE_WITH_UNIT (LENGTH_MEASURE( 1.000000000000000100E-005 ), #408, 'distance_accuracy_value', 'NONE');
#405 = APPLICATION_PROTOCOL_DEFINITION ( 'international standard', 'config_control_design', 1994, #410 ) ;
#406 = AXIS2_PLACEMENT_3D ( 'NONE', #403, #414, #413 ) ;
#407 =( GEOMETRIC_REPRESENTATION_CONTEXT ( 3 ) GLOBAL_UNCERTAINTY_ASSIGNED_CONTEXT ( ( #404 ) ) GLOBAL_UNIT_ASSIGNED_CONTEXT ( ( #408, #412, #409 ) ) REPRESENTATION_CONTEXT ( 'NONE', 'WORKASPACE' ) );
#408 =( LENGTH_UNIT ( ) NAMED_UNIT ( * ) SI_UNIT ( .MILLI., .METRE. ) );
#409 =( NAMED_UNIT ( * ) SI_UNIT ( $, .STERADIAN. ) SOLID_ANGLE_UNIT ( ) );
#410 = APPLICATION_CONTEXT ( 'configuration controlled 3d designs of mechanical parts and assemblies' ) ;
#411 = ADVANCED_BREP_SHAPE_REPRESENTATION ( '19-0408-07_outokumpu', ( #82, #406 ), #407 ) ;
#412 =( NAMED_UNIT ( * ) PLANE_ANGLE_UNIT ( ) SI_UNIT ( $, .RADIAN. ) );
#413 = DIRECTION ( 'NONE',  ( 1.000000000000000000, 0.0000000000000000000, 0.0000000000000000000 ) ) ;
#414 = DIRECTION ( 'NONE',  ( 0.0000000000000000000, 0.0000000000000000000, 1.000000000000000000 ) ) ;
#415 = PRODUCT ( '19-0408-07_outokumpu', '19-0408-07_outokumpu', '', ( #416 ) ) ;
#416 = MECHANICAL_CONTEXT ( 'NONE', #410, 'mechanical' ) ;
#417 = PERSON ( 'UNSPECIFIED', 'UNSPECIFIED', 'UNSPECIFIED', ('UNSPECIFIED'), ('UNSPECIFIED'), ('UNSPECIFIED') ) ;
#418 = PRODUCT_DEFINITION ( 'UNKNOWN', '', #355, #419 ) ;
#419 = DESIGN_CONTEXT ( 'detailed design', #17, 'design' ) ;
ENDSEC;
END-ISO-10303-21;
