ISO-10303-21;
HEADER;
FILE_DESCRIPTION (( 'STEP AP203' ),
    '1' );
FILE_NAME ('12-0201-08_outokumpu.step',
    '2015-08-12T08:14:08',
    ( '' ),
    ( '' ),
    'SwSTEP 2.0',
    'SolidWorks 2008',
    '' );
FILE_SCHEMA (( 'CONFIG_CONTROL_DESIGN' ));
ENDSEC;

DATA;
#1 = ORIENTED_EDGE ( 'NONE', *, *, #42, .T. ) ;
#2 = EDGE_CURVE ( 'NONE', #16, #23, #113, .T. ) ;
#3 = ORIENTED_EDGE ( 'NONE', *, *, #11, .T. ) ;
#4 = ORIENTED_EDGE ( 'NONE', *, *, #2, .F. ) ;
#5 = EDGE_CURVE ( 'NONE', #50, #26, #81, .T. ) ;
#6 = ORIENTED_EDGE ( 'NONE', *, *, #11, .F. ) ;
#7 = VERTEX_POINT ( 'NONE', #77 ) ;
#8 = EDGE_CURVE ( 'NONE', #27, #35, #75, .T. ) ;
#9 = ORIENTED_EDGE ( 'NONE', *, *, #49, .F. ) ;
#10 = ORIENTED_EDGE ( 'NONE', *, *, #12, .T. ) ;
#11 = EDGE_CURVE ( 'NONE', #47, #46, #69, .T. ) ;
#12 = EDGE_CURVE ( 'NONE', #46, #108, #70, .T. ) ;
#13 = ADVANCED_FACE ( 'NONE', ( #62 ), #267, .T. ) ;
#14 = ADVANCED_FACE ( 'NONE', ( #265 ), #262, .F. ) ;
#15 = EDGE_LOOP ( 'NONE', ( #9, #3, #10, #106 ) ) ;
#16 = VERTEX_POINT ( 'NONE', #288 ) ;
#17 = EDGE_CURVE ( 'NONE', #30, #7, #187, .T. ) ;
#18 = VERTEX_POINT ( 'NONE', #146 ) ;
#19 = ORIENTED_EDGE ( 'NONE', *, *, #34, .F. ) ;
#20 = ORIENTED_EDGE ( 'NONE', *, *, #28, .F. ) ;
#21 = EDGE_LOOP ( 'NONE', ( #4, #24, #36, #38 ) ) ;
#22 = EDGE_LOOP ( 'NONE', ( #19, #43, #1, #32 ) ) ;
#23 = VERTEX_POINT ( 'NONE', #145 ) ;
#24 = ORIENTED_EDGE ( 'NONE', *, *, #25, .T. ) ;
#25 = EDGE_CURVE ( 'NONE', #16, #35, #285, .T. ) ;
#26 = VERTEX_POINT ( 'NONE', #281 ) ;
#27 = VERTEX_POINT ( 'NONE', #280 ) ;
#28 = EDGE_CURVE ( 'NONE', #53, #26, #272, .T. ) ;
#29 = VERTEX_POINT ( 'NONE', #268 ) ;
#30 = VERTEX_POINT ( 'NONE', #216 ) ;
#31 = ADVANCED_FACE ( 'NONE', ( #215 ), #213, .F. ) ;
#32 = ORIENTED_EDGE ( 'NONE', *, *, #33, .F. ) ;
#33 = EDGE_CURVE ( 'NONE', #29, #18, #276, .T. ) ;
#34 = EDGE_CURVE ( 'NONE', #30, #29, #212, .T. ) ;
#35 = VERTEX_POINT ( 'NONE', #207 ) ;
#36 = ORIENTED_EDGE ( 'NONE', *, *, #37, .T. ) ;
#37 = EDGE_CURVE ( 'NONE', #35, #27, #205, .T. ) ;
#38 = ORIENTED_EDGE ( 'NONE', *, *, #39, .F. ) ;
#39 = EDGE_CURVE ( 'NONE', #23, #27, #206, .T. ) ;
#40 = ADVANCED_FACE ( 'NONE', ( #261 ), #260, .T. ) ;
#41 = EDGE_LOOP ( 'NONE', ( #44, #48, #86, #85 ) ) ;
#42 = EDGE_CURVE ( 'NONE', #7, #18, #255, .T. ) ;
#43 = ORIENTED_EDGE ( 'NONE', *, *, #17, .T. ) ;
#44 = ORIENTED_EDGE ( 'NONE', *, *, #45, .T. ) ;
#45 = EDGE_CURVE ( 'NONE', #46, #47, #250, .T. ) ;
#46 = VERTEX_POINT ( 'NONE', #245 ) ;
#47 = VERTEX_POINT ( 'NONE', #244 ) ;
#48 = ORIENTED_EDGE ( 'NONE', *, *, #49, .T. ) ;
#49 = EDGE_CURVE ( 'NONE', #47, #59, #243, .T. ) ;
#50 = VERTEX_POINT ( 'NONE', #161 ) ;
#51 = ORIENTED_EDGE ( 'NONE', *, *, #61, .T. ) ;
#52 = EDGE_CURVE ( 'NONE', #54, #53, #160, .T. ) ;
#53 = VERTEX_POINT ( 'NONE', #155 ) ;
#54 = VERTEX_POINT ( 'NONE', #154 ) ;
#55 = ORIENTED_EDGE ( 'NONE', *, *, #52, .F. ) ;
#56 = MANIFOLD_SOLID_BREP ( 'NONE', #99 ) ;
#57 = EDGE_LOOP ( 'NONE', ( #55, #51, #60, #20 ) ) ;
#58 = ADVANCED_FACE ( 'NONE', ( #153 ), #150, .F. ) ;
#59 = VERTEX_POINT ( 'NONE', #151 ) ;
#60 = ORIENTED_EDGE ( 'NONE', *, *, #5, .T. ) ;
#61 = EDGE_CURVE ( 'NONE', #54, #50, #197, .T. ) ;
#62 = FACE_OUTER_BOUND ( 'NONE', #15, .T. ) ;
#63 = DIRECTION ( 'NONE',  ( -0.0000000000000000000, -0.0000000000000000000, 1.000000000000000000 ) ) ;
#64 = VECTOR ( 'NONE', #63, 1000.000000000000000 ) ;
#65 = CARTESIAN_POINT ( 'NONE',  ( 13.25000000000000200, 0.0000000000000000000, -4.336808689942017700E-016 ) ) ;
#66 = DIRECTION ( 'NONE',  ( 1.000000000000000000, 0.0000000000000000000, 0.0000000000000000000 ) ) ;
#67 = DIRECTION ( 'NONE',  ( -0.0000000000000000000, -0.0000000000000000000, 1.000000000000000000 ) ) ;
#68 = AXIS2_PLACEMENT_3D ( 'NONE', #76, #67, #66 ) ;
#69 = CIRCLE ( 'NONE', #68, 13.25000000000000200 ) ;
#70 = LINE ( 'NONE', #65, #64 ) ;
#71 = DIRECTION ( 'NONE',  ( 0.0000000000000000000, 1.000000000000000000, 0.0000000000000000000 ) ) ;
#72 = DIRECTION ( 'NONE',  ( -0.0000000000000000000, 1.360590117175761900E-016, -1.000000000000000000 ) ) ;
#73 = CARTESIAN_POINT ( 'NONE',  ( 0.0000000000000000000, 6.123233995736707100E-016, -30.00000000000000000 ) ) ;
#74 = AXIS2_PLACEMENT_3D ( 'NONE', #73, #72, #71 ) ;
#75 = CIRCLE ( 'NONE', #74, 10.80000000000000100 ) ;
#76 = CARTESIAN_POINT ( 'NONE',  ( 0.0000000000000000000, 0.0000000000000000000, -30.00000000000000400 ) ) ;
#77 = CARTESIAN_POINT ( 'NONE',  ( 1.322574862128167300E-015, -10.79999999999999900, -10.00000000000000400 ) ) ;
#78 = DIRECTION ( 'NONE',  ( 0.0000000000000000000, 1.000000000000000000, 0.0000000000000000000 ) ) ;
#79 = DIRECTION ( 'NONE',  ( -0.0000000000000000000, 1.360590117175761900E-016, -1.000000000000000000 ) ) ;
#80 = AXIS2_PLACEMENT_3D ( 'NONE', #114, #79, #78 ) ;
#81 = CIRCLE ( 'NONE', #80, 9.450000000000001100 ) ;
#82 = DIRECTION ( 'NONE',  ( 0.0000000000000000000, 1.000000000000000000, 0.0000000000000000000 ) ) ;
#83 = ORIENTED_EDGE ( 'NONE', *, *, #37, .F. ) ;
#84 = ORIENTED_EDGE ( 'NONE', *, *, #45, .F. ) ;
#85 = ORIENTED_EDGE ( 'NONE', *, *, #12, .F. ) ;
#86 = ORIENTED_EDGE ( 'NONE', *, *, #105, .F. ) ;
#87 = ORIENTED_EDGE ( 'NONE', *, *, #91, .F. ) ;
#88 = ORIENTED_EDGE ( 'NONE', *, *, #42, .F. ) ;
#89 = ORIENTED_EDGE ( 'NONE', *, *, #33, .T. ) ;
#90 = EDGE_LOOP ( 'NONE', ( #126, #128 ) ) ;
#91 = EDGE_CURVE ( 'NONE', #18, #7, #192, .T. ) ;
#92 = EDGE_LOOP ( 'NONE', ( #87, #88 ) ) ;
#93 = ADVANCED_FACE ( 'NONE', ( #193, #241 ), #240, .F. ) ;
#94 = ORIENTED_EDGE ( 'NONE', *, *, #119, .F. ) ;
#95 = ORIENTED_EDGE ( 'NONE', *, *, #5, .F. ) ;
#96 = EDGE_LOOP ( 'NONE', ( #97, #98 ) ) ;
#97 = ORIENTED_EDGE ( 'NONE', *, *, #134, .T. ) ;
#98 = ORIENTED_EDGE ( 'NONE', *, *, #2, .T. ) ;
#99 = CLOSED_SHELL ( 'NONE', ( #58, #31, #14, #40, #13, #102, #137, #144, #131, #101, #129, #93 ) ) ;
#100 = ORIENTED_EDGE ( 'NONE', *, *, #91, .T. ) ;
#101 = ADVANCED_FACE ( 'NONE', ( #234, #233 ), #238, .F. ) ;
#102 = ADVANCED_FACE ( 'NONE', ( #227, #226 ), #231, .F. ) ;
#103 = ORIENTED_EDGE ( 'NONE', *, *, #8, .F. ) ;
#104 = EDGE_LOOP ( 'NONE', ( #84, #6 ) ) ;
#105 = EDGE_CURVE ( 'NONE', #108, #59, #220, .T. ) ;
#106 = ORIENTED_EDGE ( 'NONE', *, *, #140, .F. ) ;
#107 = EDGE_LOOP ( 'NONE', ( #103, #83 ) ) ;
#108 = VERTEX_POINT ( 'NONE', #174 ) ;
#109 = EDGE_LOOP ( 'NONE', ( #132, #133, #125, #123 ) ) ;
#110 = DIRECTION ( 'NONE',  ( -0.0000000000000000000, 1.360590117175761900E-016, -1.000000000000000000 ) ) ;
#111 = CARTESIAN_POINT ( 'NONE',  ( 0.0000000000000000000, -7.482667176020913500E-016, -19.99999999999999600 ) ) ;
#112 = AXIS2_PLACEMENT_3D ( 'NONE', #111, #110, #82 ) ;
#113 = CIRCLE ( 'NONE', #112, 10.79999999999999500 ) ;
#114 = CARTESIAN_POINT ( 'NONE',  ( 0.0000000000000000000, -7.482667176020909500E-016, -20.00000000000000400 ) ) ;
#115 = ORIENTED_EDGE ( 'NONE', *, *, #61, .F. ) ;
#116 = ORIENTED_EDGE ( 'NONE', *, *, #127, .F. ) ;
#117 = ORIENTED_EDGE ( 'NONE', *, *, #28, .T. ) ;
#118 = ORIENTED_EDGE ( 'NONE', *, *, #119, .T. ) ;
#119 = EDGE_CURVE ( 'NONE', #26, #50, #172, .T. ) ;
#120 = EDGE_LOOP ( 'NONE', ( #94, #95 ) ) ;
#121 = EDGE_LOOP ( 'NONE', ( #124, #122, #89, #100 ) ) ;
#122 = ORIENTED_EDGE ( 'NONE', *, *, #135, .F. ) ;
#123 = ORIENTED_EDGE ( 'NONE', *, *, #8, .T. ) ;
#124 = ORIENTED_EDGE ( 'NONE', *, *, #17, .F. ) ;
#125 = ORIENTED_EDGE ( 'NONE', *, *, #39, .T. ) ;
#126 = ORIENTED_EDGE ( 'NONE', *, *, #127, .T. ) ;
#127 = EDGE_CURVE ( 'NONE', #53, #54, #167, .T. ) ;
#128 = ORIENTED_EDGE ( 'NONE', *, *, #52, .T. ) ;
#129 = ADVANCED_FACE ( 'NONE', ( #181 ), #180, .F. ) ;
#130 = EDGE_LOOP ( 'NONE', ( #115, #116, #117, #118 ) ) ;
#131 = ADVANCED_FACE ( 'NONE', ( #179 ), #311, .F. ) ;
#132 = ORIENTED_EDGE ( 'NONE', *, *, #25, .F. ) ;
#133 = ORIENTED_EDGE ( 'NONE', *, *, #134, .F. ) ;
#134 = EDGE_CURVE ( 'NONE', #23, #16, #301, .T. ) ;
#135 = EDGE_CURVE ( 'NONE', #29, #30, #309, .T. ) ;
#136 = ORIENTED_EDGE ( 'NONE', *, *, #34, .T. ) ;
#137 = ADVANCED_FACE ( 'NONE', ( #310, #305 ), #304, .F. ) ;
#138 = EDGE_LOOP ( 'NONE', ( #139, #136 ) ) ;
#139 = ORIENTED_EDGE ( 'NONE', *, *, #135, .T. ) ;
#140 = EDGE_CURVE ( 'NONE', #59, #108, #295, .T. ) ;
#141 = EDGE_LOOP ( 'NONE', ( #142, #143 ) ) ;
#142 = ORIENTED_EDGE ( 'NONE', *, *, #105, .T. ) ;
#143 = ORIENTED_EDGE ( 'NONE', *, *, #140, .T. ) ;
#144 = ADVANCED_FACE ( 'NONE', ( #296 ), #319, .F. ) ;
#145 = CARTESIAN_POINT ( 'NONE',  ( 0.0000000000000000000, 10.79999999999999500, -19.99999999999999600 ) ) ;
#146 = CARTESIAN_POINT ( 'NONE',  ( 0.0000000000000000000, 10.79999999999999500, -10.00000000000000000 ) ) ;
#147 = DIRECTION ( 'NONE',  ( 0.0000000000000000000, 1.000000000000000000, 0.0000000000000000000 ) ) ;
#148 = DIRECTION ( 'NONE',  ( -0.0000000000000000000, 1.360590117175761900E-016, -1.000000000000000000 ) ) ;
#149 = AXIS2_PLACEMENT_3D ( 'NONE', #152, #148, #147 ) ;
#150 = CYLINDRICAL_SURFACE ( 'NONE', #149, 9.449999999999999300 ) ;
#151 = CARTESIAN_POINT ( 'NONE',  ( -13.25000000000000000, 1.622603418814649900E-015, 0.0000000000000000000 ) ) ;
#152 = CARTESIAN_POINT ( 'NONE',  ( 0.0000000000000000000, 6.123233995736752500E-016, -30.00000000000003200 ) ) ;
#153 = FACE_OUTER_BOUND ( 'NONE', #57, .T. ) ;
#154 = CARTESIAN_POINT ( 'NONE',  ( 1.157253004362147300E-015, -9.450000000000002800, -10.00000000000000000 ) ) ;
#155 = CARTESIAN_POINT ( 'NONE',  ( 0.0000000000000000000, 9.450000000000001100, -9.999999999999996400 ) ) ;
#156 = DIRECTION ( 'NONE',  ( 0.0000000000000000000, 1.000000000000000000, 1.835686217964874800E-016 ) ) ;
#157 = DIRECTION ( 'NONE',  ( -0.0000000000000000000, 1.360590117175761900E-016, -1.000000000000000000 ) ) ;
#158 = CARTESIAN_POINT ( 'NONE',  ( 0.0000000000000000000, -2.108856834777853500E-015, -9.999999999999998200 ) ) ;
#159 = AXIS2_PLACEMENT_3D ( 'NONE', #158, #157, #156 ) ;
#160 = CIRCLE ( 'NONE', #159, 9.450000000000002800 ) ;
#161 = CARTESIAN_POINT ( 'NONE',  ( 1.157253004362146900E-015, -9.450000000000001100, -20.00000000000000400 ) ) ;
#162 = DIRECTION ( 'NONE',  ( -0.0000000000000000000, -0.0000000000000000000, 1.000000000000000000 ) ) ;
#163 = VECTOR ( 'NONE', #162, 1000.000000000000000 ) ;
#164 = CARTESIAN_POINT ( 'NONE',  ( -13.25000000000000200, 1.622603418814650100E-015, -4.336808689942017700E-016 ) ) ;
#165 = DIRECTION ( 'NONE',  ( 1.000000000000000000, 0.0000000000000000000, 0.0000000000000000000 ) ) ;
#166 = AXIS2_PLACEMENT_3D ( 'NONE', #173, #183, #182 ) ;
#167 = CIRCLE ( 'NONE', #166, 9.450000000000002800 ) ;
#168 = DIRECTION ( 'NONE',  ( 0.0000000000000000000, 1.000000000000000000, 0.0000000000000000000 ) ) ;
#169 = DIRECTION ( 'NONE',  ( -0.0000000000000000000, 1.360590117175761900E-016, -1.000000000000000000 ) ) ;
#170 = CARTESIAN_POINT ( 'NONE',  ( 0.0000000000000000000, -7.482667176020909500E-016, -20.00000000000000400 ) ) ;
#171 = AXIS2_PLACEMENT_3D ( 'NONE', #170, #169, #168 ) ;
#172 = CIRCLE ( 'NONE', #171, 9.450000000000001100 ) ;
#173 = CARTESIAN_POINT ( 'NONE',  ( 0.0000000000000000000, -2.108856834777853500E-015, -9.999999999999998200 ) ) ;
#174 = CARTESIAN_POINT ( 'NONE',  ( 13.25000000000000000, 0.0000000000000000000, 0.0000000000000000000 ) ) ;
#175 = DIRECTION ( 'NONE',  ( 0.0000000000000000000, 1.000000000000000000, 0.0000000000000000000 ) ) ;
#176 = DIRECTION ( 'NONE',  ( -0.0000000000000000000, 1.360590117175761900E-016, -1.000000000000000000 ) ) ;
#177 = CARTESIAN_POINT ( 'NONE',  ( 0.0000000000000000000, 6.123233995736752500E-016, -30.00000000000003200 ) ) ;
#178 = AXIS2_PLACEMENT_3D ( 'NONE', #177, #176, #175 ) ;
#179 = FACE_OUTER_BOUND ( 'NONE', #121, .T. ) ;
#180 = CYLINDRICAL_SURFACE ( 'NONE', #178, 9.449999999999999300 ) ;
#181 = FACE_OUTER_BOUND ( 'NONE', #130, .T. ) ;
#182 = DIRECTION ( 'NONE',  ( 0.0000000000000000000, 1.000000000000000000, 1.835686217964874800E-016 ) ) ;
#183 = DIRECTION ( 'NONE',  ( -0.0000000000000000000, 1.360590117175761900E-016, -1.000000000000000000 ) ) ;
#184 = DIRECTION ( 'NONE',  ( -0.0000000000000000000, 1.360590117175761900E-016, -1.000000000000000000 ) ) ;
#185 = VECTOR ( 'NONE', #184, 1000.000000000000000 ) ;
#186 = CARTESIAN_POINT ( 'NONE',  ( 1.322574862128167500E-015, -10.80000000000000100, -30.00000000000003200 ) ) ;
#187 = LINE ( 'NONE', #186, #185 ) ;
#188 = DIRECTION ( 'NONE',  ( 0.0000000000000000000, 1.000000000000000000, 1.606225440719266400E-016 ) ) ;
#189 = DIRECTION ( 'NONE',  ( -0.0000000000000000000, 1.360590117175761900E-016, -1.000000000000000000 ) ) ;
#190 = CARTESIAN_POINT ( 'NONE',  ( 0.0000000000000000000, -2.108856834777853100E-015, -10.00000000000000200 ) ) ;
#191 = AXIS2_PLACEMENT_3D ( 'NONE', #190, #189, #188 ) ;
#192 = CIRCLE ( 'NONE', #191, 10.79999999999999700 ) ;
#193 = FACE_BOUND ( 'NONE', #120, .T. ) ;
#194 = DIRECTION ( 'NONE',  ( -0.0000000000000000000, 1.360590117175761900E-016, -1.000000000000000000 ) ) ;
#195 = VECTOR ( 'NONE', #194, 1000.000000000000000 ) ;
#196 = CARTESIAN_POINT ( 'NONE',  ( 1.157253004362146700E-015, -9.449999999999999300, -30.00000000000003200 ) ) ;
#197 = LINE ( 'NONE', #196, #195 ) ;
#198 = DIRECTION ( 'NONE',  ( -0.0000000000000000000, 1.360590117175761900E-016, -1.000000000000000000 ) ) ;
#199 = VECTOR ( 'NONE', #198, 1000.000000000000000 ) ;
#200 = CARTESIAN_POINT ( 'NONE',  ( 0.0000000000000000000, 10.79999999999999700, -30.00000000000003200 ) ) ;
#201 = DIRECTION ( 'NONE',  ( 0.0000000000000000000, 1.000000000000000000, 0.0000000000000000000 ) ) ;
#202 = DIRECTION ( 'NONE',  ( -0.0000000000000000000, 1.360590117175761900E-016, -1.000000000000000000 ) ) ;
#203 = CARTESIAN_POINT ( 'NONE',  ( 0.0000000000000000000, 6.123233995736707100E-016, -30.00000000000000000 ) ) ;
#204 = AXIS2_PLACEMENT_3D ( 'NONE', #203, #202, #201 ) ;
#205 = CIRCLE ( 'NONE', #204, 10.80000000000000100 ) ;
#206 = LINE ( 'NONE', #200, #199 ) ;
#207 = CARTESIAN_POINT ( 'NONE',  ( 1.322574862128167500E-015, -10.79999999999999900, -30.00000000000000000 ) ) ;
#208 = DIRECTION ( 'NONE',  ( 0.0000000000000000000, 1.000000000000000000, 1.360590117175761900E-016 ) ) ;
#209 = DIRECTION ( 'NONE',  ( -0.0000000000000000000, 1.360590117175761900E-016, -1.000000000000000000 ) ) ;
#210 = CARTESIAN_POINT ( 'NONE',  ( 0.0000000000000000000, -3.469446951953615000E-015, 0.0000000000000000000 ) ) ;
#211 = AXIS2_PLACEMENT_3D ( 'NONE', #210, #209, #208 ) ;
#212 = CIRCLE ( 'NONE', #211, 10.80000000000000400 ) ;
#213 = CYLINDRICAL_SURFACE ( 'NONE', #279, 10.80000000000000100 ) ;
#214 = CARTESIAN_POINT ( 'NONE',  ( 0.0000000000000000000, 6.123233995736752500E-016, -30.00000000000003200 ) ) ;
#215 = FACE_OUTER_BOUND ( 'NONE', #22, .T. ) ;
#216 = CARTESIAN_POINT ( 'NONE',  ( 1.322574862128167900E-015, -10.80000000000000600, -1.469437326549823300E-015 ) ) ;
#217 = DIRECTION ( 'NONE',  ( 1.000000000000000000, 0.0000000000000000000, 0.0000000000000000000 ) ) ;
#218 = DIRECTION ( 'NONE',  ( -0.0000000000000000000, -0.0000000000000000000, 1.000000000000000000 ) ) ;
#219 = AXIS2_PLACEMENT_3D ( 'NONE', #224, #218, #217 ) ;
#220 = CIRCLE ( 'NONE', #219, 13.25000000000000000 ) ;
#221 = DIRECTION ( 'NONE',  ( 1.000000000000000000, 0.0000000000000000000, 0.0000000000000000000 ) ) ;
#222 = DIRECTION ( 'NONE',  ( 0.0000000000000000000, -0.0000000000000000000, 1.000000000000000000 ) ) ;
#223 = CARTESIAN_POINT ( 'NONE',  ( 0.0000000000000000000, 13.25000000000000200, -30.00000000000000000 ) ) ;
#224 = CARTESIAN_POINT ( 'NONE',  ( 0.0000000000000000000, 0.0000000000000000000, 0.0000000000000000000 ) ) ;
#225 = AXIS2_PLACEMENT_3D ( 'NONE', #223, #222, #221 ) ;
#226 = FACE_OUTER_BOUND ( 'NONE', #104, .T. ) ;
#227 = FACE_BOUND ( 'NONE', #107, .T. ) ;
#228 = DIRECTION ( 'NONE',  ( 0.0000000000000000000, 1.000000000000000000, 1.360590117175761900E-016 ) ) ;
#229 = DIRECTION ( 'NONE',  ( -0.0000000000000000000, 1.360590117175761900E-016, -1.000000000000000000 ) ) ;
#230 = CARTESIAN_POINT ( 'NONE',  ( 0.0000000000000000000, 9.449999999999999300, -9.999999999999998200 ) ) ;
#231 = PLANE ( 'NONE',  #225 ) ;
#232 = AXIS2_PLACEMENT_3D ( 'NONE', #230, #229, #228 ) ;
#233 = FACE_BOUND ( 'NONE', #90, .T. ) ;
#234 = FACE_OUTER_BOUND ( 'NONE', #92, .T. ) ;
#235 = DIRECTION ( 'NONE',  ( 0.0000000000000000000, -1.000000000000000000, -1.360590117175761900E-016 ) ) ;
#236 = DIRECTION ( 'NONE',  ( 0.0000000000000000000, -1.360590117175761900E-016, 1.000000000000000000 ) ) ;
#237 = AXIS2_PLACEMENT_3D ( 'NONE', #239, #236, #235 ) ;
#238 = PLANE ( 'NONE',  #232 ) ;
#239 = CARTESIAN_POINT ( 'NONE',  ( 0.0000000000000000000, 9.449999999999999300, -19.99999999999999600 ) ) ;
#240 = PLANE ( 'NONE',  #237 ) ;
#241 = FACE_OUTER_BOUND ( 'NONE', #96, .T. ) ;
#242 = CARTESIAN_POINT ( 'NONE',  ( 0.0000000000000000000, 0.0000000000000000000, -4.336808689942017700E-016 ) ) ;
#243 = LINE ( 'NONE', #164, #163 ) ;
#244 = CARTESIAN_POINT ( 'NONE',  ( -13.25000000000000200, 1.622603418814650100E-015, -30.00000000000000400 ) ) ;
#245 = CARTESIAN_POINT ( 'NONE',  ( 13.25000000000000200, 0.0000000000000000000, -30.00000000000000400 ) ) ;
#246 = DIRECTION ( 'NONE',  ( 1.000000000000000000, 0.0000000000000000000, 0.0000000000000000000 ) ) ;
#247 = DIRECTION ( 'NONE',  ( -0.0000000000000000000, -0.0000000000000000000, 1.000000000000000000 ) ) ;
#248 = CARTESIAN_POINT ( 'NONE',  ( 0.0000000000000000000, 0.0000000000000000000, -30.00000000000000400 ) ) ;
#249 = AXIS2_PLACEMENT_3D ( 'NONE', #248, #247, #246 ) ;
#250 = CIRCLE ( 'NONE', #249, 13.25000000000000200 ) ;
#251 = DIRECTION ( 'NONE',  ( 0.0000000000000000000, 1.000000000000000000, 1.606225440719266400E-016 ) ) ;
#252 = DIRECTION ( 'NONE',  ( -0.0000000000000000000, 1.360590117175761900E-016, -1.000000000000000000 ) ) ;
#253 = CARTESIAN_POINT ( 'NONE',  ( 0.0000000000000000000, -2.108856834777853100E-015, -10.00000000000000200 ) ) ;
#254 = AXIS2_PLACEMENT_3D ( 'NONE', #253, #252, #251 ) ;
#255 = CIRCLE ( 'NONE', #254, 10.79999999999999700 ) ;
#256 = DIRECTION ( 'NONE',  ( 1.000000000000000000, 0.0000000000000000000, 0.0000000000000000000 ) ) ;
#257 = DIRECTION ( 'NONE',  ( -0.0000000000000000000, -0.0000000000000000000, 1.000000000000000000 ) ) ;
#258 = CARTESIAN_POINT ( 'NONE',  ( 0.0000000000000000000, 0.0000000000000000000, -4.336808689942017700E-016 ) ) ;
#259 = AXIS2_PLACEMENT_3D ( 'NONE', #258, #257, #256 ) ;
#260 = CYLINDRICAL_SURFACE ( 'NONE', #259, 13.25000000000000200 ) ;
#261 = FACE_OUTER_BOUND ( 'NONE', #41, .T. ) ;
#262 = CYLINDRICAL_SURFACE ( 'NONE', #287, 10.79999999999999700 ) ;
#263 = AXIS2_PLACEMENT_3D ( 'NONE', #242, #289, #165 ) ;
#264 = CARTESIAN_POINT ( 'NONE',  ( 0.0000000000000000000, 6.123233995736752500E-016, -30.00000000000003200 ) ) ;
#265 = FACE_OUTER_BOUND ( 'NONE', #21, .T. ) ;
#266 = DIRECTION ( 'NONE',  ( 0.0000000000000000000, 1.000000000000000000, 0.0000000000000000000 ) ) ;
#267 = CYLINDRICAL_SURFACE ( 'NONE', #263, 13.25000000000000200 ) ;
#268 = CARTESIAN_POINT ( 'NONE',  ( 0.0000000000000000000, 10.80000000000000100, 1.469437326549823500E-015 ) ) ;
#269 = DIRECTION ( 'NONE',  ( -0.0000000000000000000, 1.360590117175761900E-016, -1.000000000000000000 ) ) ;
#270 = VECTOR ( 'NONE', #269, 1000.000000000000000 ) ;
#271 = CARTESIAN_POINT ( 'NONE',  ( 0.0000000000000000000, 9.449999999999999300, -30.00000000000003200 ) ) ;
#272 = LINE ( 'NONE', #271, #270 ) ;
#273 = DIRECTION ( 'NONE',  ( -0.0000000000000000000, 1.360590117175761900E-016, -1.000000000000000000 ) ) ;
#274 = VECTOR ( 'NONE', #273, 1000.000000000000000 ) ;
#275 = CARTESIAN_POINT ( 'NONE',  ( 0.0000000000000000000, 10.80000000000000100, -30.00000000000003200 ) ) ;
#276 = LINE ( 'NONE', #275, #274 ) ;
#277 = DIRECTION ( 'NONE',  ( 0.0000000000000000000, 1.000000000000000000, 0.0000000000000000000 ) ) ;
#278 = DIRECTION ( 'NONE',  ( -0.0000000000000000000, 1.360590117175761900E-016, -1.000000000000000000 ) ) ;
#279 = AXIS2_PLACEMENT_3D ( 'NONE', #214, #278, #277 ) ;
#280 = CARTESIAN_POINT ( 'NONE',  ( 0.0000000000000000000, 10.80000000000000100, -30.00000000000000000 ) ) ;
#281 = CARTESIAN_POINT ( 'NONE',  ( 0.0000000000000000000, 9.450000000000001100, -20.00000000000000400 ) ) ;
#282 = DIRECTION ( 'NONE',  ( -0.0000000000000000000, 1.360590117175761900E-016, -1.000000000000000000 ) ) ;
#283 = VECTOR ( 'NONE', #282, 1000.000000000000000 ) ;
#284 = CARTESIAN_POINT ( 'NONE',  ( 1.322574862128167100E-015, -10.79999999999999700, -30.00000000000003200 ) ) ;
#285 = LINE ( 'NONE', #284, #283 ) ;
#286 = DIRECTION ( 'NONE',  ( -0.0000000000000000000, 1.360590117175761900E-016, -1.000000000000000000 ) ) ;
#287 = AXIS2_PLACEMENT_3D ( 'NONE', #264, #286, #266 ) ;
#288 = CARTESIAN_POINT ( 'NONE',  ( 1.322574862128166900E-015, -10.79999999999999500, -19.99999999999999600 ) ) ;
#289 = DIRECTION ( 'NONE',  ( -0.0000000000000000000, -0.0000000000000000000, 1.000000000000000000 ) ) ;
#290 = AXIS2_PLACEMENT_3D ( 'NONE', #330, #331, #332 ) ;
#291 = DIRECTION ( 'NONE',  ( 1.000000000000000000, 0.0000000000000000000, 0.0000000000000000000 ) ) ;
#292 = DIRECTION ( 'NONE',  ( -0.0000000000000000000, -0.0000000000000000000, 1.000000000000000000 ) ) ;
#293 = CARTESIAN_POINT ( 'NONE',  ( 0.0000000000000000000, 0.0000000000000000000, 0.0000000000000000000 ) ) ;
#294 = AXIS2_PLACEMENT_3D ( 'NONE', #293, #292, #291 ) ;
#295 = CIRCLE ( 'NONE', #294, 13.25000000000000000 ) ;
#296 = FACE_OUTER_BOUND ( 'NONE', #109, .T. ) ;
#297 = DIRECTION ( 'NONE',  ( -1.000000000000000000, 0.0000000000000000000, -0.0000000000000000000 ) ) ;
#298 = DIRECTION ( 'NONE',  ( 0.0000000000000000000, 0.0000000000000000000, -1.000000000000000000 ) ) ;
#299 = CARTESIAN_POINT ( 'NONE',  ( 0.0000000000000000000, 13.25000000000000000, -2.168404344971008900E-016 ) ) ;
#300 = AXIS2_PLACEMENT_3D ( 'NONE', #299, #298, #297 ) ;
#301 = CIRCLE ( 'NONE', #302, 10.79999999999999500 ) ;
#302 = AXIS2_PLACEMENT_3D ( 'NONE', #329, #328, #327 ) ;
#303 = CARTESIAN_POINT ( 'NONE',  ( 0.0000000000000000000, -3.469446951953615000E-015, 0.0000000000000000000 ) ) ;
#304 = PLANE ( 'NONE',  #300 ) ;
#305 = FACE_OUTER_BOUND ( 'NONE', #141, .T. ) ;
#306 = DIRECTION ( 'NONE',  ( 0.0000000000000000000, 1.000000000000000000, 1.360590117175761900E-016 ) ) ;
#307 = DIRECTION ( 'NONE',  ( -0.0000000000000000000, 1.360590117175761900E-016, -1.000000000000000000 ) ) ;
#308 = AXIS2_PLACEMENT_3D ( 'NONE', #303, #307, #306 ) ;
#309 = CIRCLE ( 'NONE', #308, 10.80000000000000400 ) ;
#310 = FACE_BOUND ( 'NONE', #138, .T. ) ;
#311 = CYLINDRICAL_SURFACE ( 'NONE', #290, 10.80000000000000100 ) ;
#312 =( NAMED_UNIT ( * ) SI_UNIT ( $, .STERADIAN. ) SOLID_ANGLE_UNIT ( ) );
#313 =( NAMED_UNIT ( * ) PLANE_ANGLE_UNIT ( ) SI_UNIT ( $, .RADIAN. ) );
#314 =( LENGTH_UNIT ( ) NAMED_UNIT ( * ) SI_UNIT ( .MILLI., .METRE. ) );
#315 = DIRECTION ( 'NONE',  ( 0.0000000000000000000, 1.000000000000000000, 0.0000000000000000000 ) ) ;
#316 = DIRECTION ( 'NONE',  ( -0.0000000000000000000, 1.360590117175761900E-016, -1.000000000000000000 ) ) ;
#317 = CARTESIAN_POINT ( 'NONE',  ( 0.0000000000000000000, 6.123233995736752500E-016, -30.00000000000003200 ) ) ;
#318 = AXIS2_PLACEMENT_3D ( 'NONE', #317, #316, #315 ) ;
#319 = CYLINDRICAL_SURFACE ( 'NONE', #318, 10.79999999999999700 ) ;
#320 = CARTESIAN_POINT ( 'NONE',  ( 0.0000000000000000000, 0.0000000000000000000, 0.0000000000000000000 ) ) ;
#321 = AXIS2_PLACEMENT_3D ( 'NONE', #320, #323, #322 ) ;
#322 = DIRECTION ( 'NONE',  ( 1.000000000000000000, 0.0000000000000000000, 0.0000000000000000000 ) ) ;
#323 = DIRECTION ( 'NONE',  ( 0.0000000000000000000, 0.0000000000000000000, 1.000000000000000000 ) ) ;
#324 = ADVANCED_BREP_SHAPE_REPRESENTATION ( '12-0201-08_outokumpu', ( #56, #321 ), #325 ) ;
#325 =( GEOMETRIC_REPRESENTATION_CONTEXT ( 3 ) GLOBAL_UNCERTAINTY_ASSIGNED_CONTEXT ( ( #326 ) ) GLOBAL_UNIT_ASSIGNED_CONTEXT ( ( #314, #313, #312 ) ) REPRESENTATION_CONTEXT ( 'NONE', 'WORKASPACE' ) );
#326 = UNCERTAINTY_MEASURE_WITH_UNIT (LENGTH_MEASURE( 1.000000000000000100E-005 ), #314, 'distance_accuracy_value', 'NONE');
#327 = DIRECTION ( 'NONE',  ( 0.0000000000000000000, 1.000000000000000000, 0.0000000000000000000 ) ) ;
#328 = DIRECTION ( 'NONE',  ( -0.0000000000000000000, 1.360590117175761900E-016, -1.000000000000000000 ) ) ;
#329 = CARTESIAN_POINT ( 'NONE',  ( 0.0000000000000000000, -7.482667176020913500E-016, -19.99999999999999600 ) ) ;
#330 = CARTESIAN_POINT ( 'NONE',  ( 0.0000000000000000000, 6.123233995736752500E-016, -30.00000000000003200 ) ) ;
#331 = DIRECTION ( 'NONE',  ( -0.0000000000000000000, 1.360590117175761900E-016, -1.000000000000000000 ) ) ;
#332 = DIRECTION ( 'NONE',  ( 0.0000000000000000000, 1.000000000000000000, 0.0000000000000000000 ) ) ;
#333 = APPROVAL_DATE_TIME ( #334, #340 ) ;
#334 = DATE_AND_TIME ( #335, #336 ) ;
#335 = CALENDAR_DATE ( 2015, 12, 8 ) ;
#336 = LOCAL_TIME ( 10, 14, 8.000000000000000000, #337 ) ;
#337 = COORDINATED_UNIVERSAL_TIME_OFFSET ( 1, 0, .AHEAD. ) ;
#338 = APPROVAL_PERSON_ORGANIZATION ( #342, #340, #339 ) ;
#339 = APPROVAL_ROLE ( '' ) ;
#340 = APPROVAL ( #341, 'UNSPECIFIED' ) ;
#341 = APPROVAL_STATUS ( 'not_yet_approved' ) ;
#342 = PERSON_AND_ORGANIZATION ( #354, #353 ) ;
#343 = PRODUCT_DEFINITION_FORMATION_WITH_SPECIFIED_SOURCE ( 'ANY', '', #355, .NOT_KNOWN. ) ;
#344 = CC_DESIGN_DATE_AND_TIME_ASSIGNMENT ( #346, #345, ( #406 ) ) ;
#345 = DATE_TIME_ROLE ( 'creation_date' ) ;
#346 = DATE_AND_TIME ( #347, #348 ) ;
#347 = CALENDAR_DATE ( 2015, 12, 8 ) ;
#348 = LOCAL_TIME ( 10, 14, 8.000000000000000000, #349 ) ;
#349 = COORDINATED_UNIVERSAL_TIME_OFFSET ( 1, 0, .AHEAD. ) ;
#350 = CC_DESIGN_PERSON_AND_ORGANIZATION_ASSIGNMENT ( #352, #351, ( #355 ) ) ;
#351 = PERSON_AND_ORGANIZATION_ROLE ( 'design_owner' ) ;
#352 = PERSON_AND_ORGANIZATION ( #354, #353 ) ;
#353 = ORGANIZATION ( 'UNSPECIFIED', 'UNSPECIFIED', '' ) ;
#354 = PERSON ( 'UNSPECIFIED', 'UNSPECIFIED', 'UNSPECIFIED', ('UNSPECIFIED'), ('UNSPECIFIED'), ('UNSPECIFIED') ) ;
#355 = PRODUCT ( '12-0201-08_outokumpu', '12-0201-08_outokumpu', '', ( #356 ) ) ;
#356 = MECHANICAL_CONTEXT ( 'NONE', #358, 'mechanical' ) ;
#357 = APPLICATION_PROTOCOL_DEFINITION ( 'international standard', 'config_control_design', 1994, #358 ) ;
#358 = APPLICATION_CONTEXT ( 'configuration controlled 3d designs of mechanical parts and assemblies' ) ;
#359 = PRODUCT_DEFINITION_SHAPE ( 'NONE', 'NONE',  #406 ) ;
#360 = PRODUCT_RELATED_PRODUCT_CATEGORY ( 'detail', '', ( #355 ) ) ;
#361 = CC_DESIGN_SECURITY_CLASSIFICATION ( #382, ( #343 ) ) ;
#362 = CC_DESIGN_APPROVAL ( #370, ( #382 ) ) ;
#363 = APPROVAL_DATE_TIME ( #364, #370 ) ;
#364 = DATE_AND_TIME ( #365, #366 ) ;
#365 = CALENDAR_DATE ( 2015, 12, 8 ) ;
#366 = LOCAL_TIME ( 10, 14, 8.000000000000000000, #367 ) ;
#367 = COORDINATED_UNIVERSAL_TIME_OFFSET ( 1, 0, .AHEAD. ) ;
#368 = APPROVAL_PERSON_ORGANIZATION ( #372, #370, #369 ) ;
#369 = APPROVAL_ROLE ( '' ) ;
#370 = APPROVAL ( #371, 'UNSPECIFIED' ) ;
#371 = APPROVAL_STATUS ( 'not_yet_approved' ) ;
#372 = PERSON_AND_ORGANIZATION ( #354, #353 ) ;
#373 = CC_DESIGN_DATE_AND_TIME_ASSIGNMENT ( #375, #374, ( #382 ) ) ;
#374 = DATE_TIME_ROLE ( 'classification_date' ) ;
#375 = DATE_AND_TIME ( #376, #377 ) ;
#376 = CALENDAR_DATE ( 2015, 12, 8 ) ;
#377 = LOCAL_TIME ( 10, 14, 8.000000000000000000, #378 ) ;
#378 = COORDINATED_UNIVERSAL_TIME_OFFSET ( 1, 0, .AHEAD. ) ;
#379 = CC_DESIGN_PERSON_AND_ORGANIZATION_ASSIGNMENT ( #381, #380, ( #382 ) ) ;
#380 = PERSON_AND_ORGANIZATION_ROLE ( 'classification_officer' ) ;
#381 = PERSON_AND_ORGANIZATION ( #354, #353 ) ;
#382 = SECURITY_CLASSIFICATION ( '', '', #383 ) ;
#383 = SECURITY_CLASSIFICATION_LEVEL ( 'unclassified' ) ;
#384 = CC_DESIGN_PERSON_AND_ORGANIZATION_ASSIGNMENT ( #386, #385, ( #343 ) ) ;
#385 = PERSON_AND_ORGANIZATION_ROLE ( 'design_supplier' ) ;
#386 = PERSON_AND_ORGANIZATION ( #354, #353 ) ;
#387 = CC_DESIGN_PERSON_AND_ORGANIZATION_ASSIGNMENT ( #389, #388, ( #343 ) ) ;
#388 = PERSON_AND_ORGANIZATION_ROLE ( 'creator' ) ;
#389 = PERSON_AND_ORGANIZATION ( #354, #353 ) ;
#390 = CC_DESIGN_APPROVAL ( #340, ( #343 ) ) ;
#391 = SHAPE_DEFINITION_REPRESENTATION ( #359, #324 ) ;
#392 = CC_DESIGN_PERSON_AND_ORGANIZATION_ASSIGNMENT ( #394, #393, ( #406 ) ) ;
#393 = PERSON_AND_ORGANIZATION_ROLE ( 'creator' ) ;
#394 = PERSON_AND_ORGANIZATION ( #354, #353 ) ;
#395 = CC_DESIGN_APPROVAL ( #403, ( #406 ) ) ;
#396 = APPROVAL_DATE_TIME ( #397, #403 ) ;
#397 = DATE_AND_TIME ( #398, #399 ) ;
#398 = CALENDAR_DATE ( 2015, 12, 8 ) ;
#399 = LOCAL_TIME ( 10, 14, 8.000000000000000000, #400 ) ;
#400 = COORDINATED_UNIVERSAL_TIME_OFFSET ( 1, 0, .AHEAD. ) ;
#401 = APPROVAL_PERSON_ORGANIZATION ( #405, #403, #402 ) ;
#402 = APPROVAL_ROLE ( '' ) ;
#403 = APPROVAL ( #404, 'UNSPECIFIED' ) ;
#404 = APPROVAL_STATUS ( 'not_yet_approved' ) ;
#405 = PERSON_AND_ORGANIZATION ( #354, #353 ) ;
#406 = PRODUCT_DEFINITION ( 'UNKNOWN', '', #343, #407 ) ;
#407 = DESIGN_CONTEXT ( 'detailed design', #409, 'design' ) ;
#408 = APPLICATION_PROTOCOL_DEFINITION ( 'international standard', 'config_control_design', 1994, #409 ) ;
#409 = APPLICATION_CONTEXT ( 'configuration controlled 3d designs of mechanical parts and assemblies' ) ;
ENDSEC;
END-ISO-10303-21;
