ISO-10303-21;
HEADER;
/* Generated by software containing ST-Developer
 * from STEP Tools, Inc. (www.steptools.com) 
 */

FILE_DESCRIPTION(
/* description */ (''),
/* implementation_level */ '2;1');

FILE_NAME(
/* name */ 
'R:\\Disegni3D_Area_Manager\\Steelpres.step\\383_001_STEELPRES\\383054
001_Steelpres.stp',
/* time_stamp */ '2022-10-21T15:59:59+02:00',
/* author */ ('Vault'),
/* organization */ ('Raccorderie metalliche s.p.a. '),
/* preprocessor_version */ 'ST-DEVELOPER v18.1',
/* originating_system */ 'Autodesk Inventor 2020',
/* authorisation */ 'Raccorderie metalliche s.p.a. ');

FILE_SCHEMA (('AUTOMOTIVE_DESIGN { 1 0 10303 214 3 1 1 }'));
ENDSEC;

DATA;
#10=MECHANICAL_DESIGN_GEOMETRIC_PRESENTATION_REPRESENTATION('',(#13),#617);
#11=SHAPE_REPRESENTATION_RELATIONSHIP('SRR','None',#624,#12);
#12=ADVANCED_BREP_SHAPE_REPRESENTATION('',(#14),#616);
#13=STYLED_ITEM('',(#633),#14);
#14=MANIFOLD_SOLID_BREP('Solido1',#315);
#15=CONICAL_SURFACE('',#377,27.725,0.523598775598299);
#16=CONICAL_SURFACE('',#383,27.725,0.523598775598299);
#17=LINE('',#535,#25);
#18=LINE('',#548,#26);
#19=LINE('',#573,#27);
#20=LINE('',#586,#28);
#21=LINE('',#591,#29);
#22=LINE('',#601,#30);
#23=LINE('',#611,#31);
#24=LINE('',#613,#32);
#25=VECTOR('',#415,27.35);
#26=VECTOR('',#432,27.35);
#27=VECTOR('',#459,27.35);
#28=VECTOR('',#476,27.35);
#29=VECTOR('',#483,27.725);
#30=VECTOR('',#496,27.725);
#31=VECTOR('',#509,27.25);
#32=VECTOR('',#512,28.75);
#33=CYLINDRICAL_SURFACE('',#343,27.35);
#34=CYLINDRICAL_SURFACE('',#353,27.35);
#35=CYLINDRICAL_SURFACE('',#364,27.35);
#36=CYLINDRICAL_SURFACE('',#374,27.35);
#37=CYLINDRICAL_SURFACE('',#389,27.25);
#38=CYLINDRICAL_SURFACE('',#390,28.75);
#39=FACE_OUTER_BOUND('',#53,.T.);
#40=FACE_OUTER_BOUND('',#54,.T.);
#41=FACE_OUTER_BOUND('',#55,.T.);
#42=FACE_OUTER_BOUND('',#56,.T.);
#43=FACE_OUTER_BOUND('',#57,.T.);
#44=FACE_OUTER_BOUND('',#58,.T.);
#45=FACE_OUTER_BOUND('',#59,.T.);
#46=FACE_OUTER_BOUND('',#60,.T.);
#47=FACE_OUTER_BOUND('',#61,.T.);
#48=FACE_OUTER_BOUND('',#62,.T.);
#49=FACE_OUTER_BOUND('',#63,.T.);
#50=FACE_OUTER_BOUND('',#64,.T.);
#51=FACE_OUTER_BOUND('',#65,.T.);
#52=FACE_OUTER_BOUND('',#66,.T.);
#53=EDGE_LOOP('',(#195,#196,#197,#198,#199,#200,#201,#202));
#54=EDGE_LOOP('',(#203,#204,#205,#206,#207,#208,#209));
#55=EDGE_LOOP('',(#210,#211,#212,#213,#214,#215));
#56=EDGE_LOOP('',(#216,#217,#218,#219,#220,#221));
#57=EDGE_LOOP('',(#222,#223,#224,#225,#226,#227,#228,#229));
#58=EDGE_LOOP('',(#230,#231,#232,#233,#234,#235,#236));
#59=EDGE_LOOP('',(#237,#238,#239,#240,#241,#242));
#60=EDGE_LOOP('',(#243,#244,#245,#246,#247,#248));
#61=EDGE_LOOP('',(#249,#250,#251,#252,#253,#254,#255,#256));
#62=EDGE_LOOP('',(#257,#258,#259,#260,#261,#262,#263));
#63=EDGE_LOOP('',(#264,#265,#266,#267,#268,#269,#270,#271));
#64=EDGE_LOOP('',(#272,#273,#274,#275,#276,#277,#278));
#65=EDGE_LOOP('',(#279,#280,#281,#282,#283,#284,#285,#286));
#66=EDGE_LOOP('',(#287,#288,#289,#290,#291,#292,#293,#294));
#67=CIRCLE('',#336,28.1);
#68=CIRCLE('',#337,28.1);
#69=CIRCLE('',#338,4.9579740809361);
#70=CIRCLE('',#339,28.75);
#71=CIRCLE('',#340,28.75);
#72=CIRCLE('',#341,28.75);
#73=CIRCLE('',#342,28.1);
#74=CIRCLE('',#344,27.35);
#75=CIRCLE('',#345,27.35);
#76=CIRCLE('',#346,27.35);
#77=CIRCLE('',#347,27.35);
#78=CIRCLE('',#348,27.35);
#79=CIRCLE('',#350,27.35);
#80=CIRCLE('',#351,3.);
#81=CIRCLE('',#352,27.35);
#82=CIRCLE('',#354,27.35);
#83=CIRCLE('',#355,27.35);
#84=CIRCLE('',#357,28.1);
#85=CIRCLE('',#358,28.1);
#86=CIRCLE('',#359,4.9579740809361);
#87=CIRCLE('',#360,28.75);
#88=CIRCLE('',#361,28.75);
#89=CIRCLE('',#362,28.75);
#90=CIRCLE('',#363,28.1);
#91=CIRCLE('',#365,27.35);
#92=CIRCLE('',#366,27.35);
#93=CIRCLE('',#367,27.35);
#94=CIRCLE('',#368,27.35);
#95=CIRCLE('',#369,27.35);
#96=CIRCLE('',#371,27.35);
#97=CIRCLE('',#372,27.35);
#98=CIRCLE('',#373,3.);
#99=CIRCLE('',#375,27.35);
#100=CIRCLE('',#376,27.35);
#101=CIRCLE('',#379,27.25);
#102=CIRCLE('',#380,2.);
#103=CIRCLE('',#381,27.25);
#104=CIRCLE('',#382,27.25);
#105=CIRCLE('',#385,27.25);
#106=CIRCLE('',#386,27.25);
#107=CIRCLE('',#387,27.25);
#108=CIRCLE('',#388,2.);
#109=VERTEX_POINT('',#515);
#110=VERTEX_POINT('',#516);
#111=VERTEX_POINT('',#518);
#112=VERTEX_POINT('',#520);
#113=VERTEX_POINT('',#522);
#114=VERTEX_POINT('',#524);
#115=VERTEX_POINT('',#529);
#116=VERTEX_POINT('',#530);
#117=VERTEX_POINT('',#532);
#118=VERTEX_POINT('',#534);
#119=VERTEX_POINT('',#536);
#120=VERTEX_POINT('',#541);
#121=VERTEX_POINT('',#542);
#122=VERTEX_POINT('',#547);
#123=VERTEX_POINT('',#549);
#124=VERTEX_POINT('',#553);
#125=VERTEX_POINT('',#554);
#126=VERTEX_POINT('',#556);
#127=VERTEX_POINT('',#558);
#128=VERTEX_POINT('',#560);
#129=VERTEX_POINT('',#562);
#130=VERTEX_POINT('',#567);
#131=VERTEX_POINT('',#568);
#132=VERTEX_POINT('',#570);
#133=VERTEX_POINT('',#572);
#134=VERTEX_POINT('',#574);
#135=VERTEX_POINT('',#579);
#136=VERTEX_POINT('',#580);
#137=VERTEX_POINT('',#585);
#138=VERTEX_POINT('',#587);
#139=VERTEX_POINT('',#593);
#140=VERTEX_POINT('',#594);
#141=VERTEX_POINT('',#597);
#142=VERTEX_POINT('',#603);
#143=VERTEX_POINT('',#604);
#144=VERTEX_POINT('',#606);
#145=EDGE_CURVE('',#109,#110,#67,.T.);
#146=EDGE_CURVE('',#111,#109,#68,.T.);
#147=EDGE_CURVE('',#111,#112,#69,.T.);
#148=EDGE_CURVE('',#112,#113,#70,.T.);
#149=EDGE_CURVE('',#113,#114,#71,.T.);
#150=EDGE_CURVE('',#114,#112,#72,.T.);
#151=EDGE_CURVE('',#110,#111,#73,.T.);
#152=EDGE_CURVE('',#115,#116,#74,.T.);
#153=EDGE_CURVE('',#116,#117,#75,.T.);
#154=EDGE_CURVE('',#117,#118,#17,.T.);
#155=EDGE_CURVE('',#118,#119,#76,.T.);
#156=EDGE_CURVE('',#119,#118,#77,.T.);
#157=EDGE_CURVE('',#117,#115,#78,.T.);
#158=EDGE_CURVE('',#120,#121,#79,.T.);
#159=EDGE_CURVE('',#121,#118,#80,.T.);
#160=EDGE_CURVE('',#121,#120,#81,.T.);
#161=EDGE_CURVE('',#121,#122,#18,.T.);
#162=EDGE_CURVE('',#123,#122,#82,.T.);
#163=EDGE_CURVE('',#122,#123,#83,.T.);
#164=EDGE_CURVE('',#124,#125,#84,.T.);
#165=EDGE_CURVE('',#125,#126,#85,.T.);
#166=EDGE_CURVE('',#126,#127,#86,.T.);
#167=EDGE_CURVE('',#128,#127,#87,.T.);
#168=EDGE_CURVE('',#129,#128,#88,.T.);
#169=EDGE_CURVE('',#127,#129,#89,.T.);
#170=EDGE_CURVE('',#126,#124,#90,.T.);
#171=EDGE_CURVE('',#130,#131,#91,.T.);
#172=EDGE_CURVE('',#132,#130,#92,.T.);
#173=EDGE_CURVE('',#132,#133,#19,.T.);
#174=EDGE_CURVE('',#134,#133,#93,.T.);
#175=EDGE_CURVE('',#133,#134,#94,.T.);
#176=EDGE_CURVE('',#131,#132,#95,.T.);
#177=EDGE_CURVE('',#135,#136,#96,.T.);
#178=EDGE_CURVE('',#136,#135,#97,.T.);
#179=EDGE_CURVE('',#136,#133,#98,.T.);
#180=EDGE_CURVE('',#136,#137,#20,.T.);
#181=EDGE_CURVE('',#138,#137,#99,.T.);
#182=EDGE_CURVE('',#137,#138,#100,.T.);
#183=EDGE_CURVE('',#125,#131,#21,.T.);
#184=EDGE_CURVE('',#139,#140,#101,.T.);
#185=EDGE_CURVE('',#140,#138,#102,.T.);
#186=EDGE_CURVE('',#140,#141,#103,.T.);
#187=EDGE_CURVE('',#141,#139,#104,.T.);
#188=EDGE_CURVE('',#110,#116,#22,.T.);
#189=EDGE_CURVE('',#142,#143,#105,.T.);
#190=EDGE_CURVE('',#144,#142,#106,.T.);
#191=EDGE_CURVE('',#143,#144,#107,.T.);
#192=EDGE_CURVE('',#143,#123,#108,.T.);
#193=EDGE_CURVE('',#144,#141,#23,.T.);
#194=EDGE_CURVE('',#114,#128,#24,.T.);
#195=ORIENTED_EDGE('',*,*,#145,.F.);
#196=ORIENTED_EDGE('',*,*,#146,.F.);
#197=ORIENTED_EDGE('',*,*,#147,.T.);
#198=ORIENTED_EDGE('',*,*,#148,.T.);
#199=ORIENTED_EDGE('',*,*,#149,.T.);
#200=ORIENTED_EDGE('',*,*,#150,.T.);
#201=ORIENTED_EDGE('',*,*,#147,.F.);
#202=ORIENTED_EDGE('',*,*,#151,.F.);
#203=ORIENTED_EDGE('',*,*,#152,.T.);
#204=ORIENTED_EDGE('',*,*,#153,.T.);
#205=ORIENTED_EDGE('',*,*,#154,.T.);
#206=ORIENTED_EDGE('',*,*,#155,.T.);
#207=ORIENTED_EDGE('',*,*,#156,.T.);
#208=ORIENTED_EDGE('',*,*,#154,.F.);
#209=ORIENTED_EDGE('',*,*,#157,.T.);
#210=ORIENTED_EDGE('',*,*,#158,.T.);
#211=ORIENTED_EDGE('',*,*,#159,.T.);
#212=ORIENTED_EDGE('',*,*,#156,.F.);
#213=ORIENTED_EDGE('',*,*,#155,.F.);
#214=ORIENTED_EDGE('',*,*,#159,.F.);
#215=ORIENTED_EDGE('',*,*,#160,.T.);
#216=ORIENTED_EDGE('',*,*,#158,.F.);
#217=ORIENTED_EDGE('',*,*,#160,.F.);
#218=ORIENTED_EDGE('',*,*,#161,.T.);
#219=ORIENTED_EDGE('',*,*,#162,.F.);
#220=ORIENTED_EDGE('',*,*,#163,.F.);
#221=ORIENTED_EDGE('',*,*,#161,.F.);
#222=ORIENTED_EDGE('',*,*,#164,.T.);
#223=ORIENTED_EDGE('',*,*,#165,.T.);
#224=ORIENTED_EDGE('',*,*,#166,.T.);
#225=ORIENTED_EDGE('',*,*,#167,.F.);
#226=ORIENTED_EDGE('',*,*,#168,.F.);
#227=ORIENTED_EDGE('',*,*,#169,.F.);
#228=ORIENTED_EDGE('',*,*,#166,.F.);
#229=ORIENTED_EDGE('',*,*,#170,.T.);
#230=ORIENTED_EDGE('',*,*,#171,.F.);
#231=ORIENTED_EDGE('',*,*,#172,.F.);
#232=ORIENTED_EDGE('',*,*,#173,.T.);
#233=ORIENTED_EDGE('',*,*,#174,.F.);
#234=ORIENTED_EDGE('',*,*,#175,.F.);
#235=ORIENTED_EDGE('',*,*,#173,.F.);
#236=ORIENTED_EDGE('',*,*,#176,.F.);
#237=ORIENTED_EDGE('',*,*,#177,.F.);
#238=ORIENTED_EDGE('',*,*,#178,.F.);
#239=ORIENTED_EDGE('',*,*,#179,.T.);
#240=ORIENTED_EDGE('',*,*,#175,.T.);
#241=ORIENTED_EDGE('',*,*,#174,.T.);
#242=ORIENTED_EDGE('',*,*,#179,.F.);
#243=ORIENTED_EDGE('',*,*,#177,.T.);
#244=ORIENTED_EDGE('',*,*,#180,.T.);
#245=ORIENTED_EDGE('',*,*,#181,.F.);
#246=ORIENTED_EDGE('',*,*,#182,.F.);
#247=ORIENTED_EDGE('',*,*,#180,.F.);
#248=ORIENTED_EDGE('',*,*,#178,.T.);
#249=ORIENTED_EDGE('',*,*,#164,.F.);
#250=ORIENTED_EDGE('',*,*,#170,.F.);
#251=ORIENTED_EDGE('',*,*,#165,.F.);
#252=ORIENTED_EDGE('',*,*,#183,.T.);
#253=ORIENTED_EDGE('',*,*,#176,.T.);
#254=ORIENTED_EDGE('',*,*,#172,.T.);
#255=ORIENTED_EDGE('',*,*,#171,.T.);
#256=ORIENTED_EDGE('',*,*,#183,.F.);
#257=ORIENTED_EDGE('',*,*,#184,.T.);
#258=ORIENTED_EDGE('',*,*,#185,.T.);
#259=ORIENTED_EDGE('',*,*,#181,.T.);
#260=ORIENTED_EDGE('',*,*,#182,.T.);
#261=ORIENTED_EDGE('',*,*,#185,.F.);
#262=ORIENTED_EDGE('',*,*,#186,.T.);
#263=ORIENTED_EDGE('',*,*,#187,.T.);
#264=ORIENTED_EDGE('',*,*,#145,.T.);
#265=ORIENTED_EDGE('',*,*,#188,.T.);
#266=ORIENTED_EDGE('',*,*,#152,.F.);
#267=ORIENTED_EDGE('',*,*,#157,.F.);
#268=ORIENTED_EDGE('',*,*,#153,.F.);
#269=ORIENTED_EDGE('',*,*,#188,.F.);
#270=ORIENTED_EDGE('',*,*,#151,.T.);
#271=ORIENTED_EDGE('',*,*,#146,.T.);
#272=ORIENTED_EDGE('',*,*,#189,.F.);
#273=ORIENTED_EDGE('',*,*,#190,.F.);
#274=ORIENTED_EDGE('',*,*,#191,.F.);
#275=ORIENTED_EDGE('',*,*,#192,.T.);
#276=ORIENTED_EDGE('',*,*,#162,.T.);
#277=ORIENTED_EDGE('',*,*,#163,.T.);
#278=ORIENTED_EDGE('',*,*,#192,.F.);
#279=ORIENTED_EDGE('',*,*,#189,.T.);
#280=ORIENTED_EDGE('',*,*,#191,.T.);
#281=ORIENTED_EDGE('',*,*,#193,.T.);
#282=ORIENTED_EDGE('',*,*,#186,.F.);
#283=ORIENTED_EDGE('',*,*,#184,.F.);
#284=ORIENTED_EDGE('',*,*,#187,.F.);
#285=ORIENTED_EDGE('',*,*,#193,.F.);
#286=ORIENTED_EDGE('',*,*,#190,.T.);
#287=ORIENTED_EDGE('',*,*,#149,.F.);
#288=ORIENTED_EDGE('',*,*,#148,.F.);
#289=ORIENTED_EDGE('',*,*,#150,.F.);
#290=ORIENTED_EDGE('',*,*,#194,.T.);
#291=ORIENTED_EDGE('',*,*,#167,.T.);
#292=ORIENTED_EDGE('',*,*,#169,.T.);
#293=ORIENTED_EDGE('',*,*,#168,.T.);
#294=ORIENTED_EDGE('',*,*,#194,.F.);
#295=TOROIDAL_SURFACE('',#335,27.4342361418817,4.9579740809361);
#296=TOROIDAL_SURFACE('',#349,30.,3.);
#297=TOROIDAL_SURFACE('',#356,27.4342361418817,4.9579740809361);
#298=TOROIDAL_SURFACE('',#370,30.,3.);
#299=TOROIDAL_SURFACE('',#378,29.25,2.);
#300=TOROIDAL_SURFACE('',#384,29.25,2.);
#301=ADVANCED_FACE('',(#39),#295,.T.);
#302=ADVANCED_FACE('',(#40),#33,.F.);
#303=ADVANCED_FACE('',(#41),#296,.T.);
#304=ADVANCED_FACE('',(#42),#34,.F.);
#305=ADVANCED_FACE('',(#43),#297,.T.);
#306=ADVANCED_FACE('',(#44),#35,.F.);
#307=ADVANCED_FACE('',(#45),#298,.T.);
#308=ADVANCED_FACE('',(#46),#36,.F.);
#309=ADVANCED_FACE('',(#47),#15,.F.);
#310=ADVANCED_FACE('',(#48),#299,.T.);
#311=ADVANCED_FACE('',(#49),#16,.F.);
#312=ADVANCED_FACE('',(#50),#300,.T.);
#313=ADVANCED_FACE('',(#51),#37,.F.);
#314=ADVANCED_FACE('',(#52),#38,.T.);
#315=CLOSED_SHELL('',(#301,#302,#303,#304,#305,#306,#307,#308,#309,#310,
#311,#312,#313,#314));
#316=DERIVED_UNIT_ELEMENT(#318,1.);
#317=DERIVED_UNIT_ELEMENT(#619,3.);
#318=(
MASS_UNIT()
NAMED_UNIT(*)
SI_UNIT($,.GRAM.)
);
#319=DERIVED_UNIT((#316,#317));
#320=MEASURE_REPRESENTATION_ITEM('density measure',
POSITIVE_RATIO_MEASURE(1.),#319);
#321=PROPERTY_DEFINITION_REPRESENTATION(#326,#323);
#322=PROPERTY_DEFINITION_REPRESENTATION(#327,#324);
#323=REPRESENTATION('material name',(#325),#616);
#324=REPRESENTATION('density',(#320),#616);
#325=DESCRIPTIVE_REPRESENTATION_ITEM('Generico','Generico');
#326=PROPERTY_DEFINITION('material property','material name',#626);
#327=PROPERTY_DEFINITION('material property','density of part',#626);
#328=DATE_TIME_ROLE('creation_date');
#329=APPLIED_DATE_AND_TIME_ASSIGNMENT(#330,#328,(#626));
#330=DATE_AND_TIME(#331,#332);
#331=CALENDAR_DATE(2015,27,11);
#332=LOCAL_TIME(9,33,0.,#333);
#333=COORDINATED_UNIVERSAL_TIME_OFFSET(0,0,.BEHIND.);
#334=AXIS2_PLACEMENT_3D('placement',#513,#391,#392);
#335=AXIS2_PLACEMENT_3D('',#514,#393,#394);
#336=AXIS2_PLACEMENT_3D('',#517,#395,#396);
#337=AXIS2_PLACEMENT_3D('',#519,#397,#398);
#338=AXIS2_PLACEMENT_3D('',#521,#399,#400);
#339=AXIS2_PLACEMENT_3D('',#523,#401,#402);
#340=AXIS2_PLACEMENT_3D('',#525,#403,#404);
#341=AXIS2_PLACEMENT_3D('',#526,#405,#406);
#342=AXIS2_PLACEMENT_3D('',#527,#407,#408);
#343=AXIS2_PLACEMENT_3D('',#528,#409,#410);
#344=AXIS2_PLACEMENT_3D('',#531,#411,#412);
#345=AXIS2_PLACEMENT_3D('',#533,#413,#414);
#346=AXIS2_PLACEMENT_3D('',#537,#416,#417);
#347=AXIS2_PLACEMENT_3D('',#538,#418,#419);
#348=AXIS2_PLACEMENT_3D('',#539,#420,#421);
#349=AXIS2_PLACEMENT_3D('',#540,#422,#423);
#350=AXIS2_PLACEMENT_3D('',#543,#424,#425);
#351=AXIS2_PLACEMENT_3D('',#544,#426,#427);
#352=AXIS2_PLACEMENT_3D('',#545,#428,#429);
#353=AXIS2_PLACEMENT_3D('',#546,#430,#431);
#354=AXIS2_PLACEMENT_3D('',#550,#433,#434);
#355=AXIS2_PLACEMENT_3D('',#551,#435,#436);
#356=AXIS2_PLACEMENT_3D('',#552,#437,#438);
#357=AXIS2_PLACEMENT_3D('',#555,#439,#440);
#358=AXIS2_PLACEMENT_3D('',#557,#441,#442);
#359=AXIS2_PLACEMENT_3D('',#559,#443,#444);
#360=AXIS2_PLACEMENT_3D('',#561,#445,#446);
#361=AXIS2_PLACEMENT_3D('',#563,#447,#448);
#362=AXIS2_PLACEMENT_3D('',#564,#449,#450);
#363=AXIS2_PLACEMENT_3D('',#565,#451,#452);
#364=AXIS2_PLACEMENT_3D('',#566,#453,#454);
#365=AXIS2_PLACEMENT_3D('',#569,#455,#456);
#366=AXIS2_PLACEMENT_3D('',#571,#457,#458);
#367=AXIS2_PLACEMENT_3D('',#575,#460,#461);
#368=AXIS2_PLACEMENT_3D('',#576,#462,#463);
#369=AXIS2_PLACEMENT_3D('',#577,#464,#465);
#370=AXIS2_PLACEMENT_3D('',#578,#466,#467);
#371=AXIS2_PLACEMENT_3D('',#581,#468,#469);
#372=AXIS2_PLACEMENT_3D('',#582,#470,#471);
#373=AXIS2_PLACEMENT_3D('',#583,#472,#473);
#374=AXIS2_PLACEMENT_3D('',#584,#474,#475);
#375=AXIS2_PLACEMENT_3D('',#588,#477,#478);
#376=AXIS2_PLACEMENT_3D('',#589,#479,#480);
#377=AXIS2_PLACEMENT_3D('',#590,#481,#482);
#378=AXIS2_PLACEMENT_3D('',#592,#484,#485);
#379=AXIS2_PLACEMENT_3D('',#595,#486,#487);
#380=AXIS2_PLACEMENT_3D('',#596,#488,#489);
#381=AXIS2_PLACEMENT_3D('',#598,#490,#491);
#382=AXIS2_PLACEMENT_3D('',#599,#492,#493);
#383=AXIS2_PLACEMENT_3D('',#600,#494,#495);
#384=AXIS2_PLACEMENT_3D('',#602,#497,#498);
#385=AXIS2_PLACEMENT_3D('',#605,#499,#500);
#386=AXIS2_PLACEMENT_3D('',#607,#501,#502);
#387=AXIS2_PLACEMENT_3D('',#608,#503,#504);
#388=AXIS2_PLACEMENT_3D('',#609,#505,#506);
#389=AXIS2_PLACEMENT_3D('',#610,#507,#508);
#390=AXIS2_PLACEMENT_3D('',#612,#510,#511);
#391=DIRECTION('axis',(0.,0.,1.));
#392=DIRECTION('refdir',(1.,0.,0.));
#393=DIRECTION('center_axis',(1.,0.,0.));
#394=DIRECTION('ref_axis',(0.,0.,1.));
#395=DIRECTION('center_axis',(1.,0.,0.));
#396=DIRECTION('ref_axis',(-1.28856045304478E-17,1.,0.));
#397=DIRECTION('center_axis',(1.,0.,0.));
#398=DIRECTION('ref_axis',(-1.28856045304478E-17,1.,0.));
#399=DIRECTION('center_axis',(0.,1.,-1.22464679914735E-16));
#400=DIRECTION('ref_axis',(0.,-1.22464679914735E-16,-1.));
#401=DIRECTION('center_axis',(1.,0.,0.));
#402=DIRECTION('ref_axis',(-1.28856045304478E-17,1.,0.));
#403=DIRECTION('center_axis',(1.,0.,0.));
#404=DIRECTION('ref_axis',(-1.28856045304478E-17,1.,0.));
#405=DIRECTION('center_axis',(1.,0.,0.));
#406=DIRECTION('ref_axis',(-1.28856045304478E-17,1.,0.));
#407=DIRECTION('center_axis',(1.,0.,0.));
#408=DIRECTION('ref_axis',(-1.28856045304478E-17,1.,0.));
#409=DIRECTION('center_axis',(-1.,0.,0.));
#410=DIRECTION('ref_axis',(0.,0.,1.));
#411=DIRECTION('center_axis',(1.,0.,0.));
#412=DIRECTION('ref_axis',(-1.28856045304478E-17,1.,0.));
#413=DIRECTION('center_axis',(1.,0.,0.));
#414=DIRECTION('ref_axis',(-1.28856045304478E-17,1.,0.));
#415=DIRECTION('',(-1.,0.,0.));
#416=DIRECTION('center_axis',(-1.,0.,0.));
#417=DIRECTION('ref_axis',(0.,0.,1.));
#418=DIRECTION('center_axis',(-1.,0.,0.));
#419=DIRECTION('ref_axis',(0.,0.,1.));
#420=DIRECTION('center_axis',(1.,0.,0.));
#421=DIRECTION('ref_axis',(-1.28856045304478E-17,1.,0.));
#422=DIRECTION('center_axis',(1.,0.,0.));
#423=DIRECTION('ref_axis',(0.,0.,1.));
#424=DIRECTION('center_axis',(-1.,0.,0.));
#425=DIRECTION('ref_axis',(0.,0.,1.));
#426=DIRECTION('center_axis',(0.,1.,-1.22464679914735E-16));
#427=DIRECTION('ref_axis',(0.,-1.22464679914735E-16,-1.));
#428=DIRECTION('center_axis',(-1.,0.,0.));
#429=DIRECTION('ref_axis',(0.,0.,1.));
#430=DIRECTION('center_axis',(-1.,0.,0.));
#431=DIRECTION('ref_axis',(0.,0.,1.));
#432=DIRECTION('',(-1.,0.,0.));
#433=DIRECTION('center_axis',(1.,0.,0.));
#434=DIRECTION('ref_axis',(0.,0.,1.));
#435=DIRECTION('center_axis',(1.,0.,0.));
#436=DIRECTION('ref_axis',(0.,0.,1.));
#437=DIRECTION('center_axis',(-1.,0.,0.));
#438=DIRECTION('ref_axis',(0.,0.,1.));
#439=DIRECTION('center_axis',(1.,0.,0.));
#440=DIRECTION('ref_axis',(1.28856045304478E-17,1.,0.));
#441=DIRECTION('center_axis',(1.,0.,0.));
#442=DIRECTION('ref_axis',(1.28856045304478E-17,1.,0.));
#443=DIRECTION('center_axis',(0.,-1.,1.22464679914735E-16));
#444=DIRECTION('ref_axis',(0.,-1.22464679914735E-16,-1.));
#445=DIRECTION('center_axis',(1.,0.,0.));
#446=DIRECTION('ref_axis',(1.28856045304478E-17,1.,0.));
#447=DIRECTION('center_axis',(1.,0.,0.));
#448=DIRECTION('ref_axis',(1.28856045304478E-17,1.,0.));
#449=DIRECTION('center_axis',(1.,0.,0.));
#450=DIRECTION('ref_axis',(1.28856045304478E-17,1.,0.));
#451=DIRECTION('center_axis',(1.,0.,0.));
#452=DIRECTION('ref_axis',(1.28856045304478E-17,1.,0.));
#453=DIRECTION('center_axis',(-1.,0.,0.));
#454=DIRECTION('ref_axis',(0.,0.,1.));
#455=DIRECTION('center_axis',(1.,0.,0.));
#456=DIRECTION('ref_axis',(1.28856045304478E-17,1.,0.));
#457=DIRECTION('center_axis',(1.,0.,0.));
#458=DIRECTION('ref_axis',(1.28856045304478E-17,1.,0.));
#459=DIRECTION('',(1.,0.,0.));
#460=DIRECTION('center_axis',(-1.,0.,0.));
#461=DIRECTION('ref_axis',(0.,0.,1.));
#462=DIRECTION('center_axis',(-1.,0.,0.));
#463=DIRECTION('ref_axis',(0.,0.,1.));
#464=DIRECTION('center_axis',(1.,0.,0.));
#465=DIRECTION('ref_axis',(1.28856045304478E-17,1.,0.));
#466=DIRECTION('center_axis',(-1.,0.,0.));
#467=DIRECTION('ref_axis',(0.,0.,1.));
#468=DIRECTION('center_axis',(-1.,0.,0.));
#469=DIRECTION('ref_axis',(0.,0.,1.));
#470=DIRECTION('center_axis',(-1.,0.,0.));
#471=DIRECTION('ref_axis',(0.,0.,1.));
#472=DIRECTION('center_axis',(0.,-1.,1.22464679914735E-16));
#473=DIRECTION('ref_axis',(0.,-1.22464679914735E-16,-1.));
#474=DIRECTION('center_axis',(-1.,0.,0.));
#475=DIRECTION('ref_axis',(0.,0.,1.));
#476=DIRECTION('',(1.,0.,0.));
#477=DIRECTION('center_axis',(-1.,0.,0.));
#478=DIRECTION('ref_axis',(0.,0.,1.));
#479=DIRECTION('center_axis',(-1.,0.,0.));
#480=DIRECTION('ref_axis',(0.,0.,1.));
#481=DIRECTION('center_axis',(-1.,0.,0.));
#482=DIRECTION('ref_axis',(1.28856045304478E-17,1.,0.));
#483=DIRECTION('',(0.866025403784438,0.500000000000001,6.12323399573677E-17));
#484=DIRECTION('center_axis',(-1.,0.,0.));
#485=DIRECTION('ref_axis',(0.,0.,-1.));
#486=DIRECTION('center_axis',(1.,0.,0.));
#487=DIRECTION('ref_axis',(1.28856045304478E-17,1.,0.));
#488=DIRECTION('center_axis',(0.,1.,1.22464679914735E-16));
#489=DIRECTION('ref_axis',(0.,-1.22464679914735E-16,1.));
#490=DIRECTION('center_axis',(1.,0.,0.));
#491=DIRECTION('ref_axis',(1.28856045304478E-17,1.,0.));
#492=DIRECTION('center_axis',(1.,0.,0.));
#493=DIRECTION('ref_axis',(1.28856045304478E-17,1.,0.));
#494=DIRECTION('center_axis',(1.,0.,0.));
#495=DIRECTION('ref_axis',(-1.28856045304478E-17,1.,0.));
#496=DIRECTION('',(-0.866025403784438,0.500000000000001,6.12323399573677E-17));
#497=DIRECTION('center_axis',(1.,0.,0.));
#498=DIRECTION('ref_axis',(0.,0.,-1.));
#499=DIRECTION('center_axis',(1.,0.,0.));
#500=DIRECTION('ref_axis',(-1.28856045304478E-17,1.,0.));
#501=DIRECTION('center_axis',(1.,0.,0.));
#502=DIRECTION('ref_axis',(-1.28856045304478E-17,1.,0.));
#503=DIRECTION('center_axis',(1.,0.,0.));
#504=DIRECTION('ref_axis',(-1.28856045304478E-17,1.,0.));
#505=DIRECTION('center_axis',(0.,-1.,-1.22464679914735E-16));
#506=DIRECTION('ref_axis',(0.,-1.22464679914735E-16,1.));
#507=DIRECTION('center_axis',(1.,0.,0.));
#508=DIRECTION('ref_axis',(-1.28856045304478E-17,1.,0.));
#509=DIRECTION('',(-1.,0.,0.));
#510=DIRECTION('center_axis',(1.,0.,0.));
#511=DIRECTION('ref_axis',(-1.28856045304478E-17,1.,0.));
#512=DIRECTION('',(-1.,0.,0.));
#513=CARTESIAN_POINT('',(0.,0.,0.));
#514=CARTESIAN_POINT('Origin',(-4.91307088005643,0.,0.));
#515=CARTESIAN_POINT('',(-5.16498404423149E-14,28.1,0.));
#516=CARTESIAN_POINT('',(-4.30211422042248E-14,-28.1,-3.44125750560406E-15));
#517=CARTESIAN_POINT('Origin',(-5.16497651939507E-14,0.,0.));
#518=CARTESIAN_POINT('',(-5.16253706450698E-14,-3.44125750560406E-15,-28.1));
#519=CARTESIAN_POINT('Origin',(-5.16497651939507E-14,0.,0.));
#520=CARTESIAN_POINT('',(-9.69326673973665,-3.52085954754864E-15,-28.75));
#521=CARTESIAN_POINT('Origin',(-4.91307088005643,-3.3597249478208E-15,-27.4342361418817));
#522=CARTESIAN_POINT('',(-9.69326673973665,28.75,0.));
#523=CARTESIAN_POINT('Origin',(-9.69326673973665,0.,0.));
#524=CARTESIAN_POINT('',(-9.69326673973665,-28.75,-3.52085954754864E-15));
#525=CARTESIAN_POINT('Origin',(-9.69326673973665,0.,0.));
#526=CARTESIAN_POINT('Origin',(-9.69326673973665,0.,0.));
#527=CARTESIAN_POINT('Origin',(-5.16497651939507E-14,0.,0.));
#528=CARTESIAN_POINT('Origin',(-2.39136831734587,0.,0.));
#529=CARTESIAN_POINT('',(-1.29903810567671,27.35,0.));
#530=CARTESIAN_POINT('',(-1.29903810567672,-27.35,-3.34940899566801E-15));
#531=CARTESIAN_POINT('Origin',(-1.29903810567671,0.,0.));
#532=CARTESIAN_POINT('',(-1.29903810567671,-3.34940899566801E-15,-27.35));
#533=CARTESIAN_POINT('Origin',(-1.29903810567671,0.,0.));
#534=CARTESIAN_POINT('',(-3.48369852901504,-3.34940899566801E-15,-27.35));
#535=CARTESIAN_POINT('',(-2.39136831734587,-3.34940899566801E-15,-27.35));
#536=CARTESIAN_POINT('',(-3.48369852901504,0.,27.35));
#537=CARTESIAN_POINT('Origin',(-3.48369852901504,0.,0.));
#538=CARTESIAN_POINT('Origin',(-3.48369852901504,0.,0.));
#539=CARTESIAN_POINT('Origin',(-1.29903810567671,0.,0.));
#540=CARTESIAN_POINT('Origin',(-4.88993464005757,0.,0.));
#541=CARTESIAN_POINT('',(-6.2961707511001,0.,27.35));
#542=CARTESIAN_POINT('',(-6.2961707511001,-3.34940899566801E-15,-27.35));
#543=CARTESIAN_POINT('Origin',(-6.2961707511001,0.,0.));
#544=CARTESIAN_POINT('Origin',(-4.88993464005757,-3.67394039744206E-15,
-30.));
#545=CARTESIAN_POINT('Origin',(-6.2961707511001,0.,0.));
#546=CARTESIAN_POINT('Origin',(-7.68246884549848,0.,0.));
#547=CARTESIAN_POINT('',(-9.06876693989688,-3.34940899566801E-15,-27.35));
#548=CARTESIAN_POINT('',(-7.68246884549848,-3.34940899566801E-15,-27.35));
#549=CARTESIAN_POINT('',(-9.06876693989688,0.,27.35));
#550=CARTESIAN_POINT('Origin',(-9.06876693989688,0.,0.));
#551=CARTESIAN_POINT('Origin',(-9.06876693989688,0.,0.));
#552=CARTESIAN_POINT('Origin',(-134.086929119944,0.,0.));
#553=CARTESIAN_POINT('',(-139.,28.1,0.));
#554=CARTESIAN_POINT('',(-139.,-28.1,-3.44125750560406E-15));
#555=CARTESIAN_POINT('Origin',(-139.,0.,0.));
#556=CARTESIAN_POINT('',(-139.,-3.44125750560406E-15,-28.1));
#557=CARTESIAN_POINT('Origin',(-139.,0.,0.));
#558=CARTESIAN_POINT('',(-129.306733260263,-3.52085954754864E-15,-28.75));
#559=CARTESIAN_POINT('Origin',(-134.086929119944,-3.3597249478208E-15,-27.4342361418817));
#560=CARTESIAN_POINT('',(-129.306733260263,-28.75,-3.52085954754864E-15));
#561=CARTESIAN_POINT('Origin',(-129.306733260263,0.,0.));
#562=CARTESIAN_POINT('',(-129.306733260263,28.75,0.));
#563=CARTESIAN_POINT('Origin',(-129.306733260263,0.,0.));
#564=CARTESIAN_POINT('Origin',(-129.306733260263,0.,0.));
#565=CARTESIAN_POINT('Origin',(-139.,0.,0.));
#566=CARTESIAN_POINT('Origin',(-136.608631682654,0.,0.));
#567=CARTESIAN_POINT('',(-137.700961894323,27.35,0.));
#568=CARTESIAN_POINT('',(-137.700961894323,-27.35,-3.34940899566801E-15));
#569=CARTESIAN_POINT('Origin',(-137.700961894323,0.,0.));
#570=CARTESIAN_POINT('',(-137.700961894323,-3.34940899566801E-15,-27.35));
#571=CARTESIAN_POINT('Origin',(-137.700961894323,0.,0.));
#572=CARTESIAN_POINT('',(-135.516301470985,-3.34940899566801E-15,-27.35));
#573=CARTESIAN_POINT('',(-136.608631682654,-3.34940899566801E-15,-27.35));
#574=CARTESIAN_POINT('',(-135.516301470985,0.,27.35));
#575=CARTESIAN_POINT('Origin',(-135.516301470985,0.,0.));
#576=CARTESIAN_POINT('Origin',(-135.516301470985,0.,0.));
#577=CARTESIAN_POINT('Origin',(-137.700961894323,0.,0.));
#578=CARTESIAN_POINT('Origin',(-134.110065359942,0.,0.));
#579=CARTESIAN_POINT('',(-132.7038292489,0.,27.35));
#580=CARTESIAN_POINT('',(-132.7038292489,-3.34940899566801E-15,-27.35));
#581=CARTESIAN_POINT('Origin',(-132.7038292489,0.,0.));
#582=CARTESIAN_POINT('Origin',(-132.7038292489,0.,0.));
#583=CARTESIAN_POINT('Origin',(-134.110065359942,-3.67394039744206E-15,
-30.));
#584=CARTESIAN_POINT('Origin',(-131.317531154502,0.,0.));
#585=CARTESIAN_POINT('',(-129.931233060103,-3.34940899566801E-15,-27.35));
#586=CARTESIAN_POINT('',(-131.317531154502,-3.34940899566801E-15,-27.35));
#587=CARTESIAN_POINT('',(-129.931233060103,0.,27.35));
#588=CARTESIAN_POINT('Origin',(-129.931233060103,0.,0.));
#589=CARTESIAN_POINT('Origin',(-129.931233060103,0.,0.));
#590=CARTESIAN_POINT('Origin',(-138.350480947162,0.,0.));
#591=CARTESIAN_POINT('',(-138.350480947162,-27.725,-3.39533325063604E-15));
#592=CARTESIAN_POINT('Origin',(-129.306733260263,0.,0.));
#593=CARTESIAN_POINT('',(-129.306733260263,27.25,0.));
#594=CARTESIAN_POINT('',(-129.306733260263,-3.33716252767654E-15,27.25));
#595=CARTESIAN_POINT('Origin',(-129.306733260263,0.,0.));
#596=CARTESIAN_POINT('Origin',(-129.306733260263,-3.58209188750601E-15,
29.25));
#597=CARTESIAN_POINT('',(-129.306733260263,-27.25,-3.33716252767654E-15));
#598=CARTESIAN_POINT('Origin',(-129.306733260263,0.,0.));
#599=CARTESIAN_POINT('Origin',(-129.306733260263,0.,0.));
#600=CARTESIAN_POINT('Origin',(-0.649519052838382,0.,0.));
#601=CARTESIAN_POINT('',(-0.649519052838381,-27.725,-3.39533325063604E-15));
#602=CARTESIAN_POINT('Origin',(-9.69326673973665,0.,0.));
#603=CARTESIAN_POINT('',(-9.69326673973665,27.25,0.));
#604=CARTESIAN_POINT('',(-9.69326673973665,-3.33716252767654E-15,27.25));
#605=CARTESIAN_POINT('Origin',(-9.69326673973665,0.,0.));
#606=CARTESIAN_POINT('',(-9.69326673973665,-27.25,-3.33716252767654E-15));
#607=CARTESIAN_POINT('Origin',(-9.69326673973665,0.,0.));
#608=CARTESIAN_POINT('Origin',(-9.69326673973665,0.,0.));
#609=CARTESIAN_POINT('Origin',(-9.69326673973665,-3.58209188750601E-15,
29.25));
#610=CARTESIAN_POINT('Origin',(-39.5966333698683,0.,0.));
#611=CARTESIAN_POINT('',(-39.5966333698683,-27.25,-3.33716252767654E-15));
#612=CARTESIAN_POINT('Origin',(-39.5966333698683,0.,0.));
#613=CARTESIAN_POINT('',(-39.5966333698683,-28.75,-3.52085954754864E-15));
#614=UNCERTAINTY_MEASURE_WITH_UNIT(LENGTH_MEASURE(0.01),#618,
'DISTANCE_ACCURACY_VALUE',
'Maximum model space distance between geometric entities at asserted c
onnectivities');
#615=UNCERTAINTY_MEASURE_WITH_UNIT(LENGTH_MEASURE(0.01),#618,
'DISTANCE_ACCURACY_VALUE',
'Maximum model space distance between geometric entities at asserted c
onnectivities');
#616=(
GEOMETRIC_REPRESENTATION_CONTEXT(3)
GLOBAL_UNCERTAINTY_ASSIGNED_CONTEXT((#614))
GLOBAL_UNIT_ASSIGNED_CONTEXT((#618,#620,#621))
REPRESENTATION_CONTEXT('','3D')
);
#617=(
GEOMETRIC_REPRESENTATION_CONTEXT(3)
GLOBAL_UNCERTAINTY_ASSIGNED_CONTEXT((#615))
GLOBAL_UNIT_ASSIGNED_CONTEXT((#618,#620,#621))
REPRESENTATION_CONTEXT('','3D')
);
#618=(
LENGTH_UNIT()
NAMED_UNIT(*)
SI_UNIT(.MILLI.,.METRE.)
);
#619=(
LENGTH_UNIT()
NAMED_UNIT(*)
SI_UNIT(.CENTI.,.METRE.)
);
#620=(
NAMED_UNIT(*)
PLANE_ANGLE_UNIT()
SI_UNIT($,.RADIAN.)
);
#621=(
NAMED_UNIT(*)
SI_UNIT($,.STERADIAN.)
SOLID_ANGLE_UNIT()
);
#622=SHAPE_DEFINITION_REPRESENTATION(#623,#624);
#623=PRODUCT_DEFINITION_SHAPE('',$,#626);
#624=SHAPE_REPRESENTATION('',(#334),#616);
#625=PRODUCT_DEFINITION_CONTEXT('part definition',#630,'design');
#626=PRODUCT_DEFINITION('383054001_Steelpres','383054001_Steelpres',#627,
#625);
#627=PRODUCT_DEFINITION_FORMATION('0',$,#632);
#628=PRODUCT_RELATED_PRODUCT_CATEGORY('383054001_Steelpres',
'383054001_Steelpres',(#632));
#629=APPLICATION_PROTOCOL_DEFINITION('international standard',
'automotive_design',2009,#630);
#630=APPLICATION_CONTEXT(
'Core Data for Automotive Mechanical Design Process');
#631=PRODUCT_CONTEXT('part definition',#630,'mechanical');
#632=PRODUCT('383054001_Steelpres','383054001_Steelpres',$,(#631));
#633=PRESENTATION_STYLE_ASSIGNMENT((#634));
#634=SURFACE_STYLE_USAGE(.BOTH.,#637);
#635=SURFACE_STYLE_RENDERING_WITH_PROPERTIES($,#641,(#636));
#636=SURFACE_STYLE_TRANSPARENT(0.);
#637=SURFACE_SIDE_STYLE('',(#638,#635));
#638=SURFACE_STYLE_FILL_AREA(#639);
#639=FILL_AREA_STYLE('',(#640));
#640=FILL_AREA_STYLE_COLOUR('',#641);
#641=COLOUR_RGB('',0.886274509803922,0.917647058823529,0.894117647058824);
ENDSEC;
END-ISO-10303-21;
