ISO-10303-21;
HEADER;
FILE_DESCRIPTION (( 'STEP AP203' ),
    '1' );
FILE_NAME ('3D_R152_DN100_17305260.STEP',
    '2024-08-13T07:54:29',
    ( '' ),
    ( '' ),
    'SwSTEP 2.0',
    'SolidWorks 2024',
    '' );
FILE_SCHEMA (( 'CONFIG_CONTROL_DESIGN' ));
ENDSEC;

DATA;
#1 = EDGE_CURVE ( 'NONE', #117, #133, #245, .T. ) ;
#2 = ORIENTED_EDGE ( 'NONE', *, *, #163, .T. ) ;
#3 = CYLINDRICAL_SURFACE ( 'NONE', #234, 79.00000000000000000 ) ;
#4 = ADVANCED_FACE ( 'NONE', ( #232 ), #80, .T. ) ;
#5 = CARTESIAN_POINT ( 'NONE',  ( 0.000000000000000000, 10.00000000000000000, 0.000000000000000000 ) ) ;
#6 = CARTESIAN_POINT ( 'NONE',  ( 0.000000000000000000, 10.00000000000000000, -184.0000000000000000 ) ) ;
#7 = PLANE ( 'NONE',  #27 ) ;
#8 = FACE_OUTER_BOUND ( 'NONE', #112, .T. ) ;
#9 = DIRECTION ( 'NONE',  ( 0.000000000000000000, 1.000000000000000000, 0.000000000000000000 ) ) ;
#10 = CARTESIAN_POINT ( 'NONE',  ( 0.000000000000000000, 0.000000000000000000, 0.000000000000000000 ) ) ;
#11 = CARTESIAN_POINT ( 'NONE',  ( 0.000000000000000000, 0.000000000000000000, 0.000000000000000000 ) ) ;
#12 = CC_DESIGN_SECURITY_CLASSIFICATION ( #21, ( #201 ) ) ;
#13 = APPROVAL_ROLE ( '' ) ;
#14 = CIRCLE ( 'NONE', #221, 184.0000000000000000 ) ;
#15 = DATE_TIME_ROLE ( 'classification_date' ) ;
#16 = CIRCLE ( 'NONE', #158, 79.00000000000000000 ) ;
#17 = APPROVAL_ROLE ( '' ) ;
#18 = LOCAL_TIME ( 9, 54, 29.00000000000000000, #208 ) ;
#19 = CC_DESIGN_DATE_AND_TIME_ASSIGNMENT ( #109, #15, ( #21 ) ) ;
#20 = ORIENTED_EDGE ( 'NONE', *, *, #30, .F. ) ;
#21 = SECURITY_CLASSIFICATION ( '', '', #69 ) ;
#22 = ORIENTED_EDGE ( 'NONE', *, *, #94, .T. ) ;
#23 = VERTEX_POINT ( 'NONE', #140 ) ;
#24 = DIRECTION ( 'NONE',  ( -0.000000000000000000, -1.000000000000000000, -0.000000000000000000 ) ) ;
#25 = ORIENTED_EDGE ( 'NONE', *, *, #143, .F. ) ;
#26 = FACE_OUTER_BOUND ( 'NONE', #76, .T. ) ;
#27 = AXIS2_PLACEMENT_3D ( 'NONE', #83, #127, #50 ) ;
#28 =( LENGTH_UNIT ( ) NAMED_UNIT ( * ) SI_UNIT ( .MILLI., .METRE. ) );
#29 = CARTESIAN_POINT ( 'NONE',  ( 0.000000000000000000, 10.00000000000000000, -184.0000000000000000 ) ) ;
#30 = EDGE_CURVE ( 'NONE', #61, #248, #200, .T. ) ;
#31 = CYLINDRICAL_SURFACE ( 'NONE', #233, 184.0000000000000000 ) ;
#32 = PERSON_AND_ORGANIZATION_ROLE ( 'classification_officer' ) ;
#33 = MECHANICAL_CONTEXT ( 'NONE', #52, 'mechanical' ) ;
#34 = AXIS2_PLACEMENT_3D ( 'NONE', #146, #82, #65 ) ;
#35 = APPROVAL_DATE_TIME ( #225, #224 ) ;
#36 = CC_DESIGN_PERSON_AND_ORGANIZATION_ASSIGNMENT ( #130, #32, ( #21 ) ) ;
#37 = ORIENTED_EDGE ( 'NONE', *, *, #138, .F. ) ;
#38 = AXIS2_PLACEMENT_3D ( 'NONE', #41, #118, #161 ) ;
#39 = DIRECTION ( 'NONE',  ( 0.000000000000000000, 0.000000000000000000, 1.000000000000000000 ) ) ;
#40 = ORIENTED_EDGE ( 'NONE', *, *, #101, .F. ) ;
#41 = CARTESIAN_POINT ( 'NONE',  ( 0.000000000000000000, 10.00000000000000000, 0.000000000000000000 ) ) ;
#42 = PRODUCT_DEFINITION_SHAPE ( 'NONE', 'NONE',  #128 ) ;
#43 = VERTEX_POINT ( 'NONE', #157 ) ;
#44 = APPLICATION_CONTEXT ( 'configuration controlled 3d designs of mechanical parts and assemblies' ) ;
#45 = CARTESIAN_POINT ( 'NONE',  ( 2.253350110431129881E-14, 10.00000000000000000, 184.0000000000000000 ) ) ;
#46 = DIRECTION ( 'NONE',  ( 0.000000000000000000, 1.000000000000000000, 0.000000000000000000 ) ) ;
#47 = DIRECTION ( 'NONE',  ( 0.000000000000000000, 0.000000000000000000, -1.000000000000000000 ) ) ;
#48 = EDGE_CURVE ( 'NONE', #231, #23, #57, .T. ) ;
#49 = CIRCLE ( 'NONE', #188, 79.00000000000000000 ) ;
#50 = DIRECTION ( 'NONE',  ( 0.000000000000000000, -0.000000000000000000, 1.000000000000000000 ) ) ;
#51 = CALENDAR_DATE ( 2024, 13, 8 ) ;
#52 = APPLICATION_CONTEXT ( 'configuration controlled 3d designs of mechanical parts and assemblies' ) ;
#53 = CC_DESIGN_PERSON_AND_ORGANIZATION_ASSIGNMENT ( #184, #149, ( #128 ) ) ;
#54 = PERSON_AND_ORGANIZATION ( #67, #186 ) ;
#55 = COORDINATED_UNIVERSAL_TIME_OFFSET ( 1, 0, .AHEAD. ) ;
#56 = ORIENTED_EDGE ( 'NONE', *, *, #207, .T. ) ;
#57 = LINE ( 'NONE', #192, #211 ) ;
#58 = ORIENTED_EDGE ( 'NONE', *, *, #138, .T. ) ;
#59 = DIRECTION ( 'NONE',  ( -0.000000000000000000, -1.000000000000000000, -0.000000000000000000 ) ) ;
#60 = LOCAL_TIME ( 9, 54, 29.00000000000000000, #154 ) ;
#61 = VERTEX_POINT ( 'NONE', #137 ) ;
#62 = FACE_OUTER_BOUND ( 'NONE', #238, .T. ) ;
#63 = ADVANCED_FACE ( 'NONE', ( #79 ), #3, .F. ) ;
#64 = DIRECTION ( 'NONE',  ( -0.000000000000000000, -1.000000000000000000, -0.000000000000000000 ) ) ;
#65 = DIRECTION ( 'NONE',  ( 0.000000000000000000, -0.000000000000000000, 1.000000000000000000 ) ) ;
#66 = CIRCLE ( 'NONE', #72, 79.00000000000000000 ) ;
#67 = PERSON ( 'UNSPECIFIED', 'UNSPECIFIED', 'UNSPECIFIED', ('UNSPECIFIED'), ('UNSPECIFIED'), ('UNSPECIFIED') ) ;
#68 = DIRECTION ( 'NONE',  ( 0.000000000000000000, 1.000000000000000000, 0.000000000000000000 ) ) ;
#69 = SECURITY_CLASSIFICATION_LEVEL ( 'unclassified' ) ;
#70 = PERSON_AND_ORGANIZATION ( #67, #186 ) ;
#71 = EDGE_CURVE ( 'NONE', #133, #117, #84, .T. ) ;
#72 = AXIS2_PLACEMENT_3D ( 'NONE', #141, #239, #121 ) ;
#73 = CALENDAR_DATE ( 2024, 13, 8 ) ;
#74 = DATE_TIME_ROLE ( 'creation_date' ) ;
#75 = CC_DESIGN_PERSON_AND_ORGANIZATION_ASSIGNMENT ( #90, #151, ( #194 ) ) ;
#76 = EDGE_LOOP ( 'NONE', ( #135, #139 ) ) ;
#77 = DIRECTION ( 'NONE',  ( 0.000000000000000000, 0.000000000000000000, 1.000000000000000000 ) ) ;
#78 = DIRECTION ( 'NONE',  ( -0.000000000000000000, -1.000000000000000000, -0.000000000000000000 ) ) ;
#79 = FACE_OUTER_BOUND ( 'NONE', #172, .T. ) ;
#80 = CYLINDRICAL_SURFACE ( 'NONE', #178, 184.0000000000000000 ) ;
#81 = CC_DESIGN_PERSON_AND_ORGANIZATION_ASSIGNMENT ( #54, #244, ( #201 ) ) ;
#82 = DIRECTION ( 'NONE',  ( 0.000000000000000000, 1.000000000000000000, 0.000000000000000000 ) ) ;
#83 = CARTESIAN_POINT ( 'NONE',  ( 0.000000000000000000, 10.00000000000000000, 0.000000000000000000 ) ) ;
#84 = CIRCLE ( 'NONE', #38, 184.0000000000000000 ) ;
#85 = APPROVAL_PERSON_ORGANIZATION ( #168, #224, #92 ) ;
#86 = CARTESIAN_POINT ( 'NONE',  ( 9.674709713264090904E-15, 10.00000000000000000, 79.00000000000000000 ) ) ;
#87 = CC_DESIGN_APPROVAL ( #187, ( #201 ) ) ;
#88 = DIRECTION ( 'NONE',  ( 0.000000000000000000, 0.000000000000000000, -1.000000000000000000 ) ) ;
#89 = FACE_BOUND ( 'NONE', #120, .T. ) ;
#90 = PERSON_AND_ORGANIZATION ( #67, #186 ) ;
#91 = ADVANCED_FACE ( 'NONE', ( #26, #89 ), #7, .T. ) ;
#92 = APPROVAL_ROLE ( '' ) ;
#93 = VECTOR ( 'NONE', #126, 1000.000000000000000 ) ;
#94 = EDGE_CURVE ( 'NONE', #117, #61, #175, .T. ) ;
#95 = APPROVAL_PERSON_ORGANIZATION ( #70, #187, #17 ) ;
#96 = APPROVAL_DATE_TIME ( #131, #183 ) ;
#97 = CARTESIAN_POINT ( 'NONE',  ( 0.000000000000000000, 10.00000000000000000, 0.000000000000000000 ) ) ;
#98 = ORIENTED_EDGE ( 'NONE', *, *, #48, .T. ) ;
#99 = DIRECTION ( 'NONE',  ( 0.000000000000000000, 1.000000000000000000, 0.000000000000000000 ) ) ;
#100 = ORIENTED_EDGE ( 'NONE', *, *, #108, .F. ) ;
#101 = EDGE_CURVE ( 'NONE', #133, #248, #142, .T. ) ;
#102 = ORIENTED_EDGE ( 'NONE', *, *, #48, .F. ) ;
#103 = CARTESIAN_POINT ( 'NONE',  ( 0.000000000000000000, 10.00000000000000000, -79.00000000000000000 ) ) ;
#104 = UNCERTAINTY_MEASURE_WITH_UNIT (LENGTH_MEASURE( 1.000000000000000082E-05 ), #28, 'distance_accuracy_value', 'NONE');
#105 =( NAMED_UNIT ( * ) PLANE_ANGLE_UNIT ( ) SI_UNIT ( $, .RADIAN. ) );
#106 = CARTESIAN_POINT ( 'NONE',  ( 0.000000000000000000, 0.000000000000000000, 0.000000000000000000 ) ) ;
#107 = DIRECTION ( 'NONE',  ( -0.000000000000000000, -1.000000000000000000, -0.000000000000000000 ) ) ;
#108 = EDGE_CURVE ( 'NONE', #43, #231, #16, .T. ) ;
#109 = DATE_AND_TIME ( #51, #191 ) ;
#110 = AXIS2_PLACEMENT_3D ( 'NONE', #180, #218, #47 ) ;
#111 = SHAPE_DEFINITION_REPRESENTATION ( #42, #164 ) ;
#112 = EDGE_LOOP ( 'NONE', ( #189, #195, #98, #212 ) ) ;
#113 = AXIS2_PLACEMENT_3D ( 'NONE', #5, #99, #39 ) ;
#114 = CC_DESIGN_APPROVAL ( #224, ( #21 ) ) ;
#115 = DIRECTION ( 'NONE',  ( 0.000000000000000000, 1.000000000000000000, 0.000000000000000000 ) ) ;
#116 = CC_DESIGN_APPROVAL ( #183, ( #128 ) ) ;
#117 = VERTEX_POINT ( 'NONE', #203 ) ;
#118 = DIRECTION ( 'NONE',  ( 0.000000000000000000, 1.000000000000000000, 0.000000000000000000 ) ) ;
#119 = ADVANCED_FACE ( 'NONE', ( #144 ), #31, .T. ) ;
#120 = EDGE_LOOP ( 'NONE', ( #37, #100 ) ) ;
#121 = DIRECTION ( 'NONE',  ( 0.000000000000000000, 0.000000000000000000, 1.000000000000000000 ) ) ;
#122 = FACE_BOUND ( 'NONE', #215, .T. ) ;
#123 = DIRECTION ( 'NONE',  ( 0.000000000000000000, 0.000000000000000000, 1.000000000000000000 ) ) ;
#124 = CIRCLE ( 'NONE', #145, 79.00000000000000000 ) ;
#125 = VECTOR ( 'NONE', #64, 1000.000000000000000 ) ;
#126 = DIRECTION ( 'NONE',  ( -0.000000000000000000, -1.000000000000000000, -0.000000000000000000 ) ) ;
#127 = DIRECTION ( 'NONE',  ( 0.000000000000000000, 1.000000000000000000, 0.000000000000000000 ) ) ;
#128 = PRODUCT_DEFINITION ( 'UNKNOWN', '', #201, #219 ) ;
#129 = APPLICATION_PROTOCOL_DEFINITION ( 'international standard', 'config_control_design', 1994, #52 ) ;
#130 = PERSON_AND_ORGANIZATION ( #67, #186 ) ;
#131 = DATE_AND_TIME ( #132, #228 ) ;
#132 = CALENDAR_DATE ( 2024, 13, 8 ) ;
#133 = VERTEX_POINT ( 'NONE', #6 ) ;
#134 = ADVANCED_FACE ( 'NONE', ( #8 ), #165, .F. ) ;
#135 = ORIENTED_EDGE ( 'NONE', *, *, #71, .T. ) ;
#136 = CLOSED_SHELL ( 'NONE', ( #63, #4, #91, #147, #119, #134 ) ) ;
#137 = CARTESIAN_POINT ( 'NONE',  ( 2.253350110431129881E-14, 0.000000000000000000, 184.0000000000000000 ) ) ;
#138 = EDGE_CURVE ( 'NONE', #231, #43, #124, .T. ) ;
#139 = ORIENTED_EDGE ( 'NONE', *, *, #1, .T. ) ;
#140 = CARTESIAN_POINT ( 'NONE',  ( 0.000000000000000000, 0.000000000000000000, -79.00000000000000000 ) ) ;
#141 = CARTESIAN_POINT ( 'NONE',  ( 0.000000000000000000, 0.000000000000000000, 0.000000000000000000 ) ) ;
#142 = LINE ( 'NONE', #29, #125 ) ;
#143 = EDGE_CURVE ( 'NONE', #248, #61, #14, .T. ) ;
#144 = FACE_OUTER_BOUND ( 'NONE', #160, .T. ) ;
#145 = AXIS2_PLACEMENT_3D ( 'NONE', #242, #198, #241 ) ;
#146 = CARTESIAN_POINT ( 'NONE',  ( 0.000000000000000000, 0.000000000000000000, 0.000000000000000000 ) ) ;
#147 = ADVANCED_FACE ( 'NONE', ( #62, #122 ), #222, .F. ) ;
#148 = VECTOR ( 'NONE', #217, 1000.000000000000000 ) ;
#149 = PERSON_AND_ORGANIZATION_ROLE ( 'creator' ) ;
#150 = CALENDAR_DATE ( 2024, 13, 8 ) ;
#151 = PERSON_AND_ORGANIZATION_ROLE ( 'design_owner' ) ;
#152 =( GEOMETRIC_REPRESENTATION_CONTEXT ( 3 ) GLOBAL_UNCERTAINTY_ASSIGNED_CONTEXT ( ( #104 ) ) GLOBAL_UNIT_ASSIGNED_CONTEXT ( ( #28, #105, #179 ) ) REPRESENTATION_CONTEXT ( 'NONE', 'WORKASPACE' ) );
#153 = CALENDAR_DATE ( 2024, 13, 8 ) ;
#154 = COORDINATED_UNIVERSAL_TIME_OFFSET ( 1, 0, .AHEAD. ) ;
#155 = ORIENTED_EDGE ( 'NONE', *, *, #1, .F. ) ;
#156 = ORIENTED_EDGE ( 'NONE', *, *, #229, .T. ) ;
#157 = CARTESIAN_POINT ( 'NONE',  ( 9.674709713264090904E-15, 10.00000000000000000, 79.00000000000000000 ) ) ;
#158 = AXIS2_PLACEMENT_3D ( 'NONE', #240, #68, #166 ) ;
#159 = CARTESIAN_POINT ( 'NONE',  ( 0.000000000000000000, 10.00000000000000000, 0.000000000000000000 ) ) ;
#160 = EDGE_LOOP ( 'NONE', ( #210, #173, #230, #174 ) ) ;
#161 = DIRECTION ( 'NONE',  ( 0.000000000000000000, 0.000000000000000000, 1.000000000000000000 ) ) ;
#162 = CARTESIAN_POINT ( 'NONE',  ( 9.674709713264090904E-15, 0.000000000000000000, 79.00000000000000000 ) ) ;
#163 = EDGE_CURVE ( 'NONE', #23, #235, #66, .T. ) ;
#164 = ADVANCED_BREP_SHAPE_REPRESENTATION ( '3D_R152_DN100_17305260', ( #177, #236 ), #152 ) ;
#165 = CYLINDRICAL_SURFACE ( 'NONE', #110, 79.00000000000000000 ) ;
#166 = DIRECTION ( 'NONE',  ( 0.000000000000000000, 0.000000000000000000, 1.000000000000000000 ) ) ;
#167 = APPLICATION_PROTOCOL_DEFINITION ( 'international standard', 'config_control_design', 1994, #44 ) ;
#168 = PERSON_AND_ORGANIZATION ( #67, #186 ) ;
#169 = APPROVAL_STATUS ( 'not_yet_approved' ) ;
#170 = APPROVAL_DATE_TIME ( #206, #187 ) ;
#171 = DIRECTION ( 'NONE',  ( 0.000000000000000000, 0.000000000000000000, -1.000000000000000000 ) ) ;
#172 = EDGE_LOOP ( 'NONE', ( #58, #156, #196, #102 ) ) ;
#173 = ORIENTED_EDGE ( 'NONE', *, *, #71, .F. ) ;
#174 = ORIENTED_EDGE ( 'NONE', *, *, #143, .T. ) ;
#175 = LINE ( 'NONE', #45, #93 ) ;
#176 = DIRECTION ( 'NONE',  ( 0.000000000000000000, 0.000000000000000000, 1.000000000000000000 ) ) ;
#177 = MANIFOLD_SOLID_BREP ( 'Aufsatz-Linear austragen1', #136 ) ;
#178 = AXIS2_PLACEMENT_3D ( 'NONE', #97, #24, #171 ) ;
#179 =( NAMED_UNIT ( * ) SI_UNIT ( $, .STERADIAN. ) SOLID_ANGLE_UNIT ( ) );
#180 = CARTESIAN_POINT ( 'NONE',  ( 0.000000000000000000, 10.00000000000000000, 0.000000000000000000 ) ) ;
#181 = APPROVAL_STATUS ( 'not_yet_approved' ) ;
#182 = PERSON_AND_ORGANIZATION ( #67, #186 ) ;
#183 = APPROVAL ( #181, 'UNSPECIFIED' ) ;
#184 = PERSON_AND_ORGANIZATION ( #67, #186 ) ;
#185 = COORDINATED_UNIVERSAL_TIME_OFFSET ( 1, 0, .AHEAD. ) ;
#186 = ORGANIZATION ( 'UNSPECIFIED', 'UNSPECIFIED', '' ) ;
#187 = APPROVAL ( #169, 'UNSPECIFIED' ) ;
#188 = AXIS2_PLACEMENT_3D ( 'NONE', #106, #9, #176 ) ;
#189 = ORIENTED_EDGE ( 'NONE', *, *, #229, .F. ) ;
#190 = AXIS2_PLACEMENT_3D ( 'NONE', #249, #115, #77 ) ;
#191 = LOCAL_TIME ( 9, 54, 29.00000000000000000, #223 ) ;
#192 = CARTESIAN_POINT ( 'NONE',  ( 0.000000000000000000, 10.00000000000000000, -79.00000000000000000 ) ) ;
#193 = APPROVAL_PERSON_ORGANIZATION ( #243, #183, #13 ) ;
#194 = PRODUCT ( '3D_R152_DN100_17305260', '3D_R152_DN100_17305260', '', ( #33 ) ) ;
#195 = ORIENTED_EDGE ( 'NONE', *, *, #108, .T. ) ;
#196 = ORIENTED_EDGE ( 'NONE', *, *, #163, .F. ) ;
#197 = EDGE_LOOP ( 'NONE', ( #155, #22, #209, #40 ) ) ;
#198 = DIRECTION ( 'NONE',  ( 0.000000000000000000, 1.000000000000000000, 0.000000000000000000 ) ) ;
#199 = CARTESIAN_POINT ( 'NONE',  ( 0.000000000000000000, 0.000000000000000000, -184.0000000000000000 ) ) ;
#200 = CIRCLE ( 'NONE', #190, 184.0000000000000000 ) ;
#201 = PRODUCT_DEFINITION_FORMATION_WITH_SPECIFIED_SOURCE ( 'ANY', '', #194, .NOT_KNOWN. ) ;
#202 = LINE ( 'NONE', #86, #148 ) ;
#203 = CARTESIAN_POINT ( 'NONE',  ( 2.253350110431129881E-14, 10.00000000000000000, 184.0000000000000000 ) ) ;
#204 = APPROVAL_STATUS ( 'not_yet_approved' ) ;
#205 = DIRECTION ( 'NONE',  ( 1.000000000000000000, 0.000000000000000000, 0.000000000000000000 ) ) ;
#206 = DATE_AND_TIME ( #73, #18 ) ;
#207 = EDGE_CURVE ( 'NONE', #235, #23, #49, .T. ) ;
#208 = COORDINATED_UNIVERSAL_TIME_OFFSET ( 1, 0, .AHEAD. ) ;
#209 = ORIENTED_EDGE ( 'NONE', *, *, #30, .T. ) ;
#210 = ORIENTED_EDGE ( 'NONE', *, *, #94, .F. ) ;
#211 = VECTOR ( 'NONE', #78, 1000.000000000000000 ) ;
#212 = ORIENTED_EDGE ( 'NONE', *, *, #207, .F. ) ;
#213 = PRODUCT_RELATED_PRODUCT_CATEGORY ( 'detail', '', ( #194 ) ) ;
#214 = DIRECTION ( 'NONE',  ( 0.000000000000000000, 0.000000000000000000, -1.000000000000000000 ) ) ;
#215 = EDGE_LOOP ( 'NONE', ( #2, #56 ) ) ;
#216 = CC_DESIGN_PERSON_AND_ORGANIZATION_ASSIGNMENT ( #182, #246, ( #201 ) ) ;
#217 = DIRECTION ( 'NONE',  ( -0.000000000000000000, -1.000000000000000000, -0.000000000000000000 ) ) ;
#218 = DIRECTION ( 'NONE',  ( -0.000000000000000000, -1.000000000000000000, -0.000000000000000000 ) ) ;
#219 = DESIGN_CONTEXT ( 'detailed design', #44, 'design' ) ;
#220 = CARTESIAN_POINT ( 'NONE',  ( 0.000000000000000000, 10.00000000000000000, 0.000000000000000000 ) ) ;
#221 = AXIS2_PLACEMENT_3D ( 'NONE', #10, #46, #123 ) ;
#222 = PLANE ( 'NONE',  #34 ) ;
#223 = COORDINATED_UNIVERSAL_TIME_OFFSET ( 1, 0, .AHEAD. ) ;
#224 = APPROVAL ( #204, 'UNSPECIFIED' ) ;
#225 = DATE_AND_TIME ( #150, #226 ) ;
#226 = LOCAL_TIME ( 9, 54, 29.00000000000000000, #185 ) ;
#227 = DATE_AND_TIME ( #153, #60 ) ;
#228 = LOCAL_TIME ( 9, 54, 29.00000000000000000, #55 ) ;
#229 = EDGE_CURVE ( 'NONE', #43, #235, #202, .T. ) ;
#230 = ORIENTED_EDGE ( 'NONE', *, *, #101, .T. ) ;
#231 = VERTEX_POINT ( 'NONE', #103 ) ;
#232 = FACE_OUTER_BOUND ( 'NONE', #197, .T. ) ;
#233 = AXIS2_PLACEMENT_3D ( 'NONE', #220, #107, #88 ) ;
#234 = AXIS2_PLACEMENT_3D ( 'NONE', #159, #59, #214 ) ;
#235 = VERTEX_POINT ( 'NONE', #162 ) ;
#236 = AXIS2_PLACEMENT_3D ( 'NONE', #11, #247, #205 ) ;
#237 = CC_DESIGN_DATE_AND_TIME_ASSIGNMENT ( #227, #74, ( #128 ) ) ;
#238 = EDGE_LOOP ( 'NONE', ( #25, #20 ) ) ;
#239 = DIRECTION ( 'NONE',  ( 0.000000000000000000, 1.000000000000000000, 0.000000000000000000 ) ) ;
#240 = CARTESIAN_POINT ( 'NONE',  ( 0.000000000000000000, 10.00000000000000000, 0.000000000000000000 ) ) ;
#241 = DIRECTION ( 'NONE',  ( 0.000000000000000000, 0.000000000000000000, 1.000000000000000000 ) ) ;
#242 = CARTESIAN_POINT ( 'NONE',  ( 0.000000000000000000, 10.00000000000000000, 0.000000000000000000 ) ) ;
#243 = PERSON_AND_ORGANIZATION ( #67, #186 ) ;
#244 = PERSON_AND_ORGANIZATION_ROLE ( 'design_supplier' ) ;
#245 = CIRCLE ( 'NONE', #113, 184.0000000000000000 ) ;
#246 = PERSON_AND_ORGANIZATION_ROLE ( 'creator' ) ;
#247 = DIRECTION ( 'NONE',  ( 0.000000000000000000, 0.000000000000000000, 1.000000000000000000 ) ) ;
#248 = VERTEX_POINT ( 'NONE', #199 ) ;
#249 = CARTESIAN_POINT ( 'NONE',  ( 0.000000000000000000, 0.000000000000000000, 0.000000000000000000 ) ) ;
ENDSEC;
END-ISO-10303-21;
