ISO-10303-21;
HEADER;
FILE_DESCRIPTION (( 'STEP AP203' ),
    '1' );
FILE_NAME ('11-0232-02_outokumpu.step',
    '2015-08-11T14:06:00',
    ( '' ),
    ( '' ),
    'SwSTEP 2.0',
    'SolidWorks 2008',
    '' );
FILE_SCHEMA (( 'CONFIG_CONTROL_DESIGN' ));
ENDSEC;

DATA;
#1 = CARTESIAN_POINT ( 'NONE',  ( 8.056072898620508900E-016, 6.578499999999999100, 5.000000000000000900 ) ) ;
#2 = DIRECTION ( 'NONE',  ( -0.0000000000000000000, 7.924185170953464400E-017, 1.000000000000000000 ) ) ;
#3 = VECTOR ( 'NONE', #2, 1000.000000000000000 ) ;
#4 = CARTESIAN_POINT ( 'NONE',  ( 8.056072898620508900E-016, 6.578500000000000000, -5.212925214711736000E-016 ) ) ;
#5 = LINE ( 'NONE', #4, #3 ) ;
#6 = DIRECTION ( 'NONE',  ( 0.0000000000000000000, -1.000000000000000000, 7.924185170953463200E-017 ) ) ;
#7 = DIRECTION ( 'NONE',  ( -0.0000000000000000000, 7.924185170953464400E-017, 1.000000000000000000 ) ) ;
#8 = CARTESIAN_POINT ( 'NONE',  ( 0.0000000000000000000, 0.0000000000000000000, 0.0000000000000000000 ) ) ;
#9 = AXIS2_PLACEMENT_3D ( 'NONE', #8, #7, #6 ) ;
#10 = CYLINDRICAL_SURFACE ( 'NONE', #9, 6.578500000000000000 ) ;
#11 = FACE_OUTER_BOUND ( 'NONE', #83, .T. ) ;
#12 = DIRECTION ( 'NONE',  ( 0.0000000000000000000, 0.7071067811865487900, -0.7071067811865463500 ) ) ;
#13 = VECTOR ( 'NONE', #12, 999.9999999999998900 ) ;
#14 = CARTESIAN_POINT ( 'NONE',  ( 0.0000000000000000000, 6.578500000000000000, -8.270273717898582800 ) ) ;
#15 = LINE ( 'NONE', #14, #13 ) ;
#16 = CARTESIAN_POINT ( 'NONE',  ( 0.0000000000000000000, 6.808226282101418100, -8.499999999999998200 ) ) ;
#17 = DIRECTION ( 'NONE',  ( 0.0000000000000000000, -1.000000000000000000, 0.0000000000000000000 ) ) ;
#18 = DIRECTION ( 'NONE',  ( -0.0000000000000000000, 7.924185170953464400E-017, 1.000000000000000000 ) ) ;
#19 = CARTESIAN_POINT ( 'NONE',  ( 0.0000000000000000000, -6.735557395310444000E-016, -8.499999999999998200 ) ) ;
#20 = AXIS2_PLACEMENT_3D ( 'NONE', #19, #18, #17 ) ;
#21 = CIRCLE ( 'NONE', #20, 6.808226282101418100 ) ;
#22 = CARTESIAN_POINT ( 'NONE',  ( 8.337397163321896100E-016, -6.808226282101418100, -8.499999999999998200 ) ) ;
#23 = DIRECTION ( 'NONE',  ( 8.659274570719370200E-017, -0.7071067811865489100, -0.7071067811865462400 ) ) ;
#24 = VECTOR ( 'NONE', #23, 1000.000000000000000 ) ;
#25 = CARTESIAN_POINT ( 'NONE',  ( 8.056072898620509900E-016, -6.578500000000001800, -8.270273717898582800 ) ) ;
#26 = LINE ( 'NONE', #25, #24 ) ;
#27 = DIRECTION ( 'NONE',  ( 0.0000000000000000000, 1.000000000000000000, 0.0000000000000000000 ) ) ;
#28 = DIRECTION ( 'NONE',  ( 0.0000000000000000000, -7.924185170953464400E-017, -1.000000000000000000 ) ) ;
#29 = CARTESIAN_POINT ( 'NONE',  ( 0.0000000000000000000, -6.553518035509813000E-016, -8.270273717898582800 ) ) ;
#30 = AXIS2_PLACEMENT_3D ( 'NONE', #29, #28, #27 ) ;
#31 = CONICAL_SURFACE ( 'NONE', #30, 6.578500000000000900, 0.7853981633974501700 ) ;
#32 = CARTESIAN_POINT ( 'NONE',  ( 0.0000000000000000000, 6.578499999999999100, 5.000000000000000900 ) ) ;
#33 = AXIS2_PLACEMENT_3D ( 'NONE', #32, #116, #115 ) ;
#34 = PLANE ( 'NONE',  #33 ) ;
#35 = FACE_OUTER_BOUND ( 'NONE', #147, .T. ) ;
#36 = CARTESIAN_POINT ( 'NONE',  ( 1.102145718440139300E-015, 8.999999999999998200, -8.499999999999998200 ) ) ;
#37 = CARTESIAN_POINT ( 'NONE',  ( 0.0000000000000000000, -8.999999999999998200, -8.499999999999998200 ) ) ;
#38 = DIRECTION ( 'NONE',  ( 0.0000000000000000000, -1.000000000000000000, 0.0000000000000000000 ) ) ;
#39 = DIRECTION ( 'NONE',  ( -0.0000000000000000000, 7.924185170953464400E-017, 1.000000000000000000 ) ) ;
#40 = CARTESIAN_POINT ( 'NONE',  ( 0.0000000000000000000, -6.735557395310444000E-016, -8.499999999999998200 ) ) ;
#41 = AXIS2_PLACEMENT_3D ( 'NONE', #40, #39, #38 ) ;
#42 = CIRCLE ( 'NONE', #41, 8.999999999999998200 ) ;
#43 = DIRECTION ( 'NONE',  ( 0.0000000000000000000, -1.000000000000000000, 7.924185170953463200E-017 ) ) ;
#44 = DIRECTION ( 'NONE',  ( -0.0000000000000000000, 7.924185170953464400E-017, 1.000000000000000000 ) ) ;
#45 = AXIS2_PLACEMENT_3D ( 'NONE', #47, #44, #43 ) ;
#46 = CYLINDRICAL_SURFACE ( 'NONE', #45, 8.999999999999998200 ) ;
#47 = CARTESIAN_POINT ( 'NONE',  ( 0.0000000000000000000, 0.0000000000000000000, 0.0000000000000000000 ) ) ;
#48 = FACE_OUTER_BOUND ( 'NONE', #92, .T. ) ;
#49 = CARTESIAN_POINT ( 'NONE',  ( 0.0000000000000000000, -6.578500000000001800, -8.270273717898582800 ) ) ;
#50 = CARTESIAN_POINT ( 'NONE',  ( 8.056072898620510900E-016, 6.578500000000000900, -8.270273717898582800 ) ) ;
#51 = DIRECTION ( 'NONE',  ( 0.0000000000000000000, -1.000000000000000000, 0.0000000000000000000 ) ) ;
#52 = DIRECTION ( 'NONE',  ( -0.0000000000000000000, 7.924185170953464400E-017, 1.000000000000000000 ) ) ;
#53 = CARTESIAN_POINT ( 'NONE',  ( 0.0000000000000000000, -6.553518035509813000E-016, -8.270273717898582800 ) ) ;
#54 = AXIS2_PLACEMENT_3D ( 'NONE', #53, #52, #51 ) ;
#55 = CIRCLE ( 'NONE', #54, 6.578500000000000900 ) ;
#56 = ADVANCED_FACE ( 'NONE', ( #170 ), #168, .F. ) ;
#57 = EDGE_CURVE ( 'NONE', #98, #97, #163, .T. ) ;
#58 = ORIENTED_EDGE ( 'NONE', *, *, #78, .T. ) ;
#59 = ORIENTED_EDGE ( 'NONE', *, *, #134, .T. ) ;
#60 = ADVANCED_FACE ( 'NONE', ( #164 ), #156, .T. ) ;
#61 = EDGE_LOOP ( 'NONE', ( #62, #63, #175, #127 ) ) ;
#62 = ORIENTED_EDGE ( 'NONE', *, *, #138, .F. ) ;
#63 = ORIENTED_EDGE ( 'NONE', *, *, #57, .T. ) ;
#64 = ORIENTED_EDGE ( 'NONE', *, *, #96, .F. ) ;
#65 = ORIENTED_EDGE ( 'NONE', *, *, #57, .F. ) ;
#66 = EDGE_LOOP ( 'NONE', ( #58, #59 ) ) ;
#67 = ORIENTED_EDGE ( 'NONE', *, *, #81, .T. ) ;
#68 = ORIENTED_EDGE ( 'NONE', *, *, #134, .F. ) ;
#69 = VERTEX_POINT ( 'NONE', #157 ) ;
#70 = ORIENTED_EDGE ( 'NONE', *, *, #71, .F. ) ;
#71 = EDGE_CURVE ( 'NONE', #97, #69, #152, .T. ) ;
#72 = ADVANCED_FACE ( 'NONE', ( #148 ), #31, .F. ) ;
#73 = EDGE_LOOP ( 'NONE', ( #74, #91, #77, #80 ) ) ;
#74 = ORIENTED_EDGE ( 'NONE', *, *, #88, .T. ) ;
#75 = EDGE_CURVE ( 'NONE', #90, #76, #26, .T. ) ;
#76 = VERTEX_POINT ( 'NONE', #22 ) ;
#77 = ORIENTED_EDGE ( 'NONE', *, *, #78, .F. ) ;
#78 = EDGE_CURVE ( 'NONE', #79, #76, #21, .T. ) ;
#79 = VERTEX_POINT ( 'NONE', #16 ) ;
#80 = ORIENTED_EDGE ( 'NONE', *, *, #81, .F. ) ;
#81 = EDGE_CURVE ( 'NONE', #89, #79, #15, .T. ) ;
#82 = ADVANCED_FACE ( 'NONE', ( #11 ), #10, .F. ) ;
#83 = EDGE_LOOP ( 'NONE', ( #84, #85, #126, #122 ) ) ;
#84 = ORIENTED_EDGE ( 'NONE', *, *, #88, .F. ) ;
#85 = ORIENTED_EDGE ( 'NONE', *, *, #86, .T. ) ;
#86 = EDGE_CURVE ( 'NONE', #89, #87, #5, .T. ) ;
#87 = VERTEX_POINT ( 'NONE', #1 ) ;
#88 = EDGE_CURVE ( 'NONE', #89, #90, #55, .T. ) ;
#89 = VERTEX_POINT ( 'NONE', #50 ) ;
#90 = VERTEX_POINT ( 'NONE', #49 ) ;
#91 = ORIENTED_EDGE ( 'NONE', *, *, #75, .T. ) ;
#92 = EDGE_LOOP ( 'NONE', ( #95, #137, #140, #70 ) ) ;
#93 = MANIFOLD_SOLID_BREP ( 'NONE', #133 ) ;
#94 = ADVANCED_FACE ( 'NONE', ( #48 ), #46, .T. ) ;
#95 = ORIENTED_EDGE ( 'NONE', *, *, #96, .T. ) ;
#96 = EDGE_CURVE ( 'NONE', #97, #98, #42, .T. ) ;
#97 = VERTEX_POINT ( 'NONE', #37 ) ;
#98 = VERTEX_POINT ( 'NONE', #36 ) ;
#99 = DIRECTION ( 'NONE',  ( 0.0000000000000000000, -1.000000000000000000, 1.318479498348261200E-016 ) ) ;
#100 = DIRECTION ( 'NONE',  ( -0.0000000000000000000, 7.924185170953464400E-017, 1.000000000000000000 ) ) ;
#101 = CARTESIAN_POINT ( 'NONE',  ( 0.0000000000000000000, 3.962092585476733700E-016, 5.000000000000001800 ) ) ;
#102 = AXIS2_PLACEMENT_3D ( 'NONE', #101, #100, #99 ) ;
#103 = CARTESIAN_POINT ( 'NONE',  ( 0.0000000000000000000, -6.578499999999999100, 5.000000000000002700 ) ) ;
#104 = DIRECTION ( 'NONE',  ( 0.0000000000000000000, -1.000000000000000000, 7.924185170953463200E-017 ) ) ;
#105 = DIRECTION ( 'NONE',  ( -0.0000000000000000000, 7.924185170953464400E-017, 1.000000000000000000 ) ) ;
#106 = CARTESIAN_POINT ( 'NONE',  ( 0.0000000000000000000, 0.0000000000000000000, 0.0000000000000000000 ) ) ;
#107 = AXIS2_PLACEMENT_3D ( 'NONE', #106, #105, #104 ) ;
#108 = CIRCLE ( 'NONE', #102, 6.578499999999999100 ) ;
#109 = CYLINDRICAL_SURFACE ( 'NONE', #107, 6.578500000000000000 ) ;
#110 = FACE_OUTER_BOUND ( 'NONE', #119, .T. ) ;
#111 = DIRECTION ( 'NONE',  ( -0.0000000000000000000, 7.924185170953464400E-017, 1.000000000000000000 ) ) ;
#112 = VECTOR ( 'NONE', #111, 1000.000000000000000 ) ;
#113 = CARTESIAN_POINT ( 'NONE',  ( 0.0000000000000000000, -6.578500000000000000, 5.212925214711736000E-016 ) ) ;
#114 = LINE ( 'NONE', #113, #112 ) ;
#115 = DIRECTION ( 'NONE',  ( 0.0000000000000000000, -1.000000000000000000, 7.924185170953464400E-017 ) ) ;
#116 = DIRECTION ( 'NONE',  ( -0.0000000000000000000, 7.924185170953464400E-017, 1.000000000000000000 ) ) ;
#117 = ADVANCED_FACE ( 'NONE', ( #35 ), #34, .F. ) ;
#118 = EDGE_CURVE ( 'NONE', #90, #124, #114, .T. ) ;
#119 = EDGE_LOOP ( 'NONE', ( #146, #144, #142, #171 ) ) ;
#120 = ORIENTED_EDGE ( 'NONE', *, *, #123, .F. ) ;
#121 = ADVANCED_FACE ( 'NONE', ( #110 ), #109, .F. ) ;
#122 = ORIENTED_EDGE ( 'NONE', *, *, #118, .F. ) ;
#123 = EDGE_CURVE ( 'NONE', #87, #124, #108, .T. ) ;
#124 = VERTEX_POINT ( 'NONE', #103 ) ;
#125 = ORIENTED_EDGE ( 'NONE', *, *, #145, .F. ) ;
#126 = ORIENTED_EDGE ( 'NONE', *, *, #123, .T. ) ;
#127 = ORIENTED_EDGE ( 'NONE', *, *, #128, .F. ) ;
#128 = EDGE_CURVE ( 'NONE', #139, #69, #249, .T. ) ;
#129 = ADVANCED_FACE ( 'NONE', ( #189 ), #277, .F. ) ;
#130 = EDGE_LOOP ( 'NONE', ( #131, #132 ) ) ;
#131 = ORIENTED_EDGE ( 'NONE', *, *, #141, .T. ) ;
#132 = ORIENTED_EDGE ( 'NONE', *, *, #128, .T. ) ;
#133 = CLOSED_SHELL ( 'NONE', ( #94, #72, #82, #117, #121, #56, #135, #60, #129 ) ) ;
#134 = EDGE_CURVE ( 'NONE', #76, #79, #275, .T. ) ;
#135 = ADVANCED_FACE ( 'NONE', ( #276, #179 ), #178, .F. ) ;
#136 = EDGE_LOOP ( 'NONE', ( #64, #65 ) ) ;
#137 = ORIENTED_EDGE ( 'NONE', *, *, #138, .T. ) ;
#138 = EDGE_CURVE ( 'NONE', #98, #139, #251, .T. ) ;
#139 = VERTEX_POINT ( 'NONE', #242 ) ;
#140 = ORIENTED_EDGE ( 'NONE', *, *, #141, .F. ) ;
#141 = EDGE_CURVE ( 'NONE', #69, #139, #241, .T. ) ;
#142 = ORIENTED_EDGE ( 'NONE', *, *, #118, .T. ) ;
#143 = EDGE_CURVE ( 'NONE', #90, #89, #234, .T. ) ;
#144 = ORIENTED_EDGE ( 'NONE', *, *, #143, .F. ) ;
#145 = EDGE_CURVE ( 'NONE', #124, #87, #184, .T. ) ;
#146 = ORIENTED_EDGE ( 'NONE', *, *, #86, .F. ) ;
#147 = EDGE_LOOP ( 'NONE', ( #125, #120 ) ) ;
#148 = FACE_OUTER_BOUND ( 'NONE', #73, .T. ) ;
#149 = DIRECTION ( 'NONE',  ( -0.0000000000000000000, 7.924185170953464400E-017, 1.000000000000000000 ) ) ;
#150 = VECTOR ( 'NONE', #149, 1000.000000000000000 ) ;
#151 = CARTESIAN_POINT ( 'NONE',  ( 0.0000000000000000000, -8.999999999999998200, 7.131766653858115500E-016 ) ) ;
#152 = LINE ( 'NONE', #151, #150 ) ;
#153 = DIRECTION ( 'NONE',  ( 0.0000000000000000000, -1.000000000000000000, 7.924185170953463200E-017 ) ) ;
#154 = DIRECTION ( 'NONE',  ( -0.0000000000000000000, 7.924185170953464400E-017, 1.000000000000000000 ) ) ;
#155 = AXIS2_PLACEMENT_3D ( 'NONE', #158, #154, #153 ) ;
#156 = CYLINDRICAL_SURFACE ( 'NONE', #155, 8.999999999999998200 ) ;
#157 = CARTESIAN_POINT ( 'NONE',  ( 0.0000000000000000000, -8.999999999999998200, 8.499999999999998200 ) ) ;
#158 = CARTESIAN_POINT ( 'NONE',  ( 0.0000000000000000000, 0.0000000000000000000, 0.0000000000000000000 ) ) ;
#159 = DIRECTION ( 'NONE',  ( 0.0000000000000000000, -1.000000000000000000, 0.0000000000000000000 ) ) ;
#160 = DIRECTION ( 'NONE',  ( -0.0000000000000000000, 7.924185170953464400E-017, 1.000000000000000000 ) ) ;
#161 = CARTESIAN_POINT ( 'NONE',  ( 0.0000000000000000000, -6.735557395310444000E-016, -8.499999999999998200 ) ) ;
#162 = AXIS2_PLACEMENT_3D ( 'NONE', #161, #160, #159 ) ;
#163 = CIRCLE ( 'NONE', #162, 8.999999999999998200 ) ;
#164 = FACE_OUTER_BOUND ( 'NONE', #61, .T. ) ;
#165 = DIRECTION ( 'NONE',  ( 0.0000000000000000000, 1.000000000000000000, 0.0000000000000000000 ) ) ;
#166 = DIRECTION ( 'NONE',  ( 0.0000000000000000000, -7.924185170953464400E-017, -1.000000000000000000 ) ) ;
#167 = AXIS2_PLACEMENT_3D ( 'NONE', #169, #166, #165 ) ;
#168 = CONICAL_SURFACE ( 'NONE', #167, 6.578500000000000900, 0.7853981633974501700 ) ;
#169 = CARTESIAN_POINT ( 'NONE',  ( 0.0000000000000000000, -6.553518035509813000E-016, -8.270273717898582800 ) ) ;
#170 = FACE_OUTER_BOUND ( 'NONE', #173, .T. ) ;
#171 = ORIENTED_EDGE ( 'NONE', *, *, #145, .T. ) ;
#172 = ORIENTED_EDGE ( 'NONE', *, *, #143, .T. ) ;
#173 = EDGE_LOOP ( 'NONE', ( #174, #172, #67, #68 ) ) ;
#174 = ORIENTED_EDGE ( 'NONE', *, *, #75, .F. ) ;
#175 = ORIENTED_EDGE ( 'NONE', *, *, #71, .T. ) ;
#176 = CARTESIAN_POINT ( 'NONE',  ( 0.0000000000000000000, 8.999999999999998200, -8.499999999999998200 ) ) ;
#177 = AXIS2_PLACEMENT_3D ( 'NONE', #176, #253, #252 ) ;
#178 = PLANE ( 'NONE',  #177 ) ;
#179 = FACE_BOUND ( 'NONE', #66, .T. ) ;
#180 = DIRECTION ( 'NONE',  ( 0.0000000000000000000, -1.000000000000000000, 0.0000000000000000000 ) ) ;
#181 = DIRECTION ( 'NONE',  ( -0.0000000000000000000, 7.924185170953464400E-017, 1.000000000000000000 ) ) ;
#182 = CARTESIAN_POINT ( 'NONE',  ( 0.0000000000000000000, 3.962092585476733700E-016, 5.000000000000001800 ) ) ;
#183 = AXIS2_PLACEMENT_3D ( 'NONE', #182, #181, #259 ) ;
#184 = CIRCLE ( 'NONE', #183, 6.578499999999999100 ) ;
#185 = DIRECTION ( 'NONE',  ( 0.0000000000000000000, -1.000000000000000000, 0.0000000000000000000 ) ) ;
#186 = DIRECTION ( 'NONE',  ( -0.0000000000000000000, 7.924185170953464400E-017, 1.000000000000000000 ) ) ;
#187 = CARTESIAN_POINT ( 'NONE',  ( 0.0000000000000000000, -6.553518035509813000E-016, -8.270273717898582800 ) ) ;
#188 = AXIS2_PLACEMENT_3D ( 'NONE', #187, #186, #185 ) ;
#189 = FACE_OUTER_BOUND ( 'NONE', #130, .T. ) ;
#190 = CC_DESIGN_SECURITY_CLASSIFICATION ( #211, ( #230 ) ) ;
#191 = CC_DESIGN_APPROVAL ( #199, ( #211 ) ) ;
#192 = APPROVAL_DATE_TIME ( #193, #199 ) ;
#193 = DATE_AND_TIME ( #194, #195 ) ;
#194 = CALENDAR_DATE ( 2015, 11, 8 ) ;
#195 = LOCAL_TIME ( 16, 6, 0.0000000000000000000, #196 ) ;
#196 = COORDINATED_UNIVERSAL_TIME_OFFSET ( 1, 0, .AHEAD. ) ;
#197 = APPROVAL_PERSON_ORGANIZATION ( #201, #199, #198 ) ;
#198 = APPROVAL_ROLE ( '' ) ;
#199 = APPROVAL ( #200, 'UNSPECIFIED' ) ;
#200 = APPROVAL_STATUS ( 'not_yet_approved' ) ;
#201 = PERSON_AND_ORGANIZATION ( #269, #268 ) ;
#202 = CC_DESIGN_DATE_AND_TIME_ASSIGNMENT ( #204, #203, ( #211 ) ) ;
#203 = DATE_TIME_ROLE ( 'classification_date' ) ;
#204 = DATE_AND_TIME ( #205, #206 ) ;
#205 = CALENDAR_DATE ( 2015, 11, 8 ) ;
#206 = LOCAL_TIME ( 16, 6, 0.0000000000000000000, #207 ) ;
#207 = COORDINATED_UNIVERSAL_TIME_OFFSET ( 1, 0, .AHEAD. ) ;
#208 = CC_DESIGN_PERSON_AND_ORGANIZATION_ASSIGNMENT ( #210, #209, ( #211 ) ) ;
#209 = PERSON_AND_ORGANIZATION_ROLE ( 'classification_officer' ) ;
#210 = PERSON_AND_ORGANIZATION ( #269, #268 ) ;
#211 = SECURITY_CLASSIFICATION ( '', '', #212 ) ;
#212 = SECURITY_CLASSIFICATION_LEVEL ( 'unclassified' ) ;
#213 = CC_DESIGN_PERSON_AND_ORGANIZATION_ASSIGNMENT ( #215, #214, ( #230 ) ) ;
#214 = PERSON_AND_ORGANIZATION_ROLE ( 'design_supplier' ) ;
#215 = PERSON_AND_ORGANIZATION ( #269, #268 ) ;
#216 = CC_DESIGN_PERSON_AND_ORGANIZATION_ASSIGNMENT ( #218, #217, ( #230 ) ) ;
#217 = PERSON_AND_ORGANIZATION_ROLE ( 'creator' ) ;
#218 = PERSON_AND_ORGANIZATION ( #269, #268 ) ;
#219 = CC_DESIGN_APPROVAL ( #227, ( #230 ) ) ;
#220 = APPROVAL_DATE_TIME ( #221, #227 ) ;
#221 = DATE_AND_TIME ( #222, #223 ) ;
#222 = CALENDAR_DATE ( 2015, 11, 8 ) ;
#223 = LOCAL_TIME ( 16, 6, 0.0000000000000000000, #224 ) ;
#224 = COORDINATED_UNIVERSAL_TIME_OFFSET ( 1, 0, .AHEAD. ) ;
#225 = APPROVAL_PERSON_ORGANIZATION ( #229, #227, #226 ) ;
#226 = APPROVAL_ROLE ( '' ) ;
#227 = APPROVAL ( #228, 'UNSPECIFIED' ) ;
#228 = APPROVAL_STATUS ( 'not_yet_approved' ) ;
#229 = PERSON_AND_ORGANIZATION ( #269, #268 ) ;
#230 = PRODUCT_DEFINITION_FORMATION_WITH_SPECIFIED_SOURCE ( 'ANY', '', #270, .NOT_KNOWN. ) ;
#231 = CC_DESIGN_DATE_AND_TIME_ASSIGNMENT ( #233, #232, ( #297 ) ) ;
#232 = DATE_TIME_ROLE ( 'creation_date' ) ;
#233 = DATE_AND_TIME ( #280, #281 ) ;
#234 = CIRCLE ( 'NONE', #188, 6.578500000000000900 ) ;
#235 = DIRECTION ( 'NONE',  ( 0.0000000000000000000, -1.000000000000000000, 0.0000000000000000000 ) ) ;
#236 = DIRECTION ( 'NONE',  ( -0.0000000000000000000, 7.924185170953464400E-017, 1.000000000000000000 ) ) ;
#237 = CARTESIAN_POINT ( 'NONE',  ( 0.0000000000000000000, 6.735557395310444000E-016, 8.499999999999998200 ) ) ;
#238 = AXIS2_PLACEMENT_3D ( 'NONE', #237, #236, #235 ) ;
#239 = DIRECTION ( 'NONE',  ( -0.0000000000000000000, 7.924185170953464400E-017, 1.000000000000000000 ) ) ;
#240 = DIRECTION ( 'NONE',  ( 0.0000000000000000000, 1.000000000000000000, -7.924185170953464400E-017 ) ) ;
#241 = CIRCLE ( 'NONE', #238, 8.999999999999998200 ) ;
#242 = CARTESIAN_POINT ( 'NONE',  ( 1.102145718440139300E-015, 8.999999999999998200, 8.499999999999998200 ) ) ;
#243 = DIRECTION ( 'NONE',  ( -0.0000000000000000000, 7.924185170953464400E-017, 1.000000000000000000 ) ) ;
#244 = VECTOR ( 'NONE', #243, 1000.000000000000000 ) ;
#245 = CARTESIAN_POINT ( 'NONE',  ( 1.102145718440139300E-015, 8.999999999999998200, -7.131766653858115500E-016 ) ) ;
#246 = DIRECTION ( 'NONE',  ( 0.0000000000000000000, -7.924185170953464400E-017, -1.000000000000000000 ) ) ;
#247 = CARTESIAN_POINT ( 'NONE',  ( 0.0000000000000000000, -6.735557395310445000E-016, 8.500000000000000000 ) ) ;
#248 = CARTESIAN_POINT ( 'NONE',  ( 0.0000000000000000000, 6.735557395310444000E-016, 8.499999999999998200 ) ) ;
#249 = CIRCLE ( 'NONE', #279, 8.999999999999998200 ) ;
#250 = AXIS2_PLACEMENT_3D ( 'NONE', #247, #246, #240 ) ;
#251 = LINE ( 'NONE', #245, #244 ) ;
#252 = DIRECTION ( 'NONE',  ( 0.0000000000000000000, -1.000000000000000000, 7.924185170953464400E-017 ) ) ;
#253 = DIRECTION ( 'NONE',  ( -0.0000000000000000000, 7.924185170953464400E-017, 1.000000000000000000 ) ) ;
#254 = UNCERTAINTY_MEASURE_WITH_UNIT (LENGTH_MEASURE( 1.000000000000000100E-005 ), #257, 'distance_accuracy_value', 'NONE');
#255 =( NAMED_UNIT ( * ) SI_UNIT ( $, .STERADIAN. ) SOLID_ANGLE_UNIT ( ) );
#256 =( NAMED_UNIT ( * ) PLANE_ANGLE_UNIT ( ) SI_UNIT ( $, .RADIAN. ) );
#257 =( LENGTH_UNIT ( ) NAMED_UNIT ( * ) SI_UNIT ( .MILLI., .METRE. ) );
#258 = CARTESIAN_POINT ( 'NONE',  ( 0.0000000000000000000, 0.0000000000000000000, 0.0000000000000000000 ) ) ;
#259 = DIRECTION ( 'NONE',  ( 0.0000000000000000000, -1.000000000000000000, 1.318479498348261200E-016 ) ) ;
#260 = DIRECTION ( 'NONE',  ( 0.0000000000000000000, -1.000000000000000000, 0.0000000000000000000 ) ) ;
#261 = DIRECTION ( 'NONE',  ( 0.0000000000000000000, 0.0000000000000000000, 1.000000000000000000 ) ) ;
#262 = AXIS2_PLACEMENT_3D ( 'NONE', #258, #261, #305 ) ;
#263 = APPLICATION_CONTEXT ( 'configuration controlled 3d designs of mechanical parts and assemblies' ) ;
#264 = SHAPE_DEFINITION_REPRESENTATION ( #303, #265 ) ;
#265 = ADVANCED_BREP_SHAPE_REPRESENTATION ( '11-0232-02_outokumpu', ( #93, #262 ), #266 ) ;
#266 =( GEOMETRIC_REPRESENTATION_CONTEXT ( 3 ) GLOBAL_UNCERTAINTY_ASSIGNED_CONTEXT ( ( #254 ) ) GLOBAL_UNIT_ASSIGNED_CONTEXT ( ( #257, #256, #255 ) ) REPRESENTATION_CONTEXT ( 'NONE', 'WORKASPACE' ) );
#267 = PERSON_AND_ORGANIZATION ( #269, #268 ) ;
#268 = ORGANIZATION ( 'UNSPECIFIED', 'UNSPECIFIED', '' ) ;
#269 = PERSON ( 'UNSPECIFIED', 'UNSPECIFIED', 'UNSPECIFIED', ('UNSPECIFIED'), ('UNSPECIFIED'), ('UNSPECIFIED') ) ;
#270 = PRODUCT ( '11-0232-02_outokumpu', '11-0232-02_outokumpu', '', ( #271 ) ) ;
#271 = MECHANICAL_CONTEXT ( 'NONE', #263, 'mechanical' ) ;
#272 = APPLICATION_PROTOCOL_DEFINITION ( 'international standard', 'config_control_design', 1994, #263 ) ;
#273 = CARTESIAN_POINT ( 'NONE',  ( 0.0000000000000000000, -6.735557395310444000E-016, -8.499999999999998200 ) ) ;
#274 = AXIS2_PLACEMENT_3D ( 'NONE', #273, #239, #180 ) ;
#275 = CIRCLE ( 'NONE', #274, 6.808226282101418100 ) ;
#276 = FACE_OUTER_BOUND ( 'NONE', #136, .T. ) ;
#277 = PLANE ( 'NONE',  #250 ) ;
#278 = DIRECTION ( 'NONE',  ( -0.0000000000000000000, 7.924185170953464400E-017, 1.000000000000000000 ) ) ;
#279 = AXIS2_PLACEMENT_3D ( 'NONE', #248, #278, #260 ) ;
#280 = CALENDAR_DATE ( 2015, 11, 8 ) ;
#281 = LOCAL_TIME ( 16, 6, 0.0000000000000000000, #282 ) ;
#282 = COORDINATED_UNIVERSAL_TIME_OFFSET ( 1, 0, .AHEAD. ) ;
#283 = CC_DESIGN_PERSON_AND_ORGANIZATION_ASSIGNMENT ( #285, #284, ( #297 ) ) ;
#284 = PERSON_AND_ORGANIZATION_ROLE ( 'creator' ) ;
#285 = PERSON_AND_ORGANIZATION ( #269, #268 ) ;
#286 = CC_DESIGN_APPROVAL ( #294, ( #297 ) ) ;
#287 = APPROVAL_DATE_TIME ( #288, #294 ) ;
#288 = DATE_AND_TIME ( #289, #290 ) ;
#289 = CALENDAR_DATE ( 2015, 11, 8 ) ;
#290 = LOCAL_TIME ( 16, 6, 0.0000000000000000000, #291 ) ;
#291 = COORDINATED_UNIVERSAL_TIME_OFFSET ( 1, 0, .AHEAD. ) ;
#292 = APPROVAL_PERSON_ORGANIZATION ( #296, #294, #293 ) ;
#293 = APPROVAL_ROLE ( '' ) ;
#294 = APPROVAL ( #295, 'UNSPECIFIED' ) ;
#295 = APPROVAL_STATUS ( 'not_yet_approved' ) ;
#296 = PERSON_AND_ORGANIZATION ( #269, #268 ) ;
#297 = PRODUCT_DEFINITION ( 'UNKNOWN', '', #230, #298 ) ;
#298 = DESIGN_CONTEXT ( 'detailed design', #300, 'design' ) ;
#299 = APPLICATION_PROTOCOL_DEFINITION ( 'international standard', 'config_control_design', 1994, #300 ) ;
#300 = APPLICATION_CONTEXT ( 'configuration controlled 3d designs of mechanical parts and assemblies' ) ;
#301 = CC_DESIGN_PERSON_AND_ORGANIZATION_ASSIGNMENT ( #267, #302, ( #270 ) ) ;
#302 = PERSON_AND_ORGANIZATION_ROLE ( 'design_owner' ) ;
#303 = PRODUCT_DEFINITION_SHAPE ( 'NONE', 'NONE',  #297 ) ;
#304 = PRODUCT_RELATED_PRODUCT_CATEGORY ( 'detail', '', ( #270 ) ) ;
#305 = DIRECTION ( 'NONE',  ( 1.000000000000000000, 0.0000000000000000000, 0.0000000000000000000 ) ) ;
ENDSEC;
END-ISO-10303-21;
