ISO-10303-21;
HEADER;
FILE_DESCRIPTION (( 'STEP AP203' ),
    '1' );
FILE_NAME ('3D_R245_323.9_17386210.STEP',
    '2024-08-06T09:38:12',
    ( '' ),
    ( '' ),
    'SwSTEP 2.0',
    'SolidWorks 2024',
    '' );
FILE_SCHEMA (( 'CONFIG_CONTROL_DESIGN' ));
ENDSEC;

DATA;
#1 = EDGE_CURVE ( 'NONE', #14, #10, #81, .T. ) ;
#2 = AXIS2_PLACEMENT_3D ( 'NONE', #56, #58, #22 ) ;
#3 = DIRECTION ( 'NONE',  ( 0.000000000000000000, 0.000000000000000000, 1.000000000000000000 ) ) ;
#4 = EDGE_LOOP ( 'NONE', ( #162, #218, #47, #129 ) ) ;
#5 = FACE_OUTER_BOUND ( 'NONE', #113, .T. ) ;
#6 = EDGE_CURVE ( 'NONE', #87, #62, #171, .T. ) ;
#7 = CYLINDRICAL_SURFACE ( 'NONE', #45, 162.5000000000000000 ) ;
#8 = CARTESIAN_POINT ( 'NONE',  ( 2.602374448188126000E-14, 0.000000000000000000, 212.5000000000000284 ) ) ;
#9 = ADVANCED_FACE ( 'NONE', ( #131, #34 ), #232, .T. ) ;
#10 = VERTEX_POINT ( 'NONE', #8 ) ;
#11 = CALENDAR_DATE ( 2024, 6, 8 ) ;
#12 = LINE ( 'NONE', #144, #40 ) ;
#13 = PERSON_AND_ORGANIZATION ( #20, #139 ) ;
#14 = VERTEX_POINT ( 'NONE', #168 ) ;
#15 = DATE_TIME_ROLE ( 'creation_date' ) ;
#16 = ORIENTED_EDGE ( 'NONE', *, *, #120, .T. ) ;
#17 = AXIS2_PLACEMENT_3D ( 'NONE', #114, #3, #118 ) ;
#18 = EDGE_CURVE ( 'NONE', #50, #104, #12, .T. ) ;
#19 = DIRECTION ( 'NONE',  ( -0.000000000000000000, -1.000000000000000000, -0.000000000000000000 ) ) ;
#20 = PERSON ( 'UNSPECIFIED', 'UNSPECIFIED', 'UNSPECIFIED', ('UNSPECIFIED'), ('UNSPECIFIED'), ('UNSPECIFIED') ) ;
#21 = LOCAL_TIME ( 11, 38, 12.00000000000000000, #105 ) ;
#22 = DIRECTION ( 'NONE',  ( 0.000000000000000000, 0.000000000000000000, 1.000000000000000000 ) ) ;
#23 = APPLICATION_CONTEXT ( 'configuration controlled 3d designs of mechanical parts and assemblies' ) ;
#24 = LINE ( 'NONE', #219, #193 ) ;
#25 = ADVANCED_FACE ( 'NONE', ( #244 ), #224, .F. ) ;
#26 = CYLINDRICAL_SURFACE ( 'NONE', #143, 212.5000000000000284 ) ;
#27 = CC_DESIGN_APPROVAL ( #154, ( #49 ) ) ;
#28 = CARTESIAN_POINT ( 'NONE',  ( 0.000000000000000000, 0.000000000000000000, 0.000000000000000000 ) ) ;
#29 = PLANE ( 'NONE',  #152 ) ;
#30 = APPLICATION_PROTOCOL_DEFINITION ( 'international standard', 'config_control_design', 1994, #23 ) ;
#31 = SECURITY_CLASSIFICATION ( '', '', #88 ) ;
#32 = DIRECTION ( 'NONE',  ( 0.000000000000000000, 1.000000000000000000, 0.000000000000000000 ) ) ;
#33 = PERSON_AND_ORGANIZATION ( #20, #139 ) ;
#34 = FACE_BOUND ( 'NONE', #190, .T. ) ;
#35 = CALENDAR_DATE ( 2024, 6, 8 ) ;
#36 = ADVANCED_FACE ( 'NONE', ( #202, #85 ), #29, .F. ) ;
#37 = ORIENTED_EDGE ( 'NONE', *, *, #106, .T. ) ;
#38 = APPROVAL_STATUS ( 'not_yet_approved' ) ;
#39 = DIRECTION ( 'NONE',  ( 0.000000000000000000, -0.000000000000000000, 1.000000000000000000 ) ) ;
#40 = VECTOR ( 'NONE', #246, 1000.000000000000000 ) ;
#41 = CIRCLE ( 'NONE', #233, 162.5000000000000000 ) ;
#42 = DIRECTION ( 'NONE',  ( 0.000000000000000000, 1.000000000000000000, 0.000000000000000000 ) ) ;
#43 = ORIENTED_EDGE ( 'NONE', *, *, #169, .F. ) ;
#44 =( LENGTH_UNIT ( ) NAMED_UNIT ( * ) SI_UNIT ( .MILLI., .METRE. ) );
#45 = AXIS2_PLACEMENT_3D ( 'NONE', #195, #77, #198 ) ;
#46 = DIRECTION ( 'NONE',  ( -0.000000000000000000, -1.000000000000000000, -0.000000000000000000 ) ) ;
#47 = ORIENTED_EDGE ( 'NONE', *, *, #102, .T. ) ;
#48 = UNCERTAINTY_MEASURE_WITH_UNIT (LENGTH_MEASURE( 1.000000000000000082E-05 ), #44, 'distance_accuracy_value', 'NONE');
#49 = PRODUCT_DEFINITION_FORMATION_WITH_SPECIFIED_SOURCE ( 'ANY', '', #117, .NOT_KNOWN. ) ;
#50 = VERTEX_POINT ( 'NONE', #71 ) ;
#51 = DATE_TIME_ROLE ( 'classification_date' ) ;
#52 = DIRECTION ( 'NONE',  ( 0.000000000000000000, 1.000000000000000000, 0.000000000000000000 ) ) ;
#53 = APPROVAL_DATE_TIME ( #127, #196 ) ;
#54 = ORIENTED_EDGE ( 'NONE', *, *, #214, .F. ) ;
#55 = APPROVAL_PERSON_ORGANIZATION ( #210, #115, #187 ) ;
#56 = CARTESIAN_POINT ( 'NONE',  ( 0.000000000000000000, 4.000000000000000000, 0.000000000000000000 ) ) ;
#57 = APPLICATION_CONTEXT ( 'configuration controlled 3d designs of mechanical parts and assemblies' ) ;
#58 = DIRECTION ( 'NONE',  ( 0.000000000000000000, 1.000000000000000000, 0.000000000000000000 ) ) ;
#59 = ORIENTED_EDGE ( 'NONE', *, *, #95, .F. ) ;
#60 = AXIS2_PLACEMENT_3D ( 'NONE', #240, #79, #122 ) ;
#61 = MECHANICAL_CONTEXT ( 'NONE', #57, 'mechanical' ) ;
#62 = VERTEX_POINT ( 'NONE', #245 ) ;
#63 = CARTESIAN_POINT ( 'NONE',  ( 0.000000000000000000, 0.000000000000000000, -212.5000000000000284 ) ) ;
#64 = ORIENTED_EDGE ( 'NONE', *, *, #95, .T. ) ;
#65 = CC_DESIGN_PERSON_AND_ORGANIZATION_ASSIGNMENT ( #13, #167, ( #31 ) ) ;
#66 = PERSON_AND_ORGANIZATION ( #20, #139 ) ;
#67 = ORIENTED_EDGE ( 'NONE', *, *, #106, .F. ) ;
#68 = PERSON_AND_ORGANIZATION ( #20, #139 ) ;
#69 = DIRECTION ( 'NONE',  ( 0.000000000000000000, -0.000000000000000000, 1.000000000000000000 ) ) ;
#70 = ORIENTED_EDGE ( 'NONE', *, *, #214, .T. ) ;
#71 = CARTESIAN_POINT ( 'NONE',  ( 0.000000000000000000, 4.000000000000000000, -212.5000000000000284 ) ) ;
#72 = DATE_AND_TIME ( #35, #21 ) ;
#73 = ORIENTED_EDGE ( 'NONE', *, *, #6, .T. ) ;
#74 = CC_DESIGN_APPROVAL ( #115, ( #31 ) ) ;
#75 = PRODUCT_DEFINITION_SHAPE ( 'NONE', 'NONE',  #135 ) ;
#76 = DIRECTION ( 'NONE',  ( 0.000000000000000000, 0.000000000000000000, 1.000000000000000000 ) ) ;
#77 = DIRECTION ( 'NONE',  ( -0.000000000000000000, -1.000000000000000000, -0.000000000000000000 ) ) ;
#78 = ORIENTED_EDGE ( 'NONE', *, *, #91, .F. ) ;
#79 = DIRECTION ( 'NONE',  ( 0.000000000000000000, 1.000000000000000000, 0.000000000000000000 ) ) ;
#80 = DIRECTION ( 'NONE',  ( 0.000000000000000000, 1.000000000000000000, 0.000000000000000000 ) ) ;
#81 = LINE ( 'NONE', #207, #92 ) ;
#82 = AXIS2_PLACEMENT_3D ( 'NONE', #109, #32, #39 ) ;
#83 = ORIENTED_EDGE ( 'NONE', *, *, #212, .F. ) ;
#84 = APPROVAL_ROLE ( '' ) ;
#85 = FACE_BOUND ( 'NONE', #125, .T. ) ;
#86 = PERSON_AND_ORGANIZATION_ROLE ( 'design_owner' ) ;
#87 = VERTEX_POINT ( 'NONE', #230 ) ;
#88 = SECURITY_CLASSIFICATION_LEVEL ( 'unclassified' ) ;
#89 = AXIS2_PLACEMENT_3D ( 'NONE', #147, #52, #111 ) ;
#90 = ORIENTED_EDGE ( 'NONE', *, *, #1, .F. ) ;
#91 = EDGE_CURVE ( 'NONE', #62, #204, #121, .T. ) ;
#92 = VECTOR ( 'NONE', #164, 1000.000000000000000 ) ;
#93 = DIRECTION ( 'NONE',  ( 0.000000000000000000, 1.000000000000000000, 0.000000000000000000 ) ) ;
#94 = CARTESIAN_POINT ( 'NONE',  ( 0.000000000000000000, 4.000000000000000000, 0.000000000000000000 ) ) ;
#95 = EDGE_CURVE ( 'NONE', #87, #145, #41, .T. ) ;
#96 = APPROVAL_PERSON_ORGANIZATION ( #130, #196, #110 ) ;
#97 = FACE_OUTER_BOUND ( 'NONE', #209, .T. ) ;
#98 = ORIENTED_EDGE ( 'NONE', *, *, #18, .T. ) ;
#99 = CARTESIAN_POINT ( 'NONE',  ( 0.000000000000000000, 0.000000000000000000, 0.000000000000000000 ) ) ;
#100 = CIRCLE ( 'NONE', #175, 162.5000000000000000 ) ;
#101 = DIRECTION ( 'NONE',  ( 0.000000000000000000, 1.000000000000000000, 0.000000000000000000 ) ) ;
#102 = EDGE_CURVE ( 'NONE', #10, #104, #126, .T. ) ;
#103 = CARTESIAN_POINT ( 'NONE',  ( 0.000000000000000000, 4.000000000000000000, -162.5000000000000000 ) ) ;
#104 = VERTEX_POINT ( 'NONE', #63 ) ;
#105 = COORDINATED_UNIVERSAL_TIME_OFFSET ( 1, 0, .AHEAD. ) ;
#106 = EDGE_CURVE ( 'NONE', #50, #14, #155, .T. ) ;
#107 = EDGE_LOOP ( 'NONE', ( #37, #142 ) ) ;
#108 = CALENDAR_DATE ( 2024, 6, 8 ) ;
#109 = CARTESIAN_POINT ( 'NONE',  ( 0.000000000000000000, 4.000000000000000000, 0.000000000000000000 ) ) ;
#110 = APPROVAL_ROLE ( '' ) ;
#111 = DIRECTION ( 'NONE',  ( 0.000000000000000000, 0.000000000000000000, 1.000000000000000000 ) ) ;
#112 = AXIS2_PLACEMENT_3D ( 'NONE', #94, #237, #217 ) ;
#113 = EDGE_LOOP ( 'NONE', ( #90, #67, #98, #220 ) ) ;
#114 = CARTESIAN_POINT ( 'NONE',  ( 0.000000000000000000, 0.000000000000000000, 0.000000000000000000 ) ) ;
#115 = APPROVAL ( #38, 'UNSPECIFIED' ) ;
#116 = LOCAL_TIME ( 11, 38, 12.00000000000000000, #123 ) ;
#117 = PRODUCT ( '3D_R245_323.9_17386210', '3D_R245_323.9_17386210', '', ( #61 ) ) ;
#118 = DIRECTION ( 'NONE',  ( 1.000000000000000000, 0.000000000000000000, 0.000000000000000000 ) ) ;
#119 = DIRECTION ( 'NONE',  ( 0.000000000000000000, 0.000000000000000000, 1.000000000000000000 ) ) ;
#120 = EDGE_CURVE ( 'NONE', #145, #87, #100, .T. ) ;
#121 = CIRCLE ( 'NONE', #89, 162.5000000000000000 ) ;
#122 = DIRECTION ( 'NONE',  ( 0.000000000000000000, 0.000000000000000000, 1.000000000000000000 ) ) ;
#123 = COORDINATED_UNIVERSAL_TIME_OFFSET ( 1, 0, .AHEAD. ) ;
#124 = DIRECTION ( 'NONE',  ( 0.000000000000000000, 0.000000000000000000, -1.000000000000000000 ) ) ;
#125 = EDGE_LOOP ( 'NONE', ( #70, #133 ) ) ;
#126 = CIRCLE ( 'NONE', #249, 212.5000000000000284 ) ;
#127 = DATE_AND_TIME ( #208, #116 ) ;
#128 = LOCAL_TIME ( 11, 38, 12.00000000000000000, #132 ) ;
#129 = ORIENTED_EDGE ( 'NONE', *, *, #18, .F. ) ;
#130 = PERSON_AND_ORGANIZATION ( #20, #139 ) ;
#131 = FACE_OUTER_BOUND ( 'NONE', #107, .T. ) ;
#132 = COORDINATED_UNIVERSAL_TIME_OFFSET ( 1, 0, .AHEAD. ) ;
#133 = ORIENTED_EDGE ( 'NONE', *, *, #91, .T. ) ;
#134 = LOCAL_TIME ( 11, 38, 12.00000000000000000, #231 ) ;
#135 = PRODUCT_DEFINITION ( 'UNKNOWN', '', #49, #176 ) ;
#136 = APPLICATION_PROTOCOL_DEFINITION ( 'international standard', 'config_control_design', 1994, #57 ) ;
#137 =( GEOMETRIC_REPRESENTATION_CONTEXT ( 3 ) GLOBAL_UNCERTAINTY_ASSIGNED_CONTEXT ( ( #48 ) ) GLOBAL_UNIT_ASSIGNED_CONTEXT ( ( #44, #138, #177 ) ) REPRESENTATION_CONTEXT ( 'NONE', 'WORKASPACE' ) );
#138 =( NAMED_UNIT ( * ) PLANE_ANGLE_UNIT ( ) SI_UNIT ( $, .RADIAN. ) );
#139 = ORGANIZATION ( 'UNSPECIFIED', 'UNSPECIFIED', '' ) ;
#140 = PERSON_AND_ORGANIZATION ( #20, #139 ) ;
#141 = DIRECTION ( 'NONE',  ( 0.000000000000000000, 1.000000000000000000, 0.000000000000000000 ) ) ;
#142 = ORIENTED_EDGE ( 'NONE', *, *, #222, .T. ) ;
#143 = AXIS2_PLACEMENT_3D ( 'NONE', #183, #19, #156 ) ;
#144 = CARTESIAN_POINT ( 'NONE',  ( 0.000000000000000000, 4.000000000000000000, -212.5000000000000284 ) ) ;
#145 = VERTEX_POINT ( 'NONE', #103 ) ;
#146 = PERSON_AND_ORGANIZATION_ROLE ( 'creator' ) ;
#147 = CARTESIAN_POINT ( 'NONE',  ( 0.000000000000000000, 0.000000000000000000, 0.000000000000000000 ) ) ;
#148 = APPROVAL_STATUS ( 'not_yet_approved' ) ;
#149 = ORIENTED_EDGE ( 'NONE', *, *, #6, .F. ) ;
#150 = CC_DESIGN_PERSON_AND_ORGANIZATION_ASSIGNMENT ( #68, #146, ( #135 ) ) ;
#151 = ORIENTED_EDGE ( 'NONE', *, *, #212, .T. ) ;
#152 = AXIS2_PLACEMENT_3D ( 'NONE', #166, #192, #69 ) ;
#153 = MANIFOLD_SOLID_BREP ( 'Aufsatz-Linear austragen1', #239 ) ;
#154 = APPROVAL ( #148, 'UNSPECIFIED' ) ;
#155 = CIRCLE ( 'NONE', #60, 212.5000000000000284 ) ;
#156 = DIRECTION ( 'NONE',  ( 0.000000000000000000, 0.000000000000000000, -1.000000000000000000 ) ) ;
#157 = DIRECTION ( 'NONE',  ( 0.000000000000000000, 0.000000000000000000, 1.000000000000000000 ) ) ;
#158 = CC_DESIGN_PERSON_AND_ORGANIZATION_ASSIGNMENT ( #140, #86, ( #117 ) ) ;
#159 = DIRECTION ( 'NONE',  ( 0.000000000000000000, 0.000000000000000000, 1.000000000000000000 ) ) ;
#160 = PERSON_AND_ORGANIZATION ( #20, #139 ) ;
#161 = CC_DESIGN_PERSON_AND_ORGANIZATION_ASSIGNMENT ( #66, #229, ( #49 ) ) ;
#162 = ORIENTED_EDGE ( 'NONE', *, *, #222, .F. ) ;
#163 = AXIS2_PLACEMENT_3D ( 'NONE', #228, #46, #124 ) ;
#164 = DIRECTION ( 'NONE',  ( -0.000000000000000000, -1.000000000000000000, -0.000000000000000000 ) ) ;
#165 = DATE_AND_TIME ( #11, #186 ) ;
#166 = CARTESIAN_POINT ( 'NONE',  ( 0.000000000000000000, 0.000000000000000000, 0.000000000000000000 ) ) ;
#167 = PERSON_AND_ORGANIZATION_ROLE ( 'classification_officer' ) ;
#168 = CARTESIAN_POINT ( 'NONE',  ( 2.602374448188126000E-14, 4.000000000000000000, 212.5000000000000284 ) ) ;
#169 = EDGE_CURVE ( 'NONE', #104, #10, #181, .T. ) ;
#170 = SHAPE_DEFINITION_REPRESENTATION ( #75, #215 ) ;
#171 = LINE ( 'NONE', #243, #197 ) ;
#172 = PRODUCT_RELATED_PRODUCT_CATEGORY ( 'detail', '', ( #117 ) ) ;
#173 = CC_DESIGN_SECURITY_CLASSIFICATION ( #31, ( #49 ) ) ;
#174 = ADVANCED_FACE ( 'NONE', ( #97 ), #7, .F. ) ;
#175 = AXIS2_PLACEMENT_3D ( 'NONE', #199, #101, #119 ) ;
#176 = DESIGN_CONTEXT ( 'detailed design', #23, 'design' ) ;
#177 =( NAMED_UNIT ( * ) SI_UNIT ( $, .STERADIAN. ) SOLID_ANGLE_UNIT ( ) );
#178 = ADVANCED_FACE ( 'NONE', ( #221 ), #26, .T. ) ;
#179 = EDGE_LOOP ( 'NONE', ( #16, #73, #54, #83 ) ) ;
#180 = CARTESIAN_POINT ( 'NONE',  ( 0.000000000000000000, 0.000000000000000000, -162.5000000000000000 ) ) ;
#181 = CIRCLE ( 'NONE', #205, 212.5000000000000284 ) ;
#182 = DIRECTION ( 'NONE',  ( -0.000000000000000000, -1.000000000000000000, -0.000000000000000000 ) ) ;
#183 = CARTESIAN_POINT ( 'NONE',  ( 0.000000000000000000, 4.000000000000000000, 0.000000000000000000 ) ) ;
#184 = APPROVAL_STATUS ( 'not_yet_approved' ) ;
#185 = ORIENTED_EDGE ( 'NONE', *, *, #102, .F. ) ;
#186 = LOCAL_TIME ( 11, 38, 12.00000000000000000, #203 ) ;
#187 = APPROVAL_ROLE ( '' ) ;
#188 = EDGE_LOOP ( 'NONE', ( #43, #185 ) ) ;
#189 = APPROVAL_DATE_TIME ( #227, #154 ) ;
#190 = EDGE_LOOP ( 'NONE', ( #211, #59 ) ) ;
#191 = APPROVAL_DATE_TIME ( #165, #115 ) ;
#192 = DIRECTION ( 'NONE',  ( 0.000000000000000000, 1.000000000000000000, 0.000000000000000000 ) ) ;
#193 = VECTOR ( 'NONE', #182, 1000.000000000000000 ) ;
#194 = PERSON_AND_ORGANIZATION_ROLE ( 'design_supplier' ) ;
#195 = CARTESIAN_POINT ( 'NONE',  ( 0.000000000000000000, 4.000000000000000000, 0.000000000000000000 ) ) ;
#196 = APPROVAL ( #184, 'UNSPECIFIED' ) ;
#197 = VECTOR ( 'NONE', #248, 1000.000000000000000 ) ;
#198 = DIRECTION ( 'NONE',  ( 0.000000000000000000, 0.000000000000000000, -1.000000000000000000 ) ) ;
#199 = CARTESIAN_POINT ( 'NONE',  ( 0.000000000000000000, 4.000000000000000000, 0.000000000000000000 ) ) ;
#200 = CC_DESIGN_DATE_AND_TIME_ASSIGNMENT ( #206, #15, ( #135 ) ) ;
#201 = CARTESIAN_POINT ( 'NONE',  ( 0.000000000000000000, 0.000000000000000000, 0.000000000000000000 ) ) ;
#202 = FACE_OUTER_BOUND ( 'NONE', #188, .T. ) ;
#203 = COORDINATED_UNIVERSAL_TIME_OFFSET ( 1, 0, .AHEAD. ) ;
#204 = VERTEX_POINT ( 'NONE', #180 ) ;
#205 = AXIS2_PLACEMENT_3D ( 'NONE', #201, #141, #157 ) ;
#206 = DATE_AND_TIME ( #241, #134 ) ;
#207 = CARTESIAN_POINT ( 'NONE',  ( 2.602374448188126000E-14, 4.000000000000000000, 212.5000000000000284 ) ) ;
#208 = CALENDAR_DATE ( 2024, 6, 8 ) ;
#209 = EDGE_LOOP ( 'NONE', ( #149, #64, #151, #78 ) ) ;
#210 = PERSON_AND_ORGANIZATION ( #20, #139 ) ;
#211 = ORIENTED_EDGE ( 'NONE', *, *, #120, .F. ) ;
#212 = EDGE_CURVE ( 'NONE', #145, #204, #24, .T. ) ;
#213 = AXIS2_PLACEMENT_3D ( 'NONE', #99, #80, #238 ) ;
#214 = EDGE_CURVE ( 'NONE', #204, #62, #247, .T. ) ;
#215 = ADVANCED_BREP_SHAPE_REPRESENTATION ( '3D_R245_323.9_17386210', ( #153, #17 ), #137 ) ;
#216 = ADVANCED_FACE ( 'NONE', ( #5 ), #234, .T. ) ;
#217 = DIRECTION ( 'NONE',  ( 0.000000000000000000, 0.000000000000000000, -1.000000000000000000 ) ) ;
#218 = ORIENTED_EDGE ( 'NONE', *, *, #1, .T. ) ;
#219 = CARTESIAN_POINT ( 'NONE',  ( 0.000000000000000000, 4.000000000000000000, -162.5000000000000000 ) ) ;
#220 = ORIENTED_EDGE ( 'NONE', *, *, #169, .T. ) ;
#221 = FACE_OUTER_BOUND ( 'NONE', #4, .T. ) ;
#222 = EDGE_CURVE ( 'NONE', #14, #50, #236, .T. ) ;
#223 = APPROVAL_PERSON_ORGANIZATION ( #33, #154, #84 ) ;
#224 = CYLINDRICAL_SURFACE ( 'NONE', #163, 162.5000000000000000 ) ;
#225 = CARTESIAN_POINT ( 'NONE',  ( 0.000000000000000000, 4.000000000000000000, 0.000000000000000000 ) ) ;
#226 = CC_DESIGN_DATE_AND_TIME_ASSIGNMENT ( #72, #51, ( #31 ) ) ;
#227 = DATE_AND_TIME ( #108, #128 ) ;
#228 = CARTESIAN_POINT ( 'NONE',  ( 0.000000000000000000, 4.000000000000000000, 0.000000000000000000 ) ) ;
#229 = PERSON_AND_ORGANIZATION_ROLE ( 'creator' ) ;
#230 = CARTESIAN_POINT ( 'NONE',  ( 1.990051048614449313E-14, 4.000000000000000000, 162.5000000000000000 ) ) ;
#231 = COORDINATED_UNIVERSAL_TIME_OFFSET ( 1, 0, .AHEAD. ) ;
#232 = PLANE ( 'NONE',  #82 ) ;
#233 = AXIS2_PLACEMENT_3D ( 'NONE', #225, #93, #159 ) ;
#234 = CYLINDRICAL_SURFACE ( 'NONE', #112, 212.5000000000000284 ) ;
#235 = CC_DESIGN_PERSON_AND_ORGANIZATION_ASSIGNMENT ( #160, #194, ( #49 ) ) ;
#236 = CIRCLE ( 'NONE', #2, 212.5000000000000284 ) ;
#237 = DIRECTION ( 'NONE',  ( -0.000000000000000000, -1.000000000000000000, -0.000000000000000000 ) ) ;
#238 = DIRECTION ( 'NONE',  ( 0.000000000000000000, 0.000000000000000000, 1.000000000000000000 ) ) ;
#239 = CLOSED_SHELL ( 'NONE', ( #25, #178, #9, #36, #216, #174 ) ) ;
#240 = CARTESIAN_POINT ( 'NONE',  ( 0.000000000000000000, 4.000000000000000000, 0.000000000000000000 ) ) ;
#241 = CALENDAR_DATE ( 2024, 6, 8 ) ;
#242 = CC_DESIGN_APPROVAL ( #196, ( #135 ) ) ;
#243 = CARTESIAN_POINT ( 'NONE',  ( 1.990051048614449313E-14, 4.000000000000000000, 162.5000000000000000 ) ) ;
#244 = FACE_OUTER_BOUND ( 'NONE', #179, .T. ) ;
#245 = CARTESIAN_POINT ( 'NONE',  ( 1.990051048614449313E-14, 0.000000000000000000, 162.5000000000000000 ) ) ;
#246 = DIRECTION ( 'NONE',  ( -0.000000000000000000, -1.000000000000000000, -0.000000000000000000 ) ) ;
#247 = CIRCLE ( 'NONE', #213, 162.5000000000000000 ) ;
#248 = DIRECTION ( 'NONE',  ( -0.000000000000000000, -1.000000000000000000, -0.000000000000000000 ) ) ;
#249 = AXIS2_PLACEMENT_3D ( 'NONE', #28, #42, #76 ) ;
ENDSEC;
END-ISO-10303-21;
