ISO-10303-21;
HEADER;
FILE_DESCRIPTION (( 'STEP AP203' ),
    '1' );
FILE_NAME ('19-0402-52_outokumpu.step',
    '2015-08-11T09:24:00',
    ( '' ),
    ( '' ),
    'SwSTEP 2.0',
    'SolidWorks 2008',
    '' );
FILE_SCHEMA (( 'CONFIG_CONTROL_DESIGN' ));
ENDSEC;

DATA;
#1 = VERTEX_POINT ( 'NONE', #50 ) ;
#2 = ORIENTED_EDGE ( 'NONE', *, *, #83, .F. ) ;
#3 = ORIENTED_EDGE ( 'NONE', *, *, #4, .F. ) ;
#4 = EDGE_CURVE ( 'NONE', #1, #30, #75, .T. ) ;
#5 = ORIENTED_EDGE ( 'NONE', *, *, #34, .F. ) ;
#6 = EDGE_LOOP ( 'NONE', ( #5, #2, #126, #123, #124 ) ) ;
#7 = ADVANCED_FACE ( 'NONE', ( #71 ), #70, .F. ) ;
#8 = ORIENTED_EDGE ( 'NONE', *, *, #55, .F. ) ;
#9 = ORIENTED_EDGE ( 'NONE', *, *, #119, .T. ) ;
#10 = ORIENTED_EDGE ( 'NONE', *, *, #118, .F. ) ;
#11 = EDGE_LOOP ( 'NONE', ( #10, #12, #9, #8 ) ) ;
#12 = ORIENTED_EDGE ( 'NONE', *, *, #108, .T. ) ;
#13 = ORIENTED_EDGE ( 'NONE', *, *, #31, .F. ) ;
#14 = EDGE_LOOP ( 'NONE', ( #133, #134, #135, #137, #138, #78 ) ) ;
#15 = ADVANCED_FACE ( 'NONE', ( #69 ), #93, .T. ) ;
#16 = ORIENTED_EDGE ( 'NONE', *, *, #17, .F. ) ;
#17 = EDGE_CURVE ( 'NONE', #30, #32, #88, .T. ) ;
#18 = ORIENTED_EDGE ( 'NONE', *, *, #59, .F. ) ;
#19 = MANIFOLD_SOLID_BREP ( 'NONE', #130 ) ;
#20 = EDGE_LOOP ( 'NONE', ( #29, #39, #42, #22, #25 ) ) ;
#21 = EDGE_CURVE ( 'NONE', #43, #41, #314, .T. ) ;
#22 = ORIENTED_EDGE ( 'NONE', *, *, #23, .F. ) ;
#23 = EDGE_CURVE ( 'NONE', #24, #43, #316, .T. ) ;
#24 = VERTEX_POINT ( 'NONE', #317 ) ;
#25 = ORIENTED_EDGE ( 'NONE', *, *, #26, .T. ) ;
#26 = EDGE_CURVE ( 'NONE', #24, #37, #310, .T. ) ;
#27 = EDGE_LOOP ( 'NONE', ( #45, #49, #33, #3, #18 ) ) ;
#28 = ADVANCED_FACE ( 'NONE', ( #311 ), #305, .F. ) ;
#29 = ORIENTED_EDGE ( 'NONE', *, *, #36, .T. ) ;
#30 = VERTEX_POINT ( 'NONE', #306 ) ;
#31 = EDGE_CURVE ( 'NONE', #32, #30, #164, .T. ) ;
#32 = VERTEX_POINT ( 'NONE', #265 ) ;
#33 = ORIENTED_EDGE ( 'NONE', *, *, #31, .T. ) ;
#34 = EDGE_CURVE ( 'NONE', #47, #32, #264, .T. ) ;
#35 = ORGANIZATION ( 'UNSPECIFIED', 'UNSPECIFIED', '' ) ;
#36 = EDGE_CURVE ( 'NONE', #37, #38, #255, .T. ) ;
#37 = VERTEX_POINT ( 'NONE', #256 ) ;
#38 = VERTEX_POINT ( 'NONE', #155 ) ;
#39 = ORIENTED_EDGE ( 'NONE', *, *, #40, .T. ) ;
#40 = EDGE_CURVE ( 'NONE', #38, #41, #154, .T. ) ;
#41 = VERTEX_POINT ( 'NONE', #150 ) ;
#42 = ORIENTED_EDGE ( 'NONE', *, *, #21, .F. ) ;
#43 = VERTEX_POINT ( 'NONE', #149 ) ;
#44 = ADVANCED_FACE ( 'NONE', ( #148 ), #146, .F. ) ;
#45 = ORIENTED_EDGE ( 'NONE', *, *, #46, .F. ) ;
#46 = EDGE_CURVE ( 'NONE', #47, #48, #142, .T. ) ;
#47 = VERTEX_POINT ( 'NONE', #216 ) ;
#48 = VERTEX_POINT ( 'NONE', #215 ) ;
#49 = ORIENTED_EDGE ( 'NONE', *, *, #34, .T. ) ;
#50 = CARTESIAN_POINT ( 'NONE',  ( 6.578499999999995600, 0.0000000000000000000, -0.2297262821014150200 ) ) ;
#51 = CC_DESIGN_PERSON_AND_ORGANIZATION_ASSIGNMENT ( #89, #52, ( #259 ) ) ;
#52 = PERSON_AND_ORGANIZATION_ROLE ( 'design_owner' ) ;
#53 = ADVANCED_FACE ( 'NONE', ( #214 ), #212, .F. ) ;
#54 = ORIENTED_EDGE ( 'NONE', *, *, #40, .F. ) ;
#55 = EDGE_CURVE ( 'NONE', #95, #111, #208, .T. ) ;
#56 = EDGE_LOOP ( 'NONE', ( #105, #106 ) ) ;
#57 = EDGE_CURVE ( 'NONE', #38, #98, #203, .T. ) ;
#58 = ORIENTED_EDGE ( 'NONE', *, *, #83, .T. ) ;
#59 = EDGE_CURVE ( 'NONE', #48, #1, #198, .T. ) ;
#60 = ORIENTED_EDGE ( 'NONE', *, *, #61, .T. ) ;
#61 = EDGE_CURVE ( 'NONE', #48, #37, #192, .T. ) ;
#62 = ORIENTED_EDGE ( 'NONE', *, *, #26, .F. ) ;
#63 = ADVANCED_FACE ( 'NONE', ( #188, #187 ), #193, .F. ) ;
#64 = DIRECTION ( 'NONE',  ( 1.000000000000000000, 0.0000000000000000000, 0.0000000000000000000 ) ) ;
#65 = DIRECTION ( 'NONE',  ( -0.0000000000000000000, -0.0000000000000000000, 1.000000000000000000 ) ) ;
#66 = CARTESIAN_POINT ( 'NONE',  ( 0.0000000000000000000, 0.0000000000000000000, -0.2297262821014150200 ) ) ;
#67 = AXIS2_PLACEMENT_3D ( 'NONE', #66, #65, #64 ) ;
#68 = CARTESIAN_POINT ( 'NONE',  ( 0.0000000000000000000, 0.0000000000000000000, -4.336808689942017700E-016 ) ) ;
#69 = FACE_OUTER_BOUND ( 'NONE', #11, .T. ) ;
#70 = CONICAL_SURFACE ( 'NONE', #67, 6.578499999999995600, 0.7853981633974532800 ) ;
#71 = FACE_OUTER_BOUND ( 'NONE', #6, .T. ) ;
#72 = DIRECTION ( 'NONE',  ( 0.7071067811865510100, 0.0000000000000000000, 0.7071067811865441300 ) ) ;
#73 = VECTOR ( 'NONE', #72, 999.9999999999998900 ) ;
#74 = CARTESIAN_POINT ( 'NONE',  ( 6.578499999999995600, 0.0000000000000000000, -0.2297262821014150200 ) ) ;
#75 = LINE ( 'NONE', #74, #73 ) ;
#76 = EDGE_CURVE ( 'NONE', #41, #43, #295, .T. ) ;
#77 = EDGE_LOOP ( 'NONE', ( #58, #131, #60, #62, #81, #114 ) ) ;
#78 = ORIENTED_EDGE ( 'NONE', *, *, #36, .F. ) ;
#79 = ADVANCED_FACE ( 'NONE', ( #291, #290 ), #289, .F. ) ;
#80 = EDGE_LOOP ( 'NONE', ( #101, #107 ) ) ;
#81 = ORIENTED_EDGE ( 'NONE', *, *, #82, .F. ) ;
#82 = EDGE_CURVE ( 'NONE', #98, #24, #287, .T. ) ;
#83 = EDGE_CURVE ( 'NONE', #132, #47, #279, .T. ) ;
#84 = DIRECTION ( 'NONE',  ( 1.000000000000000000, 0.0000000000000000000, 0.0000000000000000000 ) ) ;
#85 = DIRECTION ( 'NONE',  ( -0.0000000000000000000, -0.0000000000000000000, 1.000000000000000000 ) ) ;
#86 = CARTESIAN_POINT ( 'NONE',  ( 0.0000000000000000000, 0.0000000000000000000, -2.743547246460436300E-017 ) ) ;
#87 = AXIS2_PLACEMENT_3D ( 'NONE', #86, #85, #84 ) ;
#88 = CIRCLE ( 'NONE', #87, 6.808226282101412800 ) ;
#89 = PERSON_AND_ORGANIZATION ( #258, #35 ) ;
#90 = DIRECTION ( 'NONE',  ( 1.000000000000000000, 0.0000000000000000000, 0.0000000000000000000 ) ) ;
#91 = DIRECTION ( 'NONE',  ( -0.0000000000000000000, -0.0000000000000000000, 1.000000000000000000 ) ) ;
#92 = AXIS2_PLACEMENT_3D ( 'NONE', #68, #91, #90 ) ;
#93 = CYLINDRICAL_SURFACE ( 'NONE', #92, 9.249999999999998200 ) ;
#94 = ADVANCED_FACE ( 'NONE', ( #274 ), #273, .T. ) ;
#95 = VERTEX_POINT ( 'NONE', #272 ) ;
#96 = EDGE_CURVE ( 'NONE', #110, #121, #248, .T. ) ;
#97 = EDGE_LOOP ( 'NONE', ( #116, #117, #99, #112 ) ) ;
#98 = VERTEX_POINT ( 'NONE', #243 ) ;
#99 = ORIENTED_EDGE ( 'NONE', *, *, #100, .F. ) ;
#100 = EDGE_CURVE ( 'NONE', #111, #95, #242, .T. ) ;
#101 = ORIENTED_EDGE ( 'NONE', *, *, #96, .F. ) ;
#102 = EDGE_LOOP ( 'NONE', ( #16, #13 ) ) ;
#103 = ORIENTED_EDGE ( 'NONE', *, *, #21, .T. ) ;
#104 = ADVANCED_FACE ( 'NONE', ( #161 ), #160, .F. ) ;
#105 = ORIENTED_EDGE ( 'NONE', *, *, #100, .T. ) ;
#106 = ORIENTED_EDGE ( 'NONE', *, *, #55, .T. ) ;
#107 = ORIENTED_EDGE ( 'NONE', *, *, #108, .F. ) ;
#108 = EDGE_CURVE ( 'NONE', #121, #110, #237, .T. ) ;
#109 = EDGE_LOOP ( 'NONE', ( #103, #113 ) ) ;
#110 = VERTEX_POINT ( 'NONE', #232 ) ;
#111 = VERTEX_POINT ( 'NONE', #231 ) ;
#112 = ORIENTED_EDGE ( 'NONE', *, *, #119, .F. ) ;
#113 = ORIENTED_EDGE ( 'NONE', *, *, #76, .T. ) ;
#114 = ORIENTED_EDGE ( 'NONE', *, *, #115, .F. ) ;
#115 = EDGE_CURVE ( 'NONE', #132, #98, #230, .T. ) ;
#116 = ORIENTED_EDGE ( 'NONE', *, *, #96, .T. ) ;
#117 = ORIENTED_EDGE ( 'NONE', *, *, #118, .T. ) ;
#118 = EDGE_CURVE ( 'NONE', #121, #95, #226, .T. ) ;
#119 = EDGE_CURVE ( 'NONE', #110, #111, #222, .T. ) ;
#120 = ADVANCED_FACE ( 'NONE', ( #218 ), #184, .F. ) ;
#121 = VERTEX_POINT ( 'NONE', #185 ) ;
#122 = ORIENTED_EDGE ( 'NONE', *, *, #57, .T. ) ;
#123 = ORIENTED_EDGE ( 'NONE', *, *, #4, .T. ) ;
#124 = ORIENTED_EDGE ( 'NONE', *, *, #17, .T. ) ;
#125 = EDGE_LOOP ( 'NONE', ( #54, #122, #129, #127, #128 ) ) ;
#126 = ORIENTED_EDGE ( 'NONE', *, *, #136, .F. ) ;
#127 = ORIENTED_EDGE ( 'NONE', *, *, #23, .T. ) ;
#128 = ORIENTED_EDGE ( 'NONE', *, *, #76, .F. ) ;
#129 = ORIENTED_EDGE ( 'NONE', *, *, #82, .T. ) ;
#130 = CLOSED_SHELL ( 'NONE', ( #28, #44, #94, #120, #104, #79, #63, #15, #7, #53 ) ) ;
#131 = ORIENTED_EDGE ( 'NONE', *, *, #46, .T. ) ;
#132 = VERTEX_POINT ( 'NONE', #179 ) ;
#133 = ORIENTED_EDGE ( 'NONE', *, *, #61, .F. ) ;
#134 = ORIENTED_EDGE ( 'NONE', *, *, #59, .T. ) ;
#135 = ORIENTED_EDGE ( 'NONE', *, *, #136, .T. ) ;
#136 = EDGE_CURVE ( 'NONE', #1, #132, #178, .T. ) ;
#137 = ORIENTED_EDGE ( 'NONE', *, *, #115, .T. ) ;
#138 = ORIENTED_EDGE ( 'NONE', *, *, #57, .F. ) ;
#139 = DIRECTION ( 'NONE',  ( -0.0000000000000000000, -0.0000000000000000000, 1.000000000000000000 ) ) ;
#140 = CARTESIAN_POINT ( 'NONE',  ( 0.0000000000000000000, 0.0000000000000000000, -0.2297262821014150200 ) ) ;
#141 = AXIS2_PLACEMENT_3D ( 'NONE', #140, #139, #217 ) ;
#142 = CIRCLE ( 'NONE', #141, 6.578499999999995600 ) ;
#143 = DIRECTION ( 'NONE',  ( 1.000000000000000000, 0.0000000000000000000, 0.0000000000000000000 ) ) ;
#144 = DIRECTION ( 'NONE',  ( -0.0000000000000000000, -0.0000000000000000000, 1.000000000000000000 ) ) ;
#145 = AXIS2_PLACEMENT_3D ( 'NONE', #147, #144, #143 ) ;
#146 = CONICAL_SURFACE ( 'NONE', #145, 6.578499999999995600, 0.7853981633974532800 ) ;
#147 = CARTESIAN_POINT ( 'NONE',  ( 0.0000000000000000000, 0.0000000000000000000, -0.2297262821014150200 ) ) ;
#148 = FACE_OUTER_BOUND ( 'NONE', #27, .T. ) ;
#149 = CARTESIAN_POINT ( 'NONE',  ( -6.808226282101472300, 0.0000000000000000000, -60.00000000000000000 ) ) ;
#150 = CARTESIAN_POINT ( 'NONE',  ( 6.808226282101472300, 8.337397163321963200E-016, -60.00000000000000000 ) ) ;
#151 = DIRECTION ( 'NONE',  ( 0.7071067811865622300, 8.659274570719535400E-017, -0.7071067811865329200 ) ) ;
#152 = VECTOR ( 'NONE', #151, 1000.000000000000000 ) ;
#153 = CARTESIAN_POINT ( 'NONE',  ( 6.808226282101472300, 8.337397163321963200E-016, -60.00000000000000000 ) ) ;
#154 = LINE ( 'NONE', #153, #152 ) ;
#155 = CARTESIAN_POINT ( 'NONE',  ( 6.578499999999995600, 8.196735030971233600E-016, -59.77027371789853300 ) ) ;
#156 = DIRECTION ( 'NONE',  ( 0.0000000000000000000, 1.000000000000000000, 0.0000000000000000000 ) ) ;
#157 = DIRECTION ( 'NONE',  ( -0.0000000000000000000, 1.108921438289454200E-016, -1.000000000000000000 ) ) ;
#158 = CARTESIAN_POINT ( 'NONE',  ( 0.0000000000000000000, 3.184081677783111500E-015, -60.00000000000001400 ) ) ;
#159 = AXIS2_PLACEMENT_3D ( 'NONE', #158, #157, #156 ) ;
#160 = CYLINDRICAL_SURFACE ( 'NONE', #159, 6.578500000000003600 ) ;
#161 = FACE_OUTER_BOUND ( 'NONE', #14, .T. ) ;
#162 = CARTESIAN_POINT ( 'NONE',  ( 0.0000000000000000000, 0.0000000000000000000, -2.743547246460436300E-017 ) ) ;
#163 = AXIS2_PLACEMENT_3D ( 'NONE', #162, #267, #266 ) ;
#164 = CIRCLE ( 'NONE', #163, 6.808226282101412800 ) ;
#165 = DIRECTION ( 'NONE',  ( 0.0000000000000000000, 0.0000000000000000000, 1.000000000000000000 ) ) ;
#166 = AXIS2_PLACEMENT_3D ( 'NONE', #173, #165, #250 ) ;
#167 = ADVANCED_BREP_SHAPE_REPRESENTATION ( '19-0402-52_outokumpu', ( #19, #166 ), #168 ) ;
#168 =( GEOMETRIC_REPRESENTATION_CONTEXT ( 3 ) GLOBAL_UNCERTAINTY_ASSIGNED_CONTEXT ( ( #169 ) ) GLOBAL_UNIT_ASSIGNED_CONTEXT ( ( #172, #171, #170 ) ) REPRESENTATION_CONTEXT ( 'NONE', 'WORKASPACE' ) );
#169 = UNCERTAINTY_MEASURE_WITH_UNIT (LENGTH_MEASURE( 1.000000000000000100E-005 ), #172, 'distance_accuracy_value', 'NONE');
#170 =( NAMED_UNIT ( * ) SI_UNIT ( $, .STERADIAN. ) SOLID_ANGLE_UNIT ( ) );
#171 =( NAMED_UNIT ( * ) PLANE_ANGLE_UNIT ( ) SI_UNIT ( $, .RADIAN. ) );
#172 =( LENGTH_UNIT ( ) NAMED_UNIT ( * ) SI_UNIT ( .MILLI., .METRE. ) );
#173 = CARTESIAN_POINT ( 'NONE',  ( 0.0000000000000000000, 0.0000000000000000000, 0.0000000000000000000 ) ) ;
#174 = DIRECTION ( 'NONE',  ( 1.000000000000000000, 0.0000000000000000000, 0.0000000000000000000 ) ) ;
#175 = DIRECTION ( 'NONE',  ( -0.0000000000000000000, -0.0000000000000000000, 1.000000000000000000 ) ) ;
#176 = CARTESIAN_POINT ( 'NONE',  ( 0.0000000000000000000, 0.0000000000000000000, -0.2297262821014150200 ) ) ;
#177 = AXIS2_PLACEMENT_3D ( 'NONE', #176, #175, #174 ) ;
#178 = CIRCLE ( 'NONE', #177, 6.578499999999995600 ) ;
#179 = CARTESIAN_POINT ( 'NONE',  ( 0.0000000000000000000, 6.578499999999995600, -0.2297262821014150200 ) ) ;
#180 = DIRECTION ( 'NONE',  ( 0.0000000000000000000, 1.000000000000000000, 0.0000000000000000000 ) ) ;
#181 = DIRECTION ( 'NONE',  ( -0.0000000000000000000, 1.108921438289454200E-016, -1.000000000000000000 ) ) ;
#182 = CARTESIAN_POINT ( 'NONE',  ( 0.0000000000000000000, 3.184081677783111500E-015, -60.00000000000001400 ) ) ;
#183 = AXIS2_PLACEMENT_3D ( 'NONE', #182, #181, #180 ) ;
#184 = CYLINDRICAL_SURFACE ( 'NONE', #183, 6.578500000000003600 ) ;
#185 = CARTESIAN_POINT ( 'NONE',  ( -9.249999999999998200, 1.132760877285698800E-015, -60.00000000000000000 ) ) ;
#186 = AXIS2_PLACEMENT_3D ( 'NONE', #298, #297, #296 ) ;
#187 = FACE_BOUND ( 'NONE', #102, .T. ) ;
#188 = FACE_OUTER_BOUND ( 'NONE', #56, .T. ) ;
#189 = DIRECTION ( 'NONE',  ( -0.0000000000000000000, 1.108921438289454200E-016, -1.000000000000000000 ) ) ;
#190 = VECTOR ( 'NONE', #189, 1000.000000000000000 ) ;
#191 = CARTESIAN_POINT ( 'NONE',  ( 8.056072898620513800E-016, -6.578500000000000000, -60.00000000000001400 ) ) ;
#192 = LINE ( 'NONE', #191, #190 ) ;
#193 = PLANE ( 'NONE',  #186 ) ;
#194 = DIRECTION ( 'NONE',  ( 1.000000000000000000, 0.0000000000000000000, 0.0000000000000000000 ) ) ;
#195 = DIRECTION ( 'NONE',  ( -0.0000000000000000000, -0.0000000000000000000, 1.000000000000000000 ) ) ;
#196 = CARTESIAN_POINT ( 'NONE',  ( 0.0000000000000000000, 0.0000000000000000000, -0.2297262821014150200 ) ) ;
#197 = AXIS2_PLACEMENT_3D ( 'NONE', #196, #195, #194 ) ;
#198 = CIRCLE ( 'NONE', #197, 6.578499999999995600 ) ;
#199 = DIRECTION ( 'NONE',  ( 1.000000000000000000, 0.0000000000000000000, 0.0000000000000000000 ) ) ;
#200 = DIRECTION ( 'NONE',  ( -0.0000000000000000000, -0.0000000000000000000, 1.000000000000000000 ) ) ;
#201 = CARTESIAN_POINT ( 'NONE',  ( 0.0000000000000000000, 0.0000000000000000000, -59.77027371789853300 ) ) ;
#202 = AXIS2_PLACEMENT_3D ( 'NONE', #201, #200, #199 ) ;
#203 = CIRCLE ( 'NONE', #202, 6.578499999999995600 ) ;
#204 = DIRECTION ( 'NONE',  ( 1.000000000000000000, 0.0000000000000000000, 0.0000000000000000000 ) ) ;
#205 = DIRECTION ( 'NONE',  ( -0.0000000000000000000, -0.0000000000000000000, 1.000000000000000000 ) ) ;
#206 = CARTESIAN_POINT ( 'NONE',  ( 0.0000000000000000000, 0.0000000000000000000, 0.0000000000000000000 ) ) ;
#207 = AXIS2_PLACEMENT_3D ( 'NONE', #206, #205, #204 ) ;
#208 = CIRCLE ( 'NONE', #207, 9.250000000000000000 ) ;
#209 = DIRECTION ( 'NONE',  ( -1.000000000000000000, 0.0000000000000000000, 0.0000000000000000000 ) ) ;
#210 = DIRECTION ( 'NONE',  ( 0.0000000000000000000, 0.0000000000000000000, -1.000000000000000000 ) ) ;
#211 = AXIS2_PLACEMENT_3D ( 'NONE', #213, #210, #209 ) ;
#212 = CONICAL_SURFACE ( 'NONE', #211, 6.808226282101472300, 0.7853981633974690400 ) ;
#213 = CARTESIAN_POINT ( 'NONE',  ( 0.0000000000000000000, 0.0000000000000000000, -60.00000000000000000 ) ) ;
#214 = FACE_OUTER_BOUND ( 'NONE', #125, .T. ) ;
#215 = CARTESIAN_POINT ( 'NONE',  ( 8.056072898620511900E-016, -6.578499999999995600, -0.2297262821014150200 ) ) ;
#216 = CARTESIAN_POINT ( 'NONE',  ( -6.578499999999995600, 8.196735030971197100E-016, -0.2297262821014150200 ) ) ;
#217 = DIRECTION ( 'NONE',  ( 1.000000000000000000, 0.0000000000000000000, 0.0000000000000000000 ) ) ;
#218 = FACE_OUTER_BOUND ( 'NONE', #77, .T. ) ;
#219 = DIRECTION ( 'NONE',  ( -0.0000000000000000000, -0.0000000000000000000, 1.000000000000000000 ) ) ;
#220 = VECTOR ( 'NONE', #219, 1000.000000000000000 ) ;
#221 = CARTESIAN_POINT ( 'NONE',  ( 9.249999999999998200, 0.0000000000000000000, -4.336808689942017700E-016 ) ) ;
#222 = LINE ( 'NONE', #221, #220 ) ;
#223 = DIRECTION ( 'NONE',  ( -0.0000000000000000000, -0.0000000000000000000, 1.000000000000000000 ) ) ;
#224 = VECTOR ( 'NONE', #223, 1000.000000000000000 ) ;
#225 = CARTESIAN_POINT ( 'NONE',  ( -9.249999999999998200, 1.132760877285698800E-015, -4.336808689942017700E-016 ) ) ;
#226 = LINE ( 'NONE', #225, #224 ) ;
#227 = DIRECTION ( 'NONE',  ( -0.0000000000000000000, 1.108921438289454200E-016, -1.000000000000000000 ) ) ;
#228 = VECTOR ( 'NONE', #227, 1000.000000000000000 ) ;
#229 = CARTESIAN_POINT ( 'NONE',  ( 0.0000000000000000000, 6.578500000000007100, -60.00000000000001400 ) ) ;
#230 = LINE ( 'NONE', #229, #228 ) ;
#231 = CARTESIAN_POINT ( 'NONE',  ( 9.250000000000000000, 0.0000000000000000000, 0.0000000000000000000 ) ) ;
#232 = CARTESIAN_POINT ( 'NONE',  ( 9.249999999999998200, 0.0000000000000000000, -60.00000000000000000 ) ) ;
#233 = DIRECTION ( 'NONE',  ( 1.000000000000000000, 0.0000000000000000000, 0.0000000000000000000 ) ) ;
#234 = DIRECTION ( 'NONE',  ( -0.0000000000000000000, -0.0000000000000000000, 1.000000000000000000 ) ) ;
#235 = CARTESIAN_POINT ( 'NONE',  ( 0.0000000000000000000, 0.0000000000000000000, -60.00000000000000000 ) ) ;
#236 = AXIS2_PLACEMENT_3D ( 'NONE', #235, #234, #233 ) ;
#237 = CIRCLE ( 'NONE', #236, 9.249999999999998200 ) ;
#238 = DIRECTION ( 'NONE',  ( 1.000000000000000000, 0.0000000000000000000, 0.0000000000000000000 ) ) ;
#239 = DIRECTION ( 'NONE',  ( -0.0000000000000000000, -0.0000000000000000000, 1.000000000000000000 ) ) ;
#240 = CARTESIAN_POINT ( 'NONE',  ( 0.0000000000000000000, 0.0000000000000000000, 0.0000000000000000000 ) ) ;
#241 = AXIS2_PLACEMENT_3D ( 'NONE', #240, #239, #238 ) ;
#242 = CIRCLE ( 'NONE', #241, 9.250000000000000000 ) ;
#243 = CARTESIAN_POINT ( 'NONE',  ( 0.0000000000000000000, 6.578499999999995600, -59.77027371789853300 ) ) ;
#244 = DIRECTION ( 'NONE',  ( 1.000000000000000000, 0.0000000000000000000, 0.0000000000000000000 ) ) ;
#245 = DIRECTION ( 'NONE',  ( -0.0000000000000000000, -0.0000000000000000000, 1.000000000000000000 ) ) ;
#246 = CARTESIAN_POINT ( 'NONE',  ( 0.0000000000000000000, 0.0000000000000000000, -60.00000000000000000 ) ) ;
#247 = AXIS2_PLACEMENT_3D ( 'NONE', #246, #245, #244 ) ;
#248 = CIRCLE ( 'NONE', #247, 9.249999999999998200 ) ;
#249 = APPLICATION_CONTEXT ( 'configuration controlled 3d designs of mechanical parts and assemblies' ) ;
#250 = DIRECTION ( 'NONE',  ( 1.000000000000000000, 0.0000000000000000000, 0.0000000000000000000 ) ) ;
#251 = DIRECTION ( 'NONE',  ( 1.000000000000000000, 0.0000000000000000000, 0.0000000000000000000 ) ) ;
#252 = DIRECTION ( 'NONE',  ( -0.0000000000000000000, -0.0000000000000000000, 1.000000000000000000 ) ) ;
#253 = CARTESIAN_POINT ( 'NONE',  ( 0.0000000000000000000, 0.0000000000000000000, -59.77027371789853300 ) ) ;
#254 = AXIS2_PLACEMENT_3D ( 'NONE', #253, #252, #251 ) ;
#255 = CIRCLE ( 'NONE', #254, 6.578499999999995600 ) ;
#256 = CARTESIAN_POINT ( 'NONE',  ( 8.056072898620511900E-016, -6.578499999999995600, -59.77027371789853300 ) ) ;
#257 = DIRECTION ( 'NONE',  ( -0.7071067811865510100, 8.659274570719398600E-017, 0.7071067811865441300 ) ) ;
#258 = PERSON ( 'UNSPECIFIED', 'UNSPECIFIED', 'UNSPECIFIED', ('UNSPECIFIED'), ('UNSPECIFIED'), ('UNSPECIFIED') ) ;
#259 = PRODUCT ( '19-0402-52_outokumpu', '19-0402-52_outokumpu', '', ( #260 ) ) ;
#260 = MECHANICAL_CONTEXT ( 'NONE', #249, 'mechanical' ) ;
#261 = APPLICATION_PROTOCOL_DEFINITION ( 'international standard', 'config_control_design', 1994, #249 ) ;
#262 = VECTOR ( 'NONE', #257, 999.9999999999998900 ) ;
#263 = CARTESIAN_POINT ( 'NONE',  ( -6.578499999999995600, 8.056072898620504000E-016, -0.2297262821014150200 ) ) ;
#264 = LINE ( 'NONE', #263, #262 ) ;
#265 = CARTESIAN_POINT ( 'NONE',  ( -6.808226282101412800, 8.337397163321891200E-016, -2.743547246460436300E-017 ) ) ;
#266 = DIRECTION ( 'NONE',  ( 1.000000000000000000, 0.0000000000000000000, 0.0000000000000000000 ) ) ;
#267 = DIRECTION ( 'NONE',  ( -0.0000000000000000000, -0.0000000000000000000, 1.000000000000000000 ) ) ;
#268 = DIRECTION ( 'NONE',  ( 1.000000000000000000, 0.0000000000000000000, 0.0000000000000000000 ) ) ;
#269 = DIRECTION ( 'NONE',  ( -0.0000000000000000000, -0.0000000000000000000, 1.000000000000000000 ) ) ;
#270 = CARTESIAN_POINT ( 'NONE',  ( 0.0000000000000000000, 0.0000000000000000000, -4.336808689942017700E-016 ) ) ;
#271 = AXIS2_PLACEMENT_3D ( 'NONE', #270, #269, #268 ) ;
#272 = CARTESIAN_POINT ( 'NONE',  ( -9.250000000000000000, 1.132760877285699000E-015, 0.0000000000000000000 ) ) ;
#273 = CYLINDRICAL_SURFACE ( 'NONE', #271, 9.249999999999998200 ) ;
#274 = FACE_OUTER_BOUND ( 'NONE', #97, .T. ) ;
#275 = DIRECTION ( 'NONE',  ( 1.000000000000000000, 0.0000000000000000000, 0.0000000000000000000 ) ) ;
#276 = DIRECTION ( 'NONE',  ( -0.0000000000000000000, -0.0000000000000000000, 1.000000000000000000 ) ) ;
#277 = CARTESIAN_POINT ( 'NONE',  ( 0.0000000000000000000, 0.0000000000000000000, -0.2297262821014150200 ) ) ;
#278 = AXIS2_PLACEMENT_3D ( 'NONE', #277, #276, #275 ) ;
#279 = CIRCLE ( 'NONE', #278, 6.578499999999995600 ) ;
#280 = DIRECTION ( 'NONE',  ( 1.000000000000000000, 0.0000000000000000000, 0.0000000000000000000 ) ) ;
#281 = DIRECTION ( 'NONE',  ( -0.0000000000000000000, -0.0000000000000000000, 1.000000000000000000 ) ) ;
#282 = CARTESIAN_POINT ( 'NONE',  ( 0.0000000000000000000, 0.0000000000000000000, -59.77027371789853300 ) ) ;
#283 = AXIS2_PLACEMENT_3D ( 'NONE', #282, #281, #280 ) ;
#284 = DIRECTION ( 'NONE',  ( 1.000000000000000000, 0.0000000000000000000, 0.0000000000000000000 ) ) ;
#285 = DIRECTION ( 'NONE',  ( 0.0000000000000000000, -0.0000000000000000000, 1.000000000000000000 ) ) ;
#286 = AXIS2_PLACEMENT_3D ( 'NONE', #288, #285, #284 ) ;
#287 = CIRCLE ( 'NONE', #283, 6.578499999999995600 ) ;
#288 = CARTESIAN_POINT ( 'NONE',  ( 0.0000000000000000000, 9.249999999999998200, -60.00000000000000000 ) ) ;
#289 = PLANE ( 'NONE',  #286 ) ;
#290 = FACE_BOUND ( 'NONE', #109, .T. ) ;
#291 = FACE_OUTER_BOUND ( 'NONE', #80, .T. ) ;
#292 = DIRECTION ( 'NONE',  ( 1.000000000000000000, 0.0000000000000000000, 0.0000000000000000000 ) ) ;
#293 = DIRECTION ( 'NONE',  ( -0.0000000000000000000, -0.0000000000000000000, 1.000000000000000000 ) ) ;
#294 = AXIS2_PLACEMENT_3D ( 'NONE', #299, #293, #292 ) ;
#295 = CIRCLE ( 'NONE', #294, 6.808226282101472300 ) ;
#296 = DIRECTION ( 'NONE',  ( -1.000000000000000000, 0.0000000000000000000, -0.0000000000000000000 ) ) ;
#297 = DIRECTION ( 'NONE',  ( 0.0000000000000000000, 0.0000000000000000000, -1.000000000000000000 ) ) ;
#298 = CARTESIAN_POINT ( 'NONE',  ( 0.0000000000000000000, 9.250000000000000000, -2.168404344971008900E-016 ) ) ;
#299 = CARTESIAN_POINT ( 'NONE',  ( 0.0000000000000000000, 0.0000000000000000000, -60.00000000000000000 ) ) ;
#300 = DIRECTION ( 'NONE',  ( 1.000000000000000000, 0.0000000000000000000, 0.0000000000000000000 ) ) ;
#301 = DIRECTION ( 'NONE',  ( -0.0000000000000000000, -0.0000000000000000000, 1.000000000000000000 ) ) ;
#302 = DIRECTION ( 'NONE',  ( -1.000000000000000000, 0.0000000000000000000, 0.0000000000000000000 ) ) ;
#303 = DIRECTION ( 'NONE',  ( 0.0000000000000000000, 0.0000000000000000000, -1.000000000000000000 ) ) ;
#304 = AXIS2_PLACEMENT_3D ( 'NONE', #312, #303, #302 ) ;
#305 = CONICAL_SURFACE ( 'NONE', #304, 6.808226282101472300, 0.7853981633974690400 ) ;
#306 = CARTESIAN_POINT ( 'NONE',  ( 6.808226282101412800, 0.0000000000000000000, -2.743547246460436300E-017 ) ) ;
#307 = CARTESIAN_POINT ( 'NONE',  ( 0.0000000000000000000, 0.0000000000000000000, -59.77027371789853300 ) ) ;
#308 = DIRECTION ( 'NONE',  ( -0.0000000000000000000, -0.0000000000000000000, 1.000000000000000000 ) ) ;
#309 = AXIS2_PLACEMENT_3D ( 'NONE', #307, #308, #313 ) ;
#310 = CIRCLE ( 'NONE', #309, 6.578499999999995600 ) ;
#311 = FACE_OUTER_BOUND ( 'NONE', #20, .T. ) ;
#312 = CARTESIAN_POINT ( 'NONE',  ( 0.0000000000000000000, 0.0000000000000000000, -60.00000000000000000 ) ) ;
#313 = DIRECTION ( 'NONE',  ( 1.000000000000000000, 0.0000000000000000000, 0.0000000000000000000 ) ) ;
#314 = CIRCLE ( 'NONE', #321, 6.808226282101472300 ) ;
#315 = CARTESIAN_POINT ( 'NONE',  ( -6.808226282101472300, 0.0000000000000000000, -60.00000000000000000 ) ) ;
#316 = LINE ( 'NONE', #315, #320 ) ;
#317 = CARTESIAN_POINT ( 'NONE',  ( -6.578499999999995600, 0.0000000000000000000, -59.77027371789853300 ) ) ;
#318 = CARTESIAN_POINT ( 'NONE',  ( 0.0000000000000000000, 0.0000000000000000000, -60.00000000000000000 ) ) ;
#319 = DIRECTION ( 'NONE',  ( -0.7071067811865622300, 0.0000000000000000000, -0.7071067811865329200 ) ) ;
#320 = VECTOR ( 'NONE', #319, 1000.000000000000000 ) ;
#321 = AXIS2_PLACEMENT_3D ( 'NONE', #318, #301, #300 ) ;
#322 = CC_DESIGN_DATE_AND_TIME_ASSIGNMENT ( #324, #323, ( #385 ) ) ;
#323 = DATE_TIME_ROLE ( 'creation_date' ) ;
#324 = DATE_AND_TIME ( #338, #339 ) ;
#325 = PRODUCT_DEFINITION_FORMATION_WITH_SPECIFIED_SOURCE ( 'ANY', '', #259, .NOT_KNOWN. ) ;
#326 = APPROVAL_ROLE ( '' ) ;
#327 = APPROVAL ( #328, 'UNSPECIFIED' ) ;
#328 = APPROVAL_STATUS ( 'not_yet_approved' ) ;
#329 = PERSON_AND_ORGANIZATION ( #258, #35 ) ;
#330 = COORDINATED_UNIVERSAL_TIME_OFFSET ( 1, 0, .AHEAD. ) ;
#331 = APPROVAL_PERSON_ORGANIZATION ( #335, #333, #332 ) ;
#332 = APPROVAL_ROLE ( '' ) ;
#333 = APPROVAL ( #334, 'UNSPECIFIED' ) ;
#334 = APPROVAL_STATUS ( 'not_yet_approved' ) ;
#335 = PERSON_AND_ORGANIZATION ( #258, #35 ) ;
#336 = CC_DESIGN_DATE_AND_TIME_ASSIGNMENT ( #353, #352, ( #362 ) ) ;
#337 = DESIGN_CONTEXT ( 'detailed design', #370, 'design' ) ;
#338 = CALENDAR_DATE ( 2015, 11, 8 ) ;
#339 = LOCAL_TIME ( 11, 24, 0.0000000000000000000, #340 ) ;
#340 = COORDINATED_UNIVERSAL_TIME_OFFSET ( 1, 0, .AHEAD. ) ;
#341 = PERSON_AND_ORGANIZATION ( #258, #35 ) ;
#342 = CC_DESIGN_APPROVAL ( #327, ( #325 ) ) ;
#343 = APPROVAL_DATE_TIME ( #344, #327 ) ;
#344 = DATE_AND_TIME ( #372, #373 ) ;
#345 = CC_DESIGN_PERSON_AND_ORGANIZATION_ASSIGNMENT ( #341, #346, ( #325 ) ) ;
#346 = PERSON_AND_ORGANIZATION_ROLE ( 'creator' ) ;
#347 = APPROVAL_PERSON_ORGANIZATION ( #377, #348, #366 ) ;
#348 = APPROVAL ( #389, 'UNSPECIFIED' ) ;
#349 = DATE_AND_TIME ( #358, #364 ) ;
#350 = SHAPE_DEFINITION_REPRESENTATION ( #351, #167 ) ;
#351 = PRODUCT_DEFINITION_SHAPE ( 'NONE', 'NONE',  #385 ) ;
#352 = DATE_TIME_ROLE ( 'classification_date' ) ;
#353 = DATE_AND_TIME ( #354, #355 ) ;
#354 = CALENDAR_DATE ( 2015, 11, 8 ) ;
#355 = LOCAL_TIME ( 11, 24, 0.0000000000000000000, #356 ) ;
#356 = COORDINATED_UNIVERSAL_TIME_OFFSET ( 1, 0, .AHEAD. ) ;
#357 = CC_DESIGN_APPROVAL ( #348, ( #385 ) ) ;
#358 = CALENDAR_DATE ( 2015, 11, 8 ) ;
#359 = CC_DESIGN_PERSON_AND_ORGANIZATION_ASSIGNMENT ( #361, #360, ( #362 ) ) ;
#360 = PERSON_AND_ORGANIZATION_ROLE ( 'classification_officer' ) ;
#361 = PERSON_AND_ORGANIZATION ( #258, #35 ) ;
#362 = SECURITY_CLASSIFICATION ( '', '', #363 ) ;
#363 = SECURITY_CLASSIFICATION_LEVEL ( 'unclassified' ) ;
#364 = LOCAL_TIME ( 11, 24, 0.0000000000000000000, #365 ) ;
#365 = COORDINATED_UNIVERSAL_TIME_OFFSET ( 1, 0, .AHEAD. ) ;
#366 = APPROVAL_ROLE ( '' ) ;
#367 = CC_DESIGN_PERSON_AND_ORGANIZATION_ASSIGNMENT ( #369, #368, ( #325 ) ) ;
#368 = PERSON_AND_ORGANIZATION_ROLE ( 'design_supplier' ) ;
#369 = PERSON_AND_ORGANIZATION ( #258, #35 ) ;
#370 = APPLICATION_CONTEXT ( 'configuration controlled 3d designs of mechanical parts and assemblies' ) ;
#371 = APPROVAL_DATE_TIME ( #349, #348 ) ;
#372 = CALENDAR_DATE ( 2015, 11, 8 ) ;
#373 = LOCAL_TIME ( 11, 24, 0.0000000000000000000, #374 ) ;
#374 = COORDINATED_UNIVERSAL_TIME_OFFSET ( 1, 0, .AHEAD. ) ;
#375 = APPROVAL_PERSON_ORGANIZATION ( #329, #327, #326 ) ;
#376 = APPLICATION_PROTOCOL_DEFINITION ( 'international standard', 'config_control_design', 1994, #370 ) ;
#377 = PERSON_AND_ORGANIZATION ( #258, #35 ) ;
#378 = PRODUCT_RELATED_PRODUCT_CATEGORY ( 'detail', '', ( #259 ) ) ;
#379 = CC_DESIGN_SECURITY_CLASSIFICATION ( #362, ( #325 ) ) ;
#380 = CC_DESIGN_APPROVAL ( #333, ( #362 ) ) ;
#381 = APPROVAL_DATE_TIME ( #382, #333 ) ;
#382 = DATE_AND_TIME ( #383, #384 ) ;
#383 = CALENDAR_DATE ( 2015, 11, 8 ) ;
#384 = LOCAL_TIME ( 11, 24, 0.0000000000000000000, #330 ) ;
#385 = PRODUCT_DEFINITION ( 'UNKNOWN', '', #325, #337 ) ;
#386 = CC_DESIGN_PERSON_AND_ORGANIZATION_ASSIGNMENT ( #388, #387, ( #385 ) ) ;
#387 = PERSON_AND_ORGANIZATION_ROLE ( 'creator' ) ;
#388 = PERSON_AND_ORGANIZATION ( #258, #35 ) ;
#389 = APPROVAL_STATUS ( 'not_yet_approved' ) ;
ENDSEC;
END-ISO-10303-21;
