ISO-10303-21;
HEADER;
FILE_DESCRIPTION (( 'STEP AP203' ),
    '1' );
FILE_NAME ('3D_GR1432_48.3_188742160.STEP',
    '2024-10-23T09:13:14',
    ( '' ),
    ( '' ),
    'SwSTEP 2.0',
    'SolidWorks 2023',
    '' );
FILE_SCHEMA (( 'CONFIG_CONTROL_DESIGN' ));
ENDSEC;

DATA;
#1 = AXIS2_PLACEMENT_3D ( 'NONE', #267, #226, #44 ) ;
#2 = CARTESIAN_POINT ( 'NONE',  ( -36.56179414762950586, -5.434738751873452217E-15, 2.957522019940858719E-15 ) ) ;
#3 = CARTESIAN_POINT ( 'NONE',  ( 11.73820585237050196, -5.434738751873452217E-15, 0.000000000000000000 ) ) ;
#4 = DIRECTION ( 'NONE',  ( -0.000000000000000000, -1.000000000000000000, -0.000000000000000000 ) ) ;
#5 = CARTESIAN_POINT ( 'NONE',  ( -12.41179414762950195, -47.90044681124432202, 0.000000000000000000 ) ) ;
#6 = CARTESIAN_POINT ( 'NONE',  ( -12.41179414762950195, -47.90044681124432202, 0.000000000000000000 ) ) ;
#7 = PRODUCT_DEFINITION ( 'UNKNOWN', '', #258, #164 ) ;
#8 = CARTESIAN_POINT ( 'NONE',  ( 0.000000000000000000, 0.000000000000000000, 0.000000000000000000 ) ) ;
#9 = AXIS2_PLACEMENT_3D ( 'NONE', #183, #128, #265 ) ;
#10 = FACE_OUTER_BOUND ( 'NONE', #60, .T. ) ;
#11 = DATE_AND_TIME ( #204, #91 ) ;
#12 = CIRCLE ( 'NONE', #162, 24.14999999999999858 ) ;
#13 = PRODUCT ( '3D_GR1432_48.3_188742160', '3D_GR1432_48.3_188742160', '', ( #53 ) ) ;
#14 = PERSON_AND_ORGANIZATION ( #149, #72 ) ;
#15 = LOCAL_TIME ( 11, 13, 14.00000000000000000, #134 ) ;
#16 = APPROVAL_STATUS ( 'not_yet_approved' ) ;
#17 = ORIENTED_EDGE ( 'NONE', *, *, #216, .T. ) ;
#18 = EDGE_CURVE ( 'NONE', #65, #227, #51, .T. ) ;
#19 = PERSON_AND_ORGANIZATION_ROLE ( 'creator' ) ;
#20 = ADVANCED_BREP_SHAPE_REPRESENTATION ( '3D_GR1432_48.3_188742160', ( #219, #163 ), #203 ) ;
#21 = AXIS2_PLACEMENT_3D ( 'NONE', #45, #26, #107 ) ;
#22 = CYLINDRICAL_SURFACE ( 'NONE', #9, 24.14999999999999858 ) ;
#23 = ORIENTED_EDGE ( 'NONE', *, *, #92, .F. ) ;
#24 = VERTEX_POINT ( 'NONE', #206 ) ;
#25 = FACE_OUTER_BOUND ( 'NONE', #225, .T. ) ;
#26 = DIRECTION ( 'NONE',  ( -0.000000000000000000, -1.000000000000000000, -0.000000000000000000 ) ) ;
#27 = ADVANCED_FACE ( 'NONE', ( #144 ), #22, .T. ) ;
#28 = CARTESIAN_POINT ( 'NONE',  ( -12.41179414762949840, -3.930583599839676057E-15, 24.14999999999999858 ) ) ;
#29 =( LENGTH_UNIT ( ) NAMED_UNIT ( * ) SI_UNIT ( .MILLI., .METRE. ) );
#30 = DIRECTION ( 'NONE',  ( 0.000000000000000000, 0.000000000000000000, -1.000000000000000000 ) ) ;
#31 = PRODUCT_RELATED_PRODUCT_CATEGORY ( 'detail', '', ( #13 ) ) ;
#32 = DIRECTION ( 'NONE',  ( 0.000000000000000000, 0.000000000000000000, -1.000000000000000000 ) ) ;
#33 = CARTESIAN_POINT ( 'NONE',  ( -12.41179414762950195, -2.781924873509085982E-15, -24.14999999999999858 ) ) ;
#34 = LOCAL_TIME ( 11, 13, 14.00000000000000000, #133 ) ;
#35 = PERSON_AND_ORGANIZATION ( #149, #72 ) ;
#36 = APPROVAL_STATUS ( 'not_yet_approved' ) ;
#37 = DATE_AND_TIME ( #74, #105 ) ;
#38 = ORIENTED_EDGE ( 'NONE', *, *, #202, .F. ) ;
#39 = EDGE_CURVE ( 'NONE', #227, #96, #136, .T. ) ;
#40 = COORDINATED_UNIVERSAL_TIME_OFFSET ( 1, 0, .AHEAD. ) ;
#41 = DIRECTION ( 'NONE',  ( -0.000000000000000000, -1.000000000000000000, -0.000000000000000000 ) ) ;
#42 = FACE_OUTER_BOUND ( 'NONE', #120, .T. ) ;
#43 = DIRECTION ( 'NONE',  ( 0.000000000000000000, 0.000000000000000000, -1.000000000000000000 ) ) ;
#44 = DIRECTION ( 'NONE',  ( 1.000000000000000000, 0.000000000000000000, -1.224646799147353207E-16 ) ) ;
#45 = CARTESIAN_POINT ( 'NONE',  ( -12.41179414762950195, -3.930583599839676057E-15, 0.000000000000000000 ) ) ;
#46 = LINE ( 'NONE', #33, #196 ) ;
#47 = DIRECTION ( 'NONE',  ( 1.000000000000000000, 0.000000000000000000, 0.000000000000000000 ) ) ;
#48 = SPHERICAL_SURFACE ( 'NONE', #239, 53.64396801800595682 ) ;
#49 =( NAMED_UNIT ( * ) SI_UNIT ( $, .STERADIAN. ) SOLID_ANGLE_UNIT ( ) );
#50 = EDGE_CURVE ( 'NONE', #102, #227, #81, .T. ) ;
#51 = CIRCLE ( 'NONE', #249, 24.14999999999999858 ) ;
#52 = AXIS2_PLACEMENT_3D ( 'NONE', #174, #108, #190 ) ;
#53 = MECHANICAL_CONTEXT ( 'NONE', #106, 'mechanical' ) ;
#54 = COORDINATED_UNIVERSAL_TIME_OFFSET ( 1, 0, .AHEAD. ) ;
#55 = ORIENTED_EDGE ( 'NONE', *, *, #208, .T. ) ;
#56 = APPROVAL_DATE_TIME ( #215, #251 ) ;
#57 = AXIS2_PLACEMENT_3D ( 'NONE', #86, #82, #43 ) ;
#58 = CIRCLE ( 'NONE', #88, 53.64396801800595682 ) ;
#59 = CALENDAR_DATE ( 2024, 23, 10 ) ;
#60 = EDGE_LOOP ( 'NONE', ( #213, #246, #79, #181 ) ) ;
#61 = VERTEX_POINT ( 'NONE', #161 ) ;
#62 = APPROVAL ( #16, 'UNSPECIFIED' ) ;
#63 = CARTESIAN_POINT ( 'NONE',  ( -12.41179414762950195, 2.229670651104298518, -24.14999999999999858 ) ) ;
#64 = FACE_OUTER_BOUND ( 'NONE', #179, .T. ) ;
#65 = VERTEX_POINT ( 'NONE', #3 ) ;
#66 = CC_DESIGN_DATE_AND_TIME_ASSIGNMENT ( #37, #115, ( #7 ) ) ;
#67 = DIRECTION ( 'NONE',  ( 0.000000000000000000, 0.000000000000000000, 1.000000000000000000 ) ) ;
#68 = CLOSED_SHELL ( 'NONE', ( #150, #168, #110, #27, #119, #263 ) ) ;
#69 = DIRECTION ( 'NONE',  ( -1.000000000000000000, 0.000000000000000000, 0.000000000000000000 ) ) ;
#70 = DIRECTION ( 'NONE',  ( 1.224646799147353207E-16, -0.000000000000000000, 1.000000000000000000 ) ) ;
#71 = APPROVAL ( #113, 'UNSPECIFIED' ) ;
#72 = ORGANIZATION ( 'UNSPECIFIED', 'UNSPECIFIED', '' ) ;
#73 = DIRECTION ( 'NONE',  ( 1.000000000000000000, 0.000000000000000000, 0.000000000000000000 ) ) ;
#74 = CALENDAR_DATE ( 2024, 23, 10 ) ;
#75 = PERSON_AND_ORGANIZATION_ROLE ( 'classification_officer' ) ;
#76 = CIRCLE ( 'NONE', #218, 24.14999999999999858 ) ;
#77 = PERSON_AND_ORGANIZATION ( #149, #72 ) ;
#78 = ORIENTED_EDGE ( 'NONE', *, *, #233, .T. ) ;
#79 = ORIENTED_EDGE ( 'NONE', *, *, #173, .F. ) ;
#80 = AXIS2_PLACEMENT_3D ( 'NONE', #109, #250, #212 ) ;
#81 = LINE ( 'NONE', #189, #169 ) ;
#82 = DIRECTION ( 'NONE',  ( -0.000000000000000000, -1.000000000000000000, -0.000000000000000000 ) ) ;
#83 = ORIENTED_EDGE ( 'NONE', *, *, #147, .F. ) ;
#84 = EDGE_CURVE ( 'NONE', #205, #122, #76, .T. ) ;
#85 = ORIENTED_EDGE ( 'NONE', *, *, #84, .T. ) ;
#86 = CARTESIAN_POINT ( 'NONE',  ( -12.41179414762950195, -3.930583599839676057E-15, 0.000000000000000000 ) ) ;
#87 = SPHERICAL_SURFACE ( 'NONE', #52, 53.64396801800595682 ) ;
#88 = AXIS2_PLACEMENT_3D ( 'NONE', #5, #70, #148 ) ;
#89 = CARTESIAN_POINT ( 'NONE',  ( -12.41179414762950195, -47.90044681124432202, 0.000000000000000000 ) ) ;
#90 = CARTESIAN_POINT ( 'NONE',  ( -12.41179414762950195, 2.229670651104298518, 0.000000000000000000 ) ) ;
#91 = LOCAL_TIME ( 11, 13, 14.00000000000000000, #178 ) ;
#92 = EDGE_CURVE ( 'NONE', #96, #24, #157, .T. ) ;
#93 = DIRECTION ( 'NONE',  ( -1.000000000000000000, 0.000000000000000000, 0.000000000000000000 ) ) ;
#94 = APPLICATION_CONTEXT ( 'configuration controlled 3d designs of mechanical parts and assemblies' ) ;
#95 = APPROVAL_DATE_TIME ( #11, #71 ) ;
#96 = VERTEX_POINT ( 'NONE', #2 ) ;
#97 = PERSON_AND_ORGANIZATION_ROLE ( 'design_supplier' ) ;
#98 = ORIENTED_EDGE ( 'NONE', *, *, #50, .F. ) ;
#99 = LOCAL_TIME ( 11, 13, 14.00000000000000000, #54 ) ;
#100 = ORIENTED_EDGE ( 'NONE', *, *, #124, .T. ) ;
#101 = CARTESIAN_POINT ( 'NONE',  ( 11.73820585237049841, 2.229670651104298518, 0.000000000000000000 ) ) ;
#102 = VERTEX_POINT ( 'NONE', #247 ) ;
#103 = CC_DESIGN_PERSON_AND_ORGANIZATION_ASSIGNMENT ( #237, #234, ( #7 ) ) ;
#104 = VERTEX_POINT ( 'NONE', #101 ) ;
#105 = LOCAL_TIME ( 11, 13, 14.00000000000000000, #40 ) ;
#106 = APPLICATION_CONTEXT ( 'configuration controlled 3d designs of mechanical parts and assemblies' ) ;
#107 = DIRECTION ( 'NONE',  ( 0.000000000000000000, 0.000000000000000000, -1.000000000000000000 ) ) ;
#108 = DIRECTION ( 'NONE',  ( 0.000000000000000000, 0.000000000000000000, 1.000000000000000000 ) ) ;
#109 = CARTESIAN_POINT ( 'NONE',  ( -12.41179414762950195, -3.930583599839676057E-15, 0.000000000000000000 ) ) ;
#110 = ADVANCED_FACE ( 'NONE', ( #64 ), #221, .T. ) ;
#111 = DIRECTION ( 'NONE',  ( 1.000000000000000000, 0.000000000000000000, 0.000000000000000000 ) ) ;
#112 = APPROVAL_ROLE ( '' ) ;
#113 = APPROVAL_STATUS ( 'not_yet_approved' ) ;
#114 = ORIENTED_EDGE ( 'NONE', *, *, #216, .F. ) ;
#115 = DATE_TIME_ROLE ( 'creation_date' ) ;
#116 = VERTEX_POINT ( 'NONE', #242 ) ;
#117 = ORIENTED_EDGE ( 'NONE', *, *, #253, .T. ) ;
#118 = PERSON_AND_ORGANIZATION ( #149, #72 ) ;
#119 = ADVANCED_FACE ( 'NONE', ( #42 ), #143, .T. ) ;
#120 = EDGE_LOOP ( 'NONE', ( #83, #78, #217, #156 ) ) ;
#121 = CIRCLE ( 'NONE', #224, 24.14999999999999858 ) ;
#122 = VERTEX_POINT ( 'NONE', #63 ) ;
#123 = CARTESIAN_POINT ( 'NONE',  ( -12.41179414762950195, 2.229670651104298518, 0.000000000000000000 ) ) ;
#124 = EDGE_CURVE ( 'NONE', #122, #104, #12, .T. ) ;
#125 = CC_DESIGN_PERSON_AND_ORGANIZATION_ASSIGNMENT ( #255, #97, ( #258 ) ) ;
#126 = ORIENTED_EDGE ( 'NONE', *, *, #18, .T. ) ;
#127 = CIRCLE ( 'NONE', #80, 24.14999999999999858 ) ;
#128 = DIRECTION ( 'NONE',  ( -0.000000000000000000, -1.000000000000000000, -0.000000000000000000 ) ) ;
#129 = CARTESIAN_POINT ( 'NONE',  ( -36.56179414762949875, 2.229670651104298518, 2.957522019940858324E-15 ) ) ;
#130 = CC_DESIGN_PERSON_AND_ORGANIZATION_ASSIGNMENT ( #35, #153, ( #13 ) ) ;
#131 = AXIS2_PLACEMENT_3D ( 'NONE', #184, #266, #142 ) ;
#132 = DIRECTION ( 'NONE',  ( 0.000000000000000000, 0.000000000000000000, -1.000000000000000000 ) ) ;
#133 = COORDINATED_UNIVERSAL_TIME_OFFSET ( 1, 0, .AHEAD. ) ;
#134 = COORDINATED_UNIVERSAL_TIME_OFFSET ( 1, 0, .AHEAD. ) ;
#135 = ORIENTED_EDGE ( 'NONE', *, *, #50, .T. ) ;
#136 = CIRCLE ( 'NONE', #21, 24.14999999999999858 ) ;
#137 = CC_DESIGN_SECURITY_CLASSIFICATION ( #191, ( #258 ) ) ;
#138 = DATE_AND_TIME ( #59, #99 ) ;
#139 = DIRECTION ( 'NONE',  ( 0.000000000000000000, 0.000000000000000000, -1.000000000000000000 ) ) ;
#140 = ORIENTED_EDGE ( 'NONE', *, *, #39, .T. ) ;
#141 = AXIS2_PLACEMENT_3D ( 'NONE', #6, #32, #93 ) ;
#142 = DIRECTION ( 'NONE',  ( 1.000000000000000000, 0.000000000000000000, 0.000000000000000000 ) ) ;
#143 = SPHERICAL_SURFACE ( 'NONE', #131, 55.64396801800595682 ) ;
#144 = FACE_OUTER_BOUND ( 'NONE', #238, .T. ) ;
#145 = APPROVAL_PERSON_ORGANIZATION ( #199, #71, #214 ) ;
#146 = DIRECTION ( 'NONE',  ( 0.000000000000000000, 0.000000000000000000, 1.000000000000000000 ) ) ;
#147 = EDGE_CURVE ( 'NONE', #61, #205, #200, .T. ) ;
#148 = DIRECTION ( 'NONE',  ( 1.000000000000000000, 0.000000000000000000, -1.224646799147353207E-16 ) ) ;
#149 = PERSON ( 'UNSPECIFIED', 'UNSPECIFIED', 'UNSPECIFIED', ('UNSPECIFIED'), ('UNSPECIFIED'), ('UNSPECIFIED') ) ;
#150 = ADVANCED_FACE ( 'NONE', ( #25 ), #87, .F. ) ;
#151 = APPROVAL_ROLE ( '' ) ;
#152 = PERSON_AND_ORGANIZATION ( #149, #72 ) ;
#153 = PERSON_AND_ORGANIZATION_ROLE ( 'design_owner' ) ;
#154 = EDGE_LOOP ( 'NONE', ( #261, #17, #126, #140 ) ) ;
#155 = ORIENTED_EDGE ( 'NONE', *, *, #188, .F. ) ;
#156 = ORIENTED_EDGE ( 'NONE', *, *, #84, .F. ) ;
#157 = CIRCLE ( 'NONE', #57, 24.14999999999999858 ) ;
#158 = CC_DESIGN_APPROVAL ( #71, ( #258 ) ) ;
#159 = ORIENTED_EDGE ( 'NONE', *, *, #202, .T. ) ;
#160 = DIRECTION ( 'NONE',  ( -0.000000000000000000, -1.000000000000000000, -0.000000000000000000 ) ) ;
#161 = CARTESIAN_POINT ( 'NONE',  ( -12.41179414762949840, 7.743521206761638354, 0.000000000000000000 ) ) ;
#162 = AXIS2_PLACEMENT_3D ( 'NONE', #123, #209, #185 ) ;
#163 = AXIS2_PLACEMENT_3D ( 'NONE', #8, #194, #73 ) ;
#164 = DESIGN_CONTEXT ( 'detailed design', #94, 'design' ) ;
#165 = DIRECTION ( 'NONE',  ( -0.000000000000000000, -1.000000000000000000, -0.000000000000000000 ) ) ;
#166 = CARTESIAN_POINT ( 'NONE',  ( -12.41179414762950195, -3.930583599839676057E-15, 0.000000000000000000 ) ) ;
#167 = DIRECTION ( 'NONE',  ( 0.000000000000000000, 0.000000000000000000, -1.000000000000000000 ) ) ;
#168 = ADVANCED_FACE ( 'NONE', ( #10 ), #171, .T. ) ;
#169 = VECTOR ( 'NONE', #160, 1000.000000000000000 ) ;
#170 = AXIS2_PLACEMENT_3D ( 'NONE', #192, #252, #229 ) ;
#171 = SPHERICAL_SURFACE ( 'NONE', #235, 55.64396801800595682 ) ;
#172 = CARTESIAN_POINT ( 'NONE',  ( -12.41179414762950195, -47.90044681124432202, 0.000000000000000000 ) ) ;
#173 = EDGE_CURVE ( 'NONE', #102, #205, #121, .T. ) ;
#174 = CARTESIAN_POINT ( 'NONE',  ( -12.41179414762950195, -47.90044681124432202, 0.000000000000000000 ) ) ;
#175 = CIRCLE ( 'NONE', #170, 24.14999999999999858 ) ;
#176 = CALENDAR_DATE ( 2024, 23, 10 ) ;
#177 = APPLICATION_PROTOCOL_DEFINITION ( 'international standard', 'config_control_design', 1994, #94 ) ;
#178 = COORDINATED_UNIVERSAL_TIME_OFFSET ( 1, 0, .AHEAD. ) ;
#179 = EDGE_LOOP ( 'NONE', ( #100, #55, #135, #262, #155, #38 ) ) ;
#180 = APPROVAL_DATE_TIME ( #138, #62 ) ;
#181 = ORIENTED_EDGE ( 'NONE', *, *, #208, .F. ) ;
#182 = CC_DESIGN_APPROVAL ( #62, ( #191 ) ) ;
#183 = CARTESIAN_POINT ( 'NONE',  ( -12.41179414762950195, -2.781924873509085982E-15, 0.000000000000000000 ) ) ;
#184 = CARTESIAN_POINT ( 'NONE',  ( -12.41179414762950195, -47.90044681124432202, 0.000000000000000000 ) ) ;
#185 = DIRECTION ( 'NONE',  ( 0.000000000000000000, 0.000000000000000000, -1.000000000000000000 ) ) ;
#186 = AXIS2_PLACEMENT_3D ( 'NONE', #195, #132, #69 ) ;
#187 = DIRECTION ( 'NONE',  ( 0.000000000000000000, 0.000000000000000000, -1.000000000000000000 ) ) ;
#188 = EDGE_CURVE ( 'NONE', #24, #65, #127, .T. ) ;
#189 = CARTESIAN_POINT ( 'NONE',  ( -12.41179414762949840, -2.781924873509085982E-15, 24.14999999999999858 ) ) ;
#190 = DIRECTION ( 'NONE',  ( 1.000000000000000000, 0.000000000000000000, 0.000000000000000000 ) ) ;
#191 = SECURITY_CLASSIFICATION ( '', '', #257 ) ;
#192 = CARTESIAN_POINT ( 'NONE',  ( -12.41179414762950195, 2.229670651104298518, 0.000000000000000000 ) ) ;
#193 = CC_DESIGN_PERSON_AND_ORGANIZATION_ASSIGNMENT ( #77, #75, ( #191 ) ) ;
#194 = DIRECTION ( 'NONE',  ( 0.000000000000000000, 0.000000000000000000, 1.000000000000000000 ) ) ;
#195 = CARTESIAN_POINT ( 'NONE',  ( -12.41179414762950195, -47.90044681124432202, 0.000000000000000000 ) ) ;
#196 = VECTOR ( 'NONE', #248, 1000.000000000000000 ) ;
#197 = DATE_AND_TIME ( #236, #34 ) ;
#198 = ORIENTED_EDGE ( 'NONE', *, *, #92, .T. ) ;
#199 = PERSON_AND_ORGANIZATION ( #149, #72 ) ;
#200 = CIRCLE ( 'NONE', #1, 55.64396801800595682 ) ;
#201 = PRODUCT_DEFINITION_SHAPE ( 'NONE', 'NONE',  #7 ) ;
#202 = EDGE_CURVE ( 'NONE', #122, #24, #46, .T. ) ;
#203 =( GEOMETRIC_REPRESENTATION_CONTEXT ( 3 ) GLOBAL_UNCERTAINTY_ASSIGNED_CONTEXT ( ( #256 ) ) GLOBAL_UNIT_ASSIGNED_CONTEXT ( ( #29, #231, #49 ) ) REPRESENTATION_CONTEXT ( 'NONE', 'WORKASPACE' ) );
#204 = CALENDAR_DATE ( 2024, 23, 10 ) ;
#205 = VERTEX_POINT ( 'NONE', #129 ) ;
#206 = CARTESIAN_POINT ( 'NONE',  ( -12.41179414762950195, -3.930583599839676057E-15, -24.14999999999999858 ) ) ;
#207 = CIRCLE ( 'NONE', #186, 55.64396801800596393 ) ;
#208 = EDGE_CURVE ( 'NONE', #104, #102, #175, .T. ) ;
#209 = DIRECTION ( 'NONE',  ( -0.000000000000000000, -1.000000000000000000, -0.000000000000000000 ) ) ;
#210 = CARTESIAN_POINT ( 'NONE',  ( -12.41179414762950195, -2.781924873509085982E-15, 0.000000000000000000 ) ) ;
#211 = ORIENTED_EDGE ( 'NONE', *, *, #188, .T. ) ;
#212 = DIRECTION ( 'NONE',  ( 0.000000000000000000, 0.000000000000000000, -1.000000000000000000 ) ) ;
#213 = ORIENTED_EDGE ( 'NONE', *, *, #233, .F. ) ;
#214 = APPROVAL_ROLE ( '' ) ;
#215 = DATE_AND_TIME ( #176, #15 ) ;
#216 = EDGE_CURVE ( 'NONE', #116, #65, #228, .T. ) ;
#217 = ORIENTED_EDGE ( 'NONE', *, *, #124, .F. ) ;
#218 = AXIS2_PLACEMENT_3D ( 'NONE', #223, #165, #187 ) ;
#219 = MANIFOLD_SOLID_BREP ( 'Rotation3', #68 ) ;
#220 = SHAPE_DEFINITION_REPRESENTATION ( #201, #20 ) ;
#221 = CYLINDRICAL_SURFACE ( 'NONE', #244, 24.14999999999999858 ) ;
#222 = CC_DESIGN_DATE_AND_TIME_ASSIGNMENT ( #197, #260, ( #191 ) ) ;
#223 = CARTESIAN_POINT ( 'NONE',  ( -12.41179414762950195, 2.229670651104298518, 0.000000000000000000 ) ) ;
#224 = AXIS2_PLACEMENT_3D ( 'NONE', #90, #4, #30 ) ;
#225 = EDGE_LOOP ( 'NONE', ( #114, #117, #198, #211 ) ) ;
#226 = DIRECTION ( 'NONE',  ( 1.224646799147353207E-16, -0.000000000000000000, 1.000000000000000000 ) ) ;
#227 = VERTEX_POINT ( 'NONE', #28 ) ;
#228 = CIRCLE ( 'NONE', #141, 53.64396801800596393 ) ;
#229 = DIRECTION ( 'NONE',  ( 0.000000000000000000, 0.000000000000000000, -1.000000000000000000 ) ) ;
#230 = FACE_OUTER_BOUND ( 'NONE', #154, .T. ) ;
#231 =( NAMED_UNIT ( * ) PLANE_ANGLE_UNIT ( ) SI_UNIT ( $, .RADIAN. ) );
#232 = APPLICATION_PROTOCOL_DEFINITION ( 'international standard', 'config_control_design', 1994, #106 ) ;
#233 = EDGE_CURVE ( 'NONE', #61, #104, #207, .T. ) ;
#234 = PERSON_AND_ORGANIZATION_ROLE ( 'creator' ) ;
#235 = AXIS2_PLACEMENT_3D ( 'NONE', #172, #67, #111 ) ;
#236 = CALENDAR_DATE ( 2024, 23, 10 ) ;
#237 = PERSON_AND_ORGANIZATION ( #149, #72 ) ;
#238 = EDGE_LOOP ( 'NONE', ( #98, #259, #85, #159, #23, #240 ) ) ;
#239 = AXIS2_PLACEMENT_3D ( 'NONE', #89, #146, #47 ) ;
#240 = ORIENTED_EDGE ( 'NONE', *, *, #39, .F. ) ;
#241 = CC_DESIGN_PERSON_AND_ORGANIZATION_ASSIGNMENT ( #118, #19, ( #258 ) ) ;
#242 = CARTESIAN_POINT ( 'NONE',  ( -12.41179414762949840, 5.743521206761636577, 0.000000000000000000 ) ) ;
#243 = DIRECTION ( 'NONE',  ( -0.000000000000000000, -1.000000000000000000, -0.000000000000000000 ) ) ;
#244 = AXIS2_PLACEMENT_3D ( 'NONE', #210, #243, #167 ) ;
#245 = CC_DESIGN_APPROVAL ( #251, ( #7 ) ) ;
#246 = ORIENTED_EDGE ( 'NONE', *, *, #147, .T. ) ;
#247 = CARTESIAN_POINT ( 'NONE',  ( -12.41179414762949840, 2.229670651104298518, 24.14999999999999858 ) ) ;
#248 = DIRECTION ( 'NONE',  ( -0.000000000000000000, -1.000000000000000000, -0.000000000000000000 ) ) ;
#249 = AXIS2_PLACEMENT_3D ( 'NONE', #166, #41, #139 ) ;
#250 = DIRECTION ( 'NONE',  ( -0.000000000000000000, -1.000000000000000000, -0.000000000000000000 ) ) ;
#251 = APPROVAL ( #36, 'UNSPECIFIED' ) ;
#252 = DIRECTION ( 'NONE',  ( -0.000000000000000000, -1.000000000000000000, -0.000000000000000000 ) ) ;
#253 = EDGE_CURVE ( 'NONE', #116, #96, #58, .T. ) ;
#254 = APPROVAL_PERSON_ORGANIZATION ( #14, #62, #151 ) ;
#255 = PERSON_AND_ORGANIZATION ( #149, #72 ) ;
#256 = UNCERTAINTY_MEASURE_WITH_UNIT (LENGTH_MEASURE( 1.000000000000000082E-05 ), #29, 'distance_accuracy_value', 'NONE');
#257 = SECURITY_CLASSIFICATION_LEVEL ( 'unclassified' ) ;
#258 = PRODUCT_DEFINITION_FORMATION_WITH_SPECIFIED_SOURCE ( 'ANY', '', #13, .NOT_KNOWN. ) ;
#259 = ORIENTED_EDGE ( 'NONE', *, *, #173, .T. ) ;
#260 = DATE_TIME_ROLE ( 'classification_date' ) ;
#261 = ORIENTED_EDGE ( 'NONE', *, *, #253, .F. ) ;
#262 = ORIENTED_EDGE ( 'NONE', *, *, #18, .F. ) ;
#263 = ADVANCED_FACE ( 'NONE', ( #230 ), #48, .F. ) ;
#264 = APPROVAL_PERSON_ORGANIZATION ( #152, #251, #112 ) ;
#265 = DIRECTION ( 'NONE',  ( 0.000000000000000000, 0.000000000000000000, -1.000000000000000000 ) ) ;
#266 = DIRECTION ( 'NONE',  ( 0.000000000000000000, 0.000000000000000000, 1.000000000000000000 ) ) ;
#267 = CARTESIAN_POINT ( 'NONE',  ( -12.41179414762950195, -47.90044681124432202, 0.000000000000000000 ) ) ;
ENDSEC;
END-ISO-10303-21;
