ISO-10303-21;
HEADER;
FILE_DESCRIPTION (( 'STEP AP203' ),
    '1' );
FILE_NAME ('3D_M-2030P_10_174774010.STEP',
    '2024-09-10T06:56:01',
    ( '' ),
    ( '' ),
    'SwSTEP 2.0',
    'SolidWorks 2024',
    '' );
FILE_SCHEMA (( 'CONFIG_CONTROL_DESIGN' ));
ENDSEC;

DATA;
#1 = COORDINATED_UNIVERSAL_TIME_OFFSET ( 1, 0, .AHEAD. ) ;
#2 = EDGE_CURVE ( 'NONE', #75, #94, #40, .T. ) ;
#3 = ORIENTED_EDGE ( 'NONE', *, *, #241, .T. ) ;
#4 = DIRECTION ( 'NONE',  ( -1.000000000000000000, -0.000000000000000000, -0.000000000000000000 ) ) ;
#5 = AXIS2_PLACEMENT_3D ( 'NONE', #13, #116, #29 ) ;
#6 = DIRECTION ( 'NONE',  ( 0.000000000000000000, 0.000000000000000000, 1.000000000000000000 ) ) ;
#7 = CARTESIAN_POINT ( 'NONE',  ( -2.999999999999988898, 1.408343819019452232E-15, 11.49999999999996803 ) ) ;
#8 = CC_DESIGN_DATE_AND_TIME_ASSIGNMENT ( #199, #143, ( #120 ) ) ;
#9 = CC_DESIGN_APPROVAL ( #254, ( #210 ) ) ;
#10 = VERTEX_POINT ( 'NONE', #185 ) ;
#11 = VERTEX_POINT ( 'NONE', #208 ) ;
#12 = DIRECTION ( 'NONE',  ( -1.000000000000000000, -0.000000000000000000, -0.000000000000000000 ) ) ;
#13 = CARTESIAN_POINT ( 'NONE',  ( -2.999999999999988898, 0.000000000000000000, 0.000000000000000000 ) ) ;
#14 = CARTESIAN_POINT ( 'NONE',  ( -8.999999999999980460, 0.000000000000000000, 0.000000000000000000 ) ) ;
#15 = LOCAL_TIME ( 8, 56, 1.000000000000000000, #49 ) ;
#16 = EDGE_CURVE ( 'NONE', #134, #10, #245, .T. ) ;
#17 = FACE_OUTER_BOUND ( 'NONE', #86, .T. ) ;
#18 = VERTEX_POINT ( 'NONE', #7 ) ;
#19 = CONICAL_SURFACE ( 'NONE', #5, 11.49999999999996803, 0.3490658503988638972 ) ;
#20 = AXIS2_PLACEMENT_3D ( 'NONE', #62, #65, #150 ) ;
#21 = MANIFOLD_SOLID_BREP ( 'Rotation1', #54 ) ;
#22 = EDGE_LOOP ( 'NONE', ( #126, #195, #220, #63 ) ) ;
#23 = DIRECTION ( 'NONE',  ( -1.000000000000000000, -0.000000000000000000, -0.000000000000000000 ) ) ;
#24 = CC_DESIGN_PERSON_AND_ORGANIZATION_ASSIGNMENT ( #139, #144, ( #71 ) ) ;
#25 = CARTESIAN_POINT ( 'NONE',  ( 1.387778780781445676E-14, 0.000000000000000000, 0.000000000000000000 ) ) ;
#26 = PLANE ( 'NONE',  #87 ) ;
#27 = LINE ( 'NONE', #247, #225 ) ;
#28 = AXIS2_PLACEMENT_3D ( 'NONE', #69, #46, #234 ) ;
#29 = DIRECTION ( 'NONE',  ( 0.000000000000000000, 0.000000000000000000, -1.000000000000000000 ) ) ;
#30 = PERSON_AND_ORGANIZATION ( #110, #122 ) ;
#31 = PERSON_AND_ORGANIZATION ( #110, #122 ) ;
#32 = ORIENTED_EDGE ( 'NONE', *, *, #168, .F. ) ;
#33 =( LENGTH_UNIT ( ) NAMED_UNIT ( * ) SI_UNIT ( .MILLI., .METRE. ) );
#34 = DIRECTION ( 'NONE',  ( 0.000000000000000000, 0.000000000000000000, 1.000000000000000000 ) ) ;
#35 = APPROVAL_ROLE ( '' ) ;
#36 = SECURITY_CLASSIFICATION_LEVEL ( 'unclassified' ) ;
#37 = LOCAL_TIME ( 8, 56, 1.000000000000000000, #244 ) ;
#38 = ORIENTED_EDGE ( 'NONE', *, *, #117, .F. ) ;
#39 = CC_DESIGN_PERSON_AND_ORGANIZATION_ASSIGNMENT ( #68, #53, ( #135 ) ) ;
#40 = LINE ( 'NONE', #246, #160 ) ;
#41 = EDGE_CURVE ( 'NONE', #128, #134, #190, .T. ) ;
#42 = DIRECTION ( 'NONE',  ( 0.9396926207859090940, 0.000000000000000000, -0.3420201433256668255 ) ) ;
#43 = DIRECTION ( 'NONE',  ( -1.000000000000000000, -0.000000000000000000, -0.000000000000000000 ) ) ;
#44 = DIRECTION ( 'NONE',  ( -1.000000000000000000, -0.000000000000000000, -0.000000000000000000 ) ) ;
#45 = LOCAL_TIME ( 8, 56, 1.000000000000000000, #155 ) ;
#46 = DIRECTION ( 'NONE',  ( -1.000000000000000000, -0.000000000000000000, -0.000000000000000000 ) ) ;
#47 = CONICAL_SURFACE ( 'NONE', #73, 11.49999999999996803, 0.3490658503988638972 ) ;
#48 = CIRCLE ( 'NONE', #129, 8.999999999999966249 ) ;
#49 = COORDINATED_UNIVERSAL_TIME_OFFSET ( 1, 0, .AHEAD. ) ;
#50 = FACE_OUTER_BOUND ( 'NONE', #162, .T. ) ;
#51 = ADVANCED_FACE ( 'NONE', ( #84 ), #26, .F. ) ;
#52 = EDGE_LOOP ( 'NONE', ( #38, #32, #239, #188 ) ) ;
#53 = PERSON_AND_ORGANIZATION_ROLE ( 'design_owner' ) ;
#54 = CLOSED_SHELL ( 'NONE', ( #148, #183, #51, #214, #91, #230, #105 ) ) ;
#55 = DESIGN_CONTEXT ( 'detailed design', #158, 'design' ) ;
#56 = DATE_AND_TIME ( #240, #37 ) ;
#57 = ORIENTED_EDGE ( 'NONE', *, *, #157, .F. ) ;
#58 = PERSON_AND_ORGANIZATION_ROLE ( 'creator' ) ;
#59 = EDGE_CURVE ( 'NONE', #11, #75, #108, .T. ) ;
#60 = COORDINATED_UNIVERSAL_TIME_OFFSET ( 1, 0, .AHEAD. ) ;
#61 = DIRECTION ( 'NONE',  ( 0.000000000000000000, 0.000000000000000000, -1.000000000000000000 ) ) ;
#62 = CARTESIAN_POINT ( 'NONE',  ( -2.999999999999985345, 11.49999999999996803, 0.000000000000000000 ) ) ;
#63 = ORIENTED_EDGE ( 'NONE', *, *, #2, .F. ) ;
#64 = FACE_BOUND ( 'NONE', #92, .T. ) ;
#65 = DIRECTION ( 'NONE',  ( -1.000000000000000000, 0.000000000000000000, -0.000000000000000000 ) ) ;
#66 = APPROVAL_ROLE ( '' ) ;
#67 = AXIS2_PLACEMENT_3D ( 'NONE', #14, #12, #136 ) ;
#68 = PERSON_AND_ORGANIZATION ( #110, #122 ) ;
#69 = CARTESIAN_POINT ( 'NONE',  ( -108.2865231617622612, 0.000000000000000000, 0.000000000000000000 ) ) ;
#70 = EDGE_LOOP ( 'NONE', ( #72, #166 ) ) ;
#71 = PRODUCT_DEFINITION_FORMATION_WITH_SPECIFIED_SOURCE ( 'ANY', '', #135, .NOT_KNOWN. ) ;
#72 = ORIENTED_EDGE ( 'NONE', *, *, #168, .T. ) ;
#73 = AXIS2_PLACEMENT_3D ( 'NONE', #252, #197, #132 ) ;
#74 = CIRCLE ( 'NONE', #165, 11.49999999999996803 ) ;
#75 = VERTEX_POINT ( 'NONE', #228 ) ;
#76 = APPROVAL_DATE_TIME ( #56, #99 ) ;
#77 = PERSON_AND_ORGANIZATION ( #110, #122 ) ;
#78 = APPROVAL_ROLE ( '' ) ;
#79 = APPROVAL_PERSON_ORGANIZATION ( #218, #250, #35 ) ;
#80 = CC_DESIGN_DATE_AND_TIME_ASSIGNMENT ( #181, #222, ( #210 ) ) ;
#81 = CARTESIAN_POINT ( 'NONE',  ( -108.2865231617622612, 0.000000000000000000, 0.000000000000000000 ) ) ;
#82 = FACE_OUTER_BOUND ( 'NONE', #22, .T. ) ;
#83 = APPROVAL_PERSON_ORGANIZATION ( #30, #254, #66 ) ;
#84 = FACE_OUTER_BOUND ( 'NONE', #70, .T. ) ;
#85 = CC_DESIGN_APPROVAL ( #99, ( #120 ) ) ;
#86 = EDGE_LOOP ( 'NONE', ( #57, #217, #177, #203 ) ) ;
#87 = AXIS2_PLACEMENT_3D ( 'NONE', #226, #125, #61 ) ;
#88 = CARTESIAN_POINT ( 'NONE',  ( -8.999999999999980460, 0.000000000000000000, 0.000000000000000000 ) ) ;
#89 = CYLINDRICAL_SURFACE ( 'NONE', #28, 8.999999999999966249 ) ;
#90 = DATE_AND_TIME ( #192, #15 ) ;
#91 = ADVANCED_FACE ( 'NONE', ( #171, #64 ), #207, .F. ) ;
#92 = EDGE_LOOP ( 'NONE', ( #100, #3 ) ) ;
#93 = CARTESIAN_POINT ( 'NONE',  ( -2.999999999999975131, 0.000000000000000000, 0.000000000000000000 ) ) ;
#94 = VERTEX_POINT ( 'NONE', #104 ) ;
#95 = AXIS2_PLACEMENT_3D ( 'NONE', #191, #151, #232 ) ;
#96 = AXIS2_PLACEMENT_3D ( 'NONE', #147, #43, #106 ) ;
#97 = EDGE_LOOP ( 'NONE', ( #124, #140 ) ) ;
#98 = APPROVAL_STATUS ( 'not_yet_approved' ) ;
#99 = APPROVAL ( #138, 'UNSPECIFIED' ) ;
#100 = ORIENTED_EDGE ( 'NONE', *, *, #137, .T. ) ;
#101 = CYLINDRICAL_SURFACE ( 'NONE', #107, 8.999999999999966249 ) ;
#102 = DIRECTION ( 'NONE',  ( -1.000000000000000000, 0.000000000000000000, -0.000000000000000000 ) ) ;
#103 = CARTESIAN_POINT ( 'NONE',  ( -2.999999999999988898, 0.000000000000000000, -11.49999999999996803 ) ) ;
#104 = CARTESIAN_POINT ( 'NONE',  ( -2.999999999999975131, 0.000000000000000000, 8.999999999999966249 ) ) ;
#105 = ADVANCED_FACE ( 'NONE', ( #249 ), #189, .F. ) ;
#106 = DIRECTION ( 'NONE',  ( 0.000000000000000000, 0.000000000000000000, 1.000000000000000000 ) ) ;
#107 = AXIS2_PLACEMENT_3D ( 'NONE', #81, #167, #213 ) ;
#108 = CIRCLE ( 'NONE', #146, 8.999999999999966249 ) ;
#109 = APPLICATION_PROTOCOL_DEFINITION ( 'international standard', 'config_control_design', 1994, #243 ) ;
#110 = PERSON ( 'UNSPECIFIED', 'UNSPECIFIED', 'UNSPECIFIED', ('UNSPECIFIED'), ('UNSPECIFIED'), ('UNSPECIFIED') ) ;
#111 = EDGE_CURVE ( 'NONE', #10, #18, #74, .T. ) ;
#112 = APPROVAL_STATUS ( 'not_yet_approved' ) ;
#113 = CALENDAR_DATE ( 2024, 10, 9 ) ;
#114 = ORIENTED_EDGE ( 'NONE', *, *, #119, .F. ) ;
#115 =( NAMED_UNIT ( * ) PLANE_ANGLE_UNIT ( ) SI_UNIT ( $, .RADIAN. ) );
#116 = DIRECTION ( 'NONE',  ( 1.000000000000000000, 0.000000000000000000, 0.000000000000000000 ) ) ;
#117 = EDGE_CURVE ( 'NONE', #128, #18, #27, .T. ) ;
#118 = CIRCLE ( 'NONE', #67, 9.316178594402771296 ) ;
#119 = EDGE_CURVE ( 'NONE', #18, #10, #212, .T. ) ;
#120 = SECURITY_CLASSIFICATION ( '', '', #36 ) ;
#121 = PERSON_AND_ORGANIZATION ( #110, #122 ) ;
#122 = ORGANIZATION ( 'UNSPECIFIED', 'UNSPECIFIED', '' ) ;
#123 = ORIENTED_EDGE ( 'NONE', *, *, #41, .F. ) ;
#124 = ORIENTED_EDGE ( 'NONE', *, *, #202, .F. ) ;
#125 = DIRECTION ( 'NONE',  ( 1.000000000000000000, 0.000000000000000000, 0.000000000000000000 ) ) ;
#126 = ORIENTED_EDGE ( 'NONE', *, *, #202, .T. ) ;
#127 = CARTESIAN_POINT ( 'NONE',  ( -8.999999999999980460, 1.274623324305748352E-15, 9.316178594402771296 ) ) ;
#128 = VERTEX_POINT ( 'NONE', #127 ) ;
#129 = AXIS2_PLACEMENT_3D ( 'NONE', #206, #23, #6 ) ;
#130 = CC_DESIGN_PERSON_AND_ORGANIZATION_ASSIGNMENT ( #31, #216, ( #210 ) ) ;
#131 = AXIS2_PLACEMENT_3D ( 'NONE', #88, #248, #229 ) ;
#132 = DIRECTION ( 'NONE',  ( 0.000000000000000000, 0.000000000000000000, -1.000000000000000000 ) ) ;
#133 = DIRECTION ( 'NONE',  ( -1.000000000000000000, -0.000000000000000000, -0.000000000000000000 ) ) ;
#134 = VERTEX_POINT ( 'NONE', #204 ) ;
#135 = PRODUCT ( '3D_M-2030P_10_174774010', '3D_M-2030P_10_174774010', '', ( #175 ) ) ;
#136 = DIRECTION ( 'NONE',  ( 0.000000000000000000, 0.000000000000000000, 1.000000000000000000 ) ) ;
#137 = EDGE_CURVE ( 'NONE', #94, #253, #48, .T. ) ;
#138 = APPROVAL_STATUS ( 'not_yet_approved' ) ;
#139 = PERSON_AND_ORGANIZATION ( #110, #122 ) ;
#140 = ORIENTED_EDGE ( 'NONE', *, *, #59, .F. ) ;
#141 = PRODUCT_RELATED_PRODUCT_CATEGORY ( 'detail', '', ( #135 ) ) ;
#142 = PERSON_AND_ORGANIZATION_ROLE ( 'classification_officer' ) ;
#143 = DATE_TIME_ROLE ( 'classification_date' ) ;
#144 = PERSON_AND_ORGANIZATION_ROLE ( 'design_supplier' ) ;
#145 = CIRCLE ( 'NONE', #178, 8.999999999999966249 ) ;
#146 = AXIS2_PLACEMENT_3D ( 'NONE', #25, #4, #186 ) ;
#147 = CARTESIAN_POINT ( 'NONE',  ( -2.999999999999988898, 0.000000000000000000, 0.000000000000000000 ) ) ;
#148 = ADVANCED_FACE ( 'NONE', ( #82 ), #101, .T. ) ;
#149 = DIRECTION ( 'NONE',  ( 0.9396926207859090940, 4.188538737676968346E-17, 0.3420201433256668255 ) ) ;
#150 = DIRECTION ( 'NONE',  ( -0.000000000000000000, 0.000000000000000000, 1.000000000000000000 ) ) ;
#151 = DIRECTION ( 'NONE',  ( -1.000000000000000000, -0.000000000000000000, -0.000000000000000000 ) ) ;
#152 = APPLICATION_PROTOCOL_DEFINITION ( 'international standard', 'config_control_design', 1994, #158 ) ;
#153 =( GEOMETRIC_REPRESENTATION_CONTEXT ( 3 ) GLOBAL_UNCERTAINTY_ASSIGNED_CONTEXT ( ( #196 ) ) GLOBAL_UNIT_ASSIGNED_CONTEXT ( ( #33, #115, #211 ) ) REPRESENTATION_CONTEXT ( 'NONE', 'WORKASPACE' ) );
#154 = DIRECTION ( 'NONE',  ( 0.000000000000000000, 0.000000000000000000, 1.000000000000000000 ) ) ;
#155 = COORDINATED_UNIVERSAL_TIME_OFFSET ( 1, 0, .AHEAD. ) ;
#156 = CC_DESIGN_APPROVAL ( #250, ( #71 ) ) ;
#157 = EDGE_CURVE ( 'NONE', #11, #253, #236, .T. ) ;
#158 = APPLICATION_CONTEXT ( 'configuration controlled 3d designs of mechanical parts and assemblies' ) ;
#159 = PRODUCT_DEFINITION_SHAPE ( 'NONE', 'NONE',  #210 ) ;
#160 = VECTOR ( 'NONE', #170, 1000.000000000000000 ) ;
#161 = EDGE_LOOP ( 'NONE', ( #235, #114 ) ) ;
#162 = EDGE_LOOP ( 'NONE', ( #123, #227, #184, #238 ) ) ;
#163 = CC_DESIGN_SECURITY_CLASSIFICATION ( #120, ( #71 ) ) ;
#164 = CIRCLE ( 'NONE', #95, 8.999999999999966249 ) ;
#165 = AXIS2_PLACEMENT_3D ( 'NONE', #169, #44, #209 ) ;
#166 = ORIENTED_EDGE ( 'NONE', *, *, #41, .T. ) ;
#167 = DIRECTION ( 'NONE',  ( -1.000000000000000000, -0.000000000000000000, -0.000000000000000000 ) ) ;
#168 = EDGE_CURVE ( 'NONE', #134, #128, #118, .T. ) ;
#169 = CARTESIAN_POINT ( 'NONE',  ( -2.999999999999988898, 0.000000000000000000, 0.000000000000000000 ) ) ;
#170 = DIRECTION ( 'NONE',  ( -1.000000000000000000, -0.000000000000000000, -0.000000000000000000 ) ) ;
#171 = FACE_OUTER_BOUND ( 'NONE', #161, .T. ) ;
#172 = CARTESIAN_POINT ( 'NONE',  ( -2.999999999999975131, 1.102182119232613770E-15, -8.999999999999966249 ) ) ;
#173 = APPROVAL_DATE_TIME ( #90, #254 ) ;
#174 = AXIS2_PLACEMENT_3D ( 'NONE', #215, #34, #251 ) ;
#175 = MECHANICAL_CONTEXT ( 'NONE', #243, 'mechanical' ) ;
#176 = FACE_OUTER_BOUND ( 'NONE', #52, .T. ) ;
#177 = ORIENTED_EDGE ( 'NONE', *, *, #2, .T. ) ;
#178 = AXIS2_PLACEMENT_3D ( 'NONE', #93, #133, #154 ) ;
#179 = AXIS2_PLACEMENT_3D ( 'NONE', #187, #102, #231 ) ;
#180 = DATE_AND_TIME ( #182, #201 ) ;
#181 = DATE_AND_TIME ( #113, #45 ) ;
#182 = CALENDAR_DATE ( 2024, 10, 9 ) ;
#183 = ADVANCED_FACE ( 'NONE', ( #50 ), #19, .T. ) ;
#184 = ORIENTED_EDGE ( 'NONE', *, *, #119, .T. ) ;
#185 = CARTESIAN_POINT ( 'NONE',  ( -2.999999999999988898, 0.000000000000000000, -11.49999999999996803 ) ) ;
#186 = DIRECTION ( 'NONE',  ( 0.000000000000000000, 0.000000000000000000, 1.000000000000000000 ) ) ;
#187 = CARTESIAN_POINT ( 'NONE',  ( 3.903127820947815962E-15, 8.999999999999966249, 0.000000000000000000 ) ) ;
#188 = ORIENTED_EDGE ( 'NONE', *, *, #111, .T. ) ;
#189 = PLANE ( 'NONE',  #179 ) ;
#190 = CIRCLE ( 'NONE', #131, 9.316178594402771296 ) ;
#191 = CARTESIAN_POINT ( 'NONE',  ( 1.387778780781445676E-14, 0.000000000000000000, 0.000000000000000000 ) ) ;
#192 = CALENDAR_DATE ( 2024, 10, 9 ) ;
#193 = DIRECTION ( 'NONE',  ( -1.000000000000000000, -0.000000000000000000, -0.000000000000000000 ) ) ;
#194 = CC_DESIGN_PERSON_AND_ORGANIZATION_ASSIGNMENT ( #77, #58, ( #71 ) ) ;
#195 = ORIENTED_EDGE ( 'NONE', *, *, #157, .T. ) ;
#196 = UNCERTAINTY_MEASURE_WITH_UNIT (LENGTH_MEASURE( 1.000000000000000082E-05 ), #33, 'distance_accuracy_value', 'NONE');
#197 = DIRECTION ( 'NONE',  ( 1.000000000000000000, 0.000000000000000000, 0.000000000000000000 ) ) ;
#198 = APPROVAL_PERSON_ORGANIZATION ( #121, #99, #78 ) ;
#199 = DATE_AND_TIME ( #242, #223 ) ;
#200 = VECTOR ( 'NONE', #42, 1000.000000000000000 ) ;
#201 = LOCAL_TIME ( 8, 56, 1.000000000000000000, #60 ) ;
#202 = EDGE_CURVE ( 'NONE', #75, #11, #164, .T. ) ;
#203 = ORIENTED_EDGE ( 'NONE', *, *, #241, .F. ) ;
#204 = CARTESIAN_POINT ( 'NONE',  ( -8.999999999999980460, 0.000000000000000000, -9.316178594402771296 ) ) ;
#205 = CC_DESIGN_PERSON_AND_ORGANIZATION_ASSIGNMENT ( #255, #142, ( #120 ) ) ;
#206 = CARTESIAN_POINT ( 'NONE',  ( -2.999999999999975131, 0.000000000000000000, 0.000000000000000000 ) ) ;
#207 = PLANE ( 'NONE',  #20 ) ;
#208 = CARTESIAN_POINT ( 'NONE',  ( 1.387778780781445676E-14, 1.102182119232613770E-15, -8.999999999999966249 ) ) ;
#209 = DIRECTION ( 'NONE',  ( 0.000000000000000000, 0.000000000000000000, 1.000000000000000000 ) ) ;
#210 = PRODUCT_DEFINITION ( 'UNKNOWN', '', #71, #55 ) ;
#211 =( NAMED_UNIT ( * ) SI_UNIT ( $, .STERADIAN. ) SOLID_ANGLE_UNIT ( ) );
#212 = CIRCLE ( 'NONE', #96, 11.49999999999996803 ) ;
#213 = DIRECTION ( 'NONE',  ( 0.000000000000000000, 0.000000000000000000, 1.000000000000000000 ) ) ;
#214 = ADVANCED_FACE ( 'NONE', ( #176 ), #47, .T. ) ;
#215 = CARTESIAN_POINT ( 'NONE',  ( 0.000000000000000000, 0.000000000000000000, 0.000000000000000000 ) ) ;
#216 = PERSON_AND_ORGANIZATION_ROLE ( 'creator' ) ;
#217 = ORIENTED_EDGE ( 'NONE', *, *, #59, .T. ) ;
#218 = PERSON_AND_ORGANIZATION ( #110, #122 ) ;
#219 = ADVANCED_BREP_SHAPE_REPRESENTATION ( '3D_M-2030P_10_174774010', ( #21, #174 ), #153 ) ;
#220 = ORIENTED_EDGE ( 'NONE', *, *, #137, .F. ) ;
#221 = VECTOR ( 'NONE', #193, 1000.000000000000000 ) ;
#222 = DATE_TIME_ROLE ( 'creation_date' ) ;
#223 = LOCAL_TIME ( 8, 56, 1.000000000000000000, #1 ) ;
#224 = SHAPE_DEFINITION_REPRESENTATION ( #159, #219 ) ;
#225 = VECTOR ( 'NONE', #149, 1000.000000000000000 ) ;
#226 = CARTESIAN_POINT ( 'NONE',  ( -8.999999999999987566, -3.315318599521195210E-14, 0.000000000000000000 ) ) ;
#227 = ORIENTED_EDGE ( 'NONE', *, *, #117, .T. ) ;
#228 = CARTESIAN_POINT ( 'NONE',  ( 1.387778780781445676E-14, 0.000000000000000000, 8.999999999999966249 ) ) ;
#229 = DIRECTION ( 'NONE',  ( 0.000000000000000000, 0.000000000000000000, 1.000000000000000000 ) ) ;
#230 = ADVANCED_FACE ( 'NONE', ( #17 ), #89, .T. ) ;
#231 = DIRECTION ( 'NONE',  ( -0.000000000000000000, 0.000000000000000000, 1.000000000000000000 ) ) ;
#232 = DIRECTION ( 'NONE',  ( 0.000000000000000000, 0.000000000000000000, 1.000000000000000000 ) ) ;
#233 = CARTESIAN_POINT ( 'NONE',  ( -108.2865231617622612, 1.102182119232613770E-15, -8.999999999999966249 ) ) ;
#234 = DIRECTION ( 'NONE',  ( 0.000000000000000000, 0.000000000000000000, 1.000000000000000000 ) ) ;
#235 = ORIENTED_EDGE ( 'NONE', *, *, #111, .F. ) ;
#236 = LINE ( 'NONE', #233, #221 ) ;
#237 = APPROVAL_DATE_TIME ( #180, #250 ) ;
#238 = ORIENTED_EDGE ( 'NONE', *, *, #16, .F. ) ;
#239 = ORIENTED_EDGE ( 'NONE', *, *, #16, .T. ) ;
#240 = CALENDAR_DATE ( 2024, 10, 9 ) ;
#241 = EDGE_CURVE ( 'NONE', #253, #94, #145, .T. ) ;
#242 = CALENDAR_DATE ( 2024, 10, 9 ) ;
#243 = APPLICATION_CONTEXT ( 'configuration controlled 3d designs of mechanical parts and assemblies' ) ;
#244 = COORDINATED_UNIVERSAL_TIME_OFFSET ( 1, 0, .AHEAD. ) ;
#245 = LINE ( 'NONE', #103, #200 ) ;
#246 = CARTESIAN_POINT ( 'NONE',  ( -108.2865231617622612, 0.000000000000000000, 8.999999999999966249 ) ) ;
#247 = CARTESIAN_POINT ( 'NONE',  ( -2.999999999999988898, 1.408343819019452232E-15, 11.49999999999996803 ) ) ;
#248 = DIRECTION ( 'NONE',  ( -1.000000000000000000, -0.000000000000000000, -0.000000000000000000 ) ) ;
#249 = FACE_OUTER_BOUND ( 'NONE', #97, .T. ) ;
#250 = APPROVAL ( #98, 'UNSPECIFIED' ) ;
#251 = DIRECTION ( 'NONE',  ( 1.000000000000000000, 0.000000000000000000, 0.000000000000000000 ) ) ;
#252 = CARTESIAN_POINT ( 'NONE',  ( -2.999999999999988898, 0.000000000000000000, 0.000000000000000000 ) ) ;
#253 = VERTEX_POINT ( 'NONE', #172 ) ;
#254 = APPROVAL ( #112, 'UNSPECIFIED' ) ;
#255 = PERSON_AND_ORGANIZATION ( #110, #122 ) ;
ENDSEC;
END-ISO-10303-21;
