ISO-10303-21;
HEADER;
FILE_DESCRIPTION (( 'STEP AP203' ),
    '1' );
FILE_NAME ('3D_R-159_DN20_1780120.STEP',
    '2024-08-12T06:40:04',
    ( '' ),
    ( '' ),
    'SwSTEP 2.0',
    'SolidWorks 2024',
    '' );
FILE_SCHEMA (( 'CONFIG_CONTROL_DESIGN' ));
ENDSEC;

DATA;
#1 = DIRECTION ( 'NONE',  ( -1.000000000000000000, 1.954870727099988770E-15, 2.988259529567231363E-21 ) ) ;
#2 = APPLICATION_PROTOCOL_DEFINITION ( 'international standard', 'config_control_design', 1994, #114 ) ;
#3 = EDGE_CURVE ( 'NONE', #301, #200, #299, .T. ) ;
#4 = VECTOR ( 'NONE', #235, 1000.000000000000114 ) ;
#5 = ORIENTED_EDGE ( 'NONE', *, *, #106, .T. ) ;
#6 = CARTESIAN_POINT ( 'NONE',  ( -106.4542019749537474, -8.173269488838615260, 1.647272463493892356E-15 ) ) ;
#7 = ADVANCED_FACE ( 'NONE', ( #24 ), #83, .T. ) ;
#8 = ORIENTED_EDGE ( 'NONE', *, *, #191, .T. ) ;
#9 = DIRECTION ( 'NONE',  ( -0.9999999997022959164, -2.440099081145985212E-05, -0.000000000000000000 ) ) ;
#10 = ORGANIZATION ( 'UNSPECIFIED', 'UNSPECIFIED', '' ) ;
#11 = ORIENTED_EDGE ( 'NONE', *, *, #300, .T. ) ;
#12 = CARTESIAN_POINT ( 'NONE',  ( -65.45453021710362407, 5.278731388403204328, 0.000000000000000000 ) ) ;
#13 = APPLICATION_CONTEXT ( 'configuration controlled 3d designs of mechanical parts and assemblies' ) ;
#14 = ORIENTED_EDGE ( 'NONE', *, *, #150, .T. ) ;
#15 = CARTESIAN_POINT ( 'NONE',  ( -106.4548584104300630, 24.27773094542777343, 2.326831308987594597E-15 ) ) ;
#16 = EDGE_LOOP ( 'NONE', ( #338, #63, #220, #71 ) ) ;
#17 = EDGE_CURVE ( 'NONE', #301, #98, #112, .T. ) ;
#18 = CARTESIAN_POINT ( 'NONE',  ( -106.4539311727792352, -13.72226904325946428, 0.000000000000000000 ) ) ;
#19 = FACE_OUTER_BOUND ( 'NONE', #188, .T. ) ;
#20 = CARTESIAN_POINT ( 'NONE',  ( -106.4548584104300630, 24.27773094542776988, 2.326828918379970970E-15 ) ) ;
#21 = CARTESIAN_POINT ( 'NONE',  ( -108.0542800562190138, -6.573347573914470665, 0.000000000000000000 ) ) ;
#22 = ORIENTED_EDGE ( 'NONE', *, *, #213, .T. ) ;
#23 = APPLICATION_PROTOCOL_DEFINITION ( 'international standard', 'config_control_design', 1994, #13 ) ;
#24 = FACE_OUTER_BOUND ( 'NONE', #155, .T. ) ;
#25 = DIRECTION ( 'NONE',  ( 0.9999999997022959164, 2.440099081145985212E-05, 0.000000000000000000 ) ) ;
#26 = CARTESIAN_POINT ( 'NONE',  ( -108.0543947906519975, 5.277691909498867240, 0.000000000000000000 ) ) ;
#27 = CONICAL_SURFACE ( 'NONE', #242, 18.99999999999999645, 2.440099081583614610E-05 ) ;
#28 = ADVANCED_FACE ( 'NONE', ( #342 ), #322, .F. ) ;
#29 = APPROVAL_STATUS ( 'not_yet_approved' ) ;
#30 = VECTOR ( 'NONE', #39, 1000.000000000000114 ) ;
#31 = LOCAL_TIME ( 8, 40, 4.000000000000000000, #234 ) ;
#32 = ORIENTED_EDGE ( 'NONE', *, *, #62, .F. ) ;
#33 = EDGE_CURVE ( 'NONE', #366, #305, #323, .T. ) ;
#34 = DIRECTION ( 'NONE',  ( 0.9999999997022959164, 2.440099081145985212E-05, 0.000000000000000000 ) ) ;
#35 = CARTESIAN_POINT ( 'NONE',  ( -106.4545301926918910, 5.277730947780232995, 0.000000000000000000 ) ) ;
#36 = PERSON_AND_ORGANIZATION ( #46, #10 ) ;
#37 = ORIENTED_EDGE ( 'NONE', *, *, #208, .T. ) ;
#38 = CONICAL_SURFACE ( 'NONE', #261, 13.45000000000000107, 2.440099081379470521E-05 ) ;
#39 = DIRECTION ( 'NONE',  ( 4.880198160559542068E-05, -0.9999999988091832215, 1.224646798782770786E-16 ) ) ;
#40 = VECTOR ( 'NONE', #224, 1000.000000000000114 ) ;
#41 = EDGE_LOOP ( 'NONE', ( #257, #221, #274, #250 ) ) ;
#42 = DIRECTION ( 'NONE',  ( -0.9999999997022959164, -2.440099081145985212E-05, -0.000000000000000000 ) ) ;
#43 = ORIENTED_EDGE ( 'NONE', *, *, #106, .F. ) ;
#44 = DIRECTION ( 'NONE',  ( -2.440099081131255309E-05, 0.9999999997022959164, 0.000000000000000000 ) ) ;
#45 = CARTESIAN_POINT ( 'NONE',  ( -65.45456925868890607, 5.278731387450552148, 0.000000000000000000 ) ) ;
#46 = PERSON ( 'UNSPECIFIED', 'UNSPECIFIED', 'UNSPECIFIED', ('UNSPECIFIED'), ('UNSPECIFIED'), ('UNSPECIFIED') ) ;
#47 = CALENDAR_DATE ( 2024, 12, 8 ) ;
#48 = DIRECTION ( 'NONE',  ( 2.440099081124636255E-05, -0.9999999997022959164, 0.000000000000000000 ) ) ;
#49 = CARTESIAN_POINT ( 'NONE',  ( -106.4543947916046562, 5.277730951084153688, 0.000000000000000000 ) ) ;
#50 = DIRECTION ( 'NONE',  ( -2.440099081202225489E-05, 0.9999999997022958054, 0.000000000000000000 ) ) ;
#51 = DIRECTION ( 'NONE',  ( -0.9999999997022959164, -2.440099081145985212E-05, -0.000000000000000000 ) ) ;
#52 = PERSON_AND_ORGANIZATION ( #46, #10 ) ;
#53 = ADVANCED_FACE ( 'NONE', ( #324 ), #97, .T. ) ;
#54 = CARTESIAN_POINT ( 'NONE',  ( -108.0548584104300716, 24.27773094531308118, 0.000000000000000000 ) ) ;
#55 = MANIFOLD_SOLID_BREP ( 'Rotation1', #173 ) ;
#56 = CONICAL_SURFACE ( 'NONE', #164, 13.45100044062326461, 1.570771925804085534 ) ;
#57 = APPROVAL ( #239, 'UNSPECIFIED' ) ;
#58 = CIRCLE ( 'NONE', #296, 11.85103948268486818 ) ;
#59 = CONICAL_SURFACE ( 'NONE', #363, 11.85000000047630486, 1.570771925804084423 ) ;
#60 = ADVANCED_FACE ( 'NONE', ( #209 ), #64, .F. ) ;
#61 = PRODUCT_DEFINITION_SHAPE ( 'NONE', 'NONE',  #145 ) ;
#62 = EDGE_CURVE ( 'NONE', #200, #366, #178, .T. ) ;
#63 = ORIENTED_EDGE ( 'NONE', *, *, #272, .T. ) ;
#64 = CONICAL_SURFACE ( 'NONE', #122, 11.85103948268486818, 2.440099081374920938E-05 ) ;
#65 = VERTEX_POINT ( 'NONE', #18 ) ;
#66 = DIRECTION ( 'NONE',  ( -2.795727110102910751E-15, 1.000000000000000000, 0.000000000000000000 ) ) ;
#67 = VERTEX_POINT ( 'NONE', #75 ) ;
#68 = LINE ( 'NONE', #6, #30 ) ;
#69 = ORIENTED_EDGE ( 'NONE', *, *, #131, .F. ) ;
#70 = CARTESIAN_POINT ( 'NONE',  ( -108.0545692333245427, 5.277691905242292592, 0.000000000000000000 ) ) ;
#71 = ORIENTED_EDGE ( 'NONE', *, *, #308, .F. ) ;
#72 = DIRECTION ( 'NONE',  ( 2.440099081176225982E-05, -0.9999999997022958054, 0.000000000000000000 ) ) ;
#73 = APPROVAL ( #29, 'UNSPECIFIED' ) ;
#74 = VECTOR ( 'NONE', #238, 1000.000000000000000 ) ;
#75 = CARTESIAN_POINT ( 'NONE',  ( -65.45420202377721353, -8.171268607323638022, 1.647149944820242624E-15 ) ) ;
#76 = DIRECTION ( 'NONE',  ( 2.440099081176225982E-05, -0.9999999997022958054, 0.000000000000000000 ) ) ;
#77 = ORIENTED_EDGE ( 'NONE', *, *, #258, .T. ) ;
#78 = EDGE_CURVE ( 'NONE', #102, #305, #333, .T. ) ;
#79 = CARTESIAN_POINT ( 'NONE',  ( -108.0545692333245427, 5.277691905242292592, 0.000000000000000000 ) ) ;
#80 = CONICAL_SURFACE ( 'NONE', #127, 11.85103948268486818, 2.440099081374920938E-05 ) ;
#81 = CARTESIAN_POINT ( 'NONE',  ( -108.0543947906519975, 5.277691909498867240, 0.000000000000000000 ) ) ;
#82 = CALENDAR_DATE ( 2024, 12, 8 ) ;
#83 = CONICAL_SURFACE ( 'NONE', #186, 13.45000000000000107, 2.440099081379470521E-05 ) ;
#84 = DIRECTION ( 'NONE',  ( -2.440099081131255309E-05, 0.9999999997022959164, 0.000000000000000000 ) ) ;
#85 = MECHANICAL_CONTEXT ( 'NONE', #114, 'mechanical' ) ;
#86 = DIRECTION ( 'NONE',  ( 2.440099081124636255E-05, -0.9999999997022959164, 0.000000000000000000 ) ) ;
#87 = CARTESIAN_POINT ( 'NONE',  ( -65.45456925868890607, 5.278731387450552148, 0.000000000000000000 ) ) ;
#88 = CARTESIAN_POINT ( 'NONE',  ( -65.45485841043004882, 18.72873138467629417, 0.000000000000000000 ) ) ;
#89 = APPROVAL_ROLE ( '' ) ;
#90 = EDGE_CURVE ( 'NONE', #65, #305, #116, .T. ) ;
#91 = LOCAL_TIME ( 8, 40, 4.000000000000000000, #156 ) ;
#92 = ADVANCED_FACE ( 'NONE', ( #141 ), #27, .T. ) ;
#93 = ORIENTED_EDGE ( 'NONE', *, *, #131, .T. ) ;
#94 = AXIS2_PLACEMENT_3D ( 'NONE', #275, #138, #282 ) ;
#95 = ORIENTED_EDGE ( 'NONE', *, *, #62, .T. ) ;
#96 = CARTESIAN_POINT ( 'NONE',  ( -108.0539311708739376, -13.72234712654473654, 2.326833699609264286E-15 ) ) ;
#97 = CONICAL_SURFACE ( 'NONE', #189, 19.00003904158529977, 1.570771925804083313 ) ;
#98 = VERTEX_POINT ( 'NONE', #107 ) ;
#99 = DIRECTION ( 'NONE',  ( 4.880198160670564371E-05, -0.9999999988091832215, 1.224646798782770786E-16 ) ) ;
#100 = ORIENTED_EDGE ( 'NONE', *, *, #150, .F. ) ;
#101 = ADVANCED_FACE ( 'NONE', ( #211 ), #56, .F. ) ;
#102 = VERTEX_POINT ( 'NONE', #54 ) ;
#103 = DIRECTION ( 'NONE',  ( -1.000000000000000000, -1.320659890041014917E-16, 2.988259529311655194E-21 ) ) ;
#104 = CARTESIAN_POINT ( 'NONE',  ( -65.45453021710362407, 5.278731388403204328, 0.000000000000000000 ) ) ;
#105 = AXIS2_PLACEMENT_3D ( 'NONE', #147, #320, #48 ) ;
#106 = EDGE_CURVE ( 'NONE', #305, #102, #328, .T. ) ;
#107 = CARTESIAN_POINT ( 'NONE',  ( -108.0548584104300716, 17.12873138439905674, 1.451333756903893088E-15 ) ) ;
#108 = DIRECTION ( 'NONE',  ( 0.9999999997022959164, 2.440099081145985212E-05, 0.000000000000000000 ) ) ;
#109 = PERSON_AND_ORGANIZATION_ROLE ( 'classification_officer' ) ;
#110 = AXIS2_PLACEMENT_3D ( 'NONE', #35, #256, #248 ) ;
#111 = LOCAL_TIME ( 8, 40, 4.000000000000000000, #350 ) ;
#112 = LINE ( 'NONE', #349, #219 ) ;
#113 = APPROVAL_ROLE ( '' ) ;
#114 = APPLICATION_CONTEXT ( 'configuration controlled 3d designs of mechanical parts and assemblies' ) ;
#115 = VECTOR ( 'NONE', #121, 1000.000000000000000 ) ;
#116 = LINE ( 'NONE', #378, #4 ) ;
#117 = CALENDAR_DATE ( 2024, 12, 8 ) ;
#118 = CARTESIAN_POINT ( 'NONE',  ( -65.45485841043004882, 17.12873138439906384, 0.000000000000000000 ) ) ;
#119 = CC_DESIGN_DATE_AND_TIME_ASSIGNMENT ( #207, #334, ( #232 ) ) ;
#120 = PERSON_AND_ORGANIZATION ( #46, #10 ) ;
#121 = DIRECTION ( 'NONE',  ( -5.752810608525976699E-16, 1.000000000000000000, 0.000000000000000000 ) ) ;
#122 = AXIS2_PLACEMENT_3D ( 'NONE', #139, #51, #227 ) ;
#123 = ADVANCED_FACE ( 'NONE', ( #293 ), #267, .T. ) ;
#124 = VECTOR ( 'NONE', #1, 1000.000000000000000 ) ;
#125 = ORIENTED_EDGE ( 'NONE', *, *, #365, .T. ) ;
#126 = CARTESIAN_POINT ( 'NONE',  ( -65.45420202377719932, -8.171268607592676148, 0.000000000000000000 ) ) ;
#127 = AXIS2_PLACEMENT_3D ( 'NONE', #70, #153, #192 ) ;
#128 = ORIENTED_EDGE ( 'NONE', *, *, #167, .T. ) ;
#129 = LOCAL_TIME ( 8, 40, 4.000000000000000000, #318 ) ;
#130 = CARTESIAN_POINT ( 'NONE',  ( -106.4542019749537474, -8.173269488838615260, 1.987050690936932156E-15 ) ) ;
#131 = EDGE_CURVE ( 'NONE', #276, #102, #289, .T. ) ;
#132 = VECTOR ( 'NONE', #233, 1000.000000000000114 ) ;
#133 = ORIENTED_EDGE ( 'NONE', *, *, #33, .T. ) ;
#134 = DIRECTION ( 'NONE',  ( 2.440099081176225982E-05, -0.9999999997022958054, 0.000000000000000000 ) ) ;
#135 = ORIENTED_EDGE ( 'NONE', *, *, #317, .F. ) ;
#136 = DIRECTION ( 'NONE',  ( -1.000000000000000000, -8.657015534117851185E-17, 2.988259529317226849E-21 ) ) ;
#137 = ORIENTED_EDGE ( 'NONE', *, *, #157, .T. ) ;
#138 = DIRECTION ( 'NONE',  ( -0.9999999997022959164, -2.440099081145985212E-05, -0.000000000000000000 ) ) ;
#139 = CARTESIAN_POINT ( 'NONE',  ( -108.0545692333245427, 5.277691905242292592, 0.000000000000000000 ) ) ;
#140 = DIRECTION ( 'NONE',  ( 0.000000000000000000, 0.000000000000000000, 1.000000000000000000 ) ) ;
#141 = FACE_OUTER_BOUND ( 'NONE', #335, .T. ) ;
#142 = VERTEX_POINT ( 'NONE', #88 ) ;
#143 = PERSON_AND_ORGANIZATION ( #46, #10 ) ;
#144 = CARTESIAN_POINT ( 'NONE',  ( -108.0542800562190138, -6.573347573914470665, 0.000000000000000000 ) ) ;
#145 = PRODUCT_DEFINITION ( 'UNKNOWN', '', #204, #205 ) ;
#146 = AXIS2_PLACEMENT_3D ( 'NONE', #389, #180, #302 ) ;
#147 = CARTESIAN_POINT ( 'NONE',  ( -106.4543947916046562, 5.277730951084153688, 0.000000000000000000 ) ) ;
#148 = APPROVAL_DATE_TIME ( #210, #73 ) ;
#149 = AXIS2_PLACEMENT_3D ( 'NONE', #104, #196, #134 ) ;
#150 = EDGE_CURVE ( 'NONE', #301, #142, #355, .T. ) ;
#151 = CC_DESIGN_PERSON_AND_ORGANIZATION_ASSIGNMENT ( #143, #386, ( #241 ) ) ;
#152 = ORIENTED_EDGE ( 'NONE', *, *, #78, .F. ) ;
#153 = DIRECTION ( 'NONE',  ( -0.9999999997022959164, -2.440099081145985212E-05, -0.000000000000000000 ) ) ;
#154 = APPROVAL_DATE_TIME ( #364, #358 ) ;
#155 = EDGE_LOOP ( 'NONE', ( #135, #37, #244, #252 ) ) ;
#156 = COORDINATED_UNIVERSAL_TIME_OFFSET ( 1, 0, .AHEAD. ) ;
#157 = EDGE_CURVE ( 'NONE', #98, #102, #268, .T. ) ;
#158 = CIRCLE ( 'NONE', #357, 11.85103948268486818 ) ;
#159 = ORIENTED_EDGE ( 'NONE', *, *, #17, .F. ) ;
#160 = APPROVAL_PERSON_ORGANIZATION ( #120, #57, #89 ) ;
#161 = FACE_OUTER_BOUND ( 'NONE', #230, .T. ) ;
#162 = EDGE_LOOP ( 'NONE', ( #216, #217, #137, #190 ) ) ;
#163 = CARTESIAN_POINT ( 'NONE',  ( -65.45485841043004882, 17.12873138439906384, 0.000000000000000000 ) ) ;
#164 = AXIS2_PLACEMENT_3D ( 'NONE', #325, #108, #286 ) ;
#165 = APPROVAL_STATUS ( 'not_yet_approved' ) ;
#166 = ORIENTED_EDGE ( 'NONE', *, *, #17, .T. ) ;
#167 = EDGE_CURVE ( 'NONE', #65, #276, #388, .T. ) ;
#168 = CARTESIAN_POINT ( 'NONE',  ( -65.45456925868890607, 5.278731387450552148, 0.000000000000000000 ) ) ;
#169 = DIRECTION ( 'NONE',  ( -0.9999999997022959164, -2.440099081145985212E-05, -0.000000000000000000 ) ) ;
#170 = DATE_TIME_ROLE ( 'creation_date' ) ;
#171 = UNCERTAINTY_MEASURE_WITH_UNIT (LENGTH_MEASURE( 1.000000000000000082E-05 ), #176, 'distance_accuracy_value', 'NONE');
#172 = DIRECTION ( 'NONE',  ( -0.9999999997022959164, -2.440099081145985212E-05, -0.000000000000000000 ) ) ;
#173 = CLOSED_SHELL ( 'NONE', ( #336, #101, #123, #177, #231, #373, #28, #60, #53, #92, #298, #7 ) ) ;
#174 =( NAMED_UNIT ( * ) PLANE_ANGLE_UNIT ( ) SI_UNIT ( $, .RADIAN. ) );
#175 = ORIENTED_EDGE ( 'NONE', *, *, #365, .F. ) ;
#176 =( LENGTH_UNIT ( ) NAMED_UNIT ( * ) SI_UNIT ( .MILLI., .METRE. ) );
#177 = ADVANCED_FACE ( 'NONE', ( #161 ), #295, .T. ) ;
#178 = LINE ( 'NONE', #144, #240 ) ;
#179 = DATE_AND_TIME ( #117, #31 ) ;
#180 = DIRECTION ( 'NONE',  ( -0.9999999997022959164, -2.440099081145985212E-05, -0.000000000000000000 ) ) ;
#181 = DIRECTION ( 'NONE',  ( 2.440099081202224811E-05, -0.9999999997022958054, 0.000000000000000000 ) ) ;
#182 = CARTESIAN_POINT ( 'NONE',  ( 0.000000000000000000, 0.000000000000000000, 0.000000000000000000 ) ) ;
#183 = CIRCLE ( 'NONE', #375, 13.45000000000000107 ) ;
#184 = CIRCLE ( 'NONE', #94, 13.45100044062326994 ) ;
#185 = AXIS2_PLACEMENT_3D ( 'NONE', #182, #140, #263 ) ;
#186 = AXIS2_PLACEMENT_3D ( 'NONE', #316, #376, #292 ) ;
#187 = PRODUCT_RELATED_PRODUCT_CATEGORY ( 'detail', '', ( #241 ) ) ;
#188 = EDGE_LOOP ( 'NONE', ( #223, #8, #247, #100 ) ) ;
#189 = AXIS2_PLACEMENT_3D ( 'NONE', #351, #353, #84 ) ;
#190 = ORIENTED_EDGE ( 'NONE', *, *, #78, .T. ) ;
#191 = EDGE_CURVE ( 'NONE', #200, #67, #226, .T. ) ;
#192 = DIRECTION ( 'NONE',  ( 2.440099081162757142E-05, -0.9999999997022958054, 0.000000000000000000 ) ) ;
#193 = ORIENTED_EDGE ( 'NONE', *, *, #191, .F. ) ;
#194 = FACE_OUTER_BOUND ( 'NONE', #41, .T. ) ;
#195 = ORIENTED_EDGE ( 'NONE', *, *, #317, .T. ) ;
#196 = DIRECTION ( 'NONE',  ( -0.9999999997022959164, -2.440099081145985212E-05, -0.000000000000000000 ) ) ;
#197 = ORIENTED_EDGE ( 'NONE', *, *, #258, .F. ) ;
#198 = DIRECTION ( 'NONE',  ( 2.440099081162757142E-05, -0.9999999997022958054, 0.000000000000000000 ) ) ;
#199 = VECTOR ( 'NONE', #99, 1000.000000000000114 ) ;
#200 = VERTEX_POINT ( 'NONE', #337 ) ;
#201 = DIRECTION ( 'NONE',  ( 2.440099081124635916E-05, -0.9999999997022959164, 0.000000000000000000 ) ) ;
#202 = CC_DESIGN_DATE_AND_TIME_ASSIGNMENT ( #179, #170, ( #145 ) ) ;
#203 = DIRECTION ( 'NONE',  ( 2.440099081131255309E-05, -0.9999999997022959164, 0.000000000000000000 ) ) ;
#204 = PRODUCT_DEFINITION_FORMATION_WITH_SPECIFIED_SOURCE ( 'ANY', '', #241, .NOT_KNOWN. ) ;
#205 = DESIGN_CONTEXT ( 'detailed design', #13, 'design' ) ;
#206 = DIRECTION ( 'NONE',  ( 2.440099081131255309E-05, -0.9999999997022959164, 0.000000000000000000 ) ) ;
#207 = DATE_AND_TIME ( #82, #111 ) ;
#208 = EDGE_CURVE ( 'NONE', #142, #67, #183, .T. ) ;
#209 = FACE_OUTER_BOUND ( 'NONE', #329, .T. ) ;
#210 = DATE_AND_TIME ( #294, #215 ) ;
#211 = FACE_OUTER_BOUND ( 'NONE', #16, .T. ) ;
#212 = PERSON_AND_ORGANIZATION ( #46, #10 ) ;
#213 = EDGE_CURVE ( 'NONE', #200, #301, #310, .T. ) ;
#214 = CIRCLE ( 'NONE', #149, 13.45000000000000107 ) ;
#215 = LOCAL_TIME ( 8, 40, 4.000000000000000000, #356 ) ;
#216 = ORIENTED_EDGE ( 'NONE', *, *, #33, .F. ) ;
#217 = ORIENTED_EDGE ( 'NONE', *, *, #300, .F. ) ;
#218 = CARTESIAN_POINT ( 'NONE',  ( -106.4548584104300488, 18.72873138439907947, 0.000000000000000000 ) ) ;
#219 = VECTOR ( 'NONE', #103, 1000.000000000000000 ) ;
#220 = ORIENTED_EDGE ( 'NONE', *, *, #237, .F. ) ;
#221 = ORIENTED_EDGE ( 'NONE', *, *, #326, .T. ) ;
#222 = CARTESIAN_POINT ( 'NONE',  ( -108.0543947906519975, 5.277691909498867240, 0.000000000000000000 ) ) ;
#223 = ORIENTED_EDGE ( 'NONE', *, *, #3, .T. ) ;
#224 = DIRECTION ( 'NONE',  ( -0.9999999988091832215, -4.880198160830457086E-05, 0.000000000000000000 ) ) ;
#225 = CARTESIAN_POINT ( 'NONE',  ( -65.45456925868890607, 5.278731387450552148, 0.000000000000000000 ) ) ;
#226 = LINE ( 'NONE', #285, #199 ) ;
#227 = DIRECTION ( 'NONE',  ( 2.440099081162757142E-05, -0.9999999997022958054, 0.000000000000000000 ) ) ;
#228 = PERSON_AND_ORGANIZATION ( #46, #10 ) ;
#229 = CONICAL_SURFACE ( 'NONE', #319, 13.45100044062326461, 1.570771925804085534 ) ;
#230 = EDGE_LOOP ( 'NONE', ( #175, #133, #5, #369 ) ) ;
#231 = ADVANCED_FACE ( 'NONE', ( #377 ), #80, .F. ) ;
#232 = SECURITY_CLASSIFICATION ( '', '', #290 ) ;
#233 = DIRECTION ( 'NONE',  ( 4.880198160781586673E-05, -0.9999999988091832215, 1.224646798782770786E-16 ) ) ;
#234 = COORDINATED_UNIVERSAL_TIME_OFFSET ( 1, 0, .AHEAD. ) ;
#235 = DIRECTION ( 'NONE',  ( -0.9999999988091832215, -4.880198161034602191E-05, 0.000000000000000000 ) ) ;
#236 = DIRECTION ( 'NONE',  ( 2.440099081162757142E-05, -0.9999999997022958054, 0.000000000000000000 ) ) ;
#237 = EDGE_CURVE ( 'NONE', #276, #65, #347, .T. ) ;
#238 = DIRECTION ( 'NONE',  ( -1.685504085477754210E-15, 1.000000000000000000, 0.000000000000000000 ) ) ;
#239 = APPROVAL_STATUS ( 'not_yet_approved' ) ;
#240 = VECTOR ( 'NONE', #345, 1000.000000000000114 ) ;
#241 = PRODUCT ( '3D_R-159_DN20_1780120', '3D_R-159_DN20_1780120', '', ( #85 ) ) ;
#242 = AXIS2_PLACEMENT_3D ( 'NONE', #49, #169, #86 ) ;
#243 = EDGE_CURVE ( 'NONE', #340, #313, #184, .T. ) ;
#244 = ORIENTED_EDGE ( 'NONE', *, *, #287, .T. ) ;
#245 = CARTESIAN_POINT ( 'NONE',  ( -106.4545301926918910, 5.277730947780232995, 0.000000000000000000 ) ) ;
#246 = VECTOR ( 'NONE', #136, 1000.000000000000000 ) ;
#247 = ORIENTED_EDGE ( 'NONE', *, *, #208, .F. ) ;
#248 = DIRECTION ( 'NONE',  ( 2.440099081132103019E-05, -0.9999999997022958054, 0.000000000000000000 ) ) ;
#249 = AXIS2_PLACEMENT_3D ( 'NONE', #45, #380, #181 ) ;
#250 = ORIENTED_EDGE ( 'NONE', *, *, #167, .F. ) ;
#251 = CARTESIAN_POINT ( 'NONE',  ( -65.45485841043004882, 18.72873138439908303, 1.647149944853190385E-15 ) ) ;
#252 = ORIENTED_EDGE ( 'NONE', *, *, #243, .F. ) ;
#253 = FACE_OUTER_BOUND ( 'NONE', #284, .T. ) ;
#254 = CC_DESIGN_PERSON_AND_ORGANIZATION_ASSIGNMENT ( #228, #321, ( #204 ) ) ;
#255 = ORIENTED_EDGE ( 'NONE', *, *, #326, .F. ) ;
#256 = DIRECTION ( 'NONE',  ( -0.9999999997022959164, -2.440099081145985212E-05, -0.000000000000000000 ) ) ;
#257 = ORIENTED_EDGE ( 'NONE', *, *, #272, .F. ) ;
#258 = EDGE_CURVE ( 'NONE', #67, #142, #214, .T. ) ;
#259 = CARTESIAN_POINT ( 'NONE',  ( -108.0539311708739376, -13.72234712643004251, 2.326833699595218617E-15 ) ) ;
#260 = APPROVAL_DATE_TIME ( #379, #57 ) ;
#261 = AXIS2_PLACEMENT_3D ( 'NONE', #341, #372, #72 ) ;
#262 = ORIENTED_EDGE ( 'NONE', *, *, #90, .T. ) ;
#263 = DIRECTION ( 'NONE',  ( 1.000000000000000000, 0.000000000000000000, 0.000000000000000000 ) ) ;
#264 = AXIS2_PLACEMENT_3D ( 'NONE', #168, #339, #332 ) ;
#265 = DIRECTION ( 'NONE',  ( -0.9999999997022959164, -2.440099081145985212E-05, -0.000000000000000000 ) ) ;
#266 = PERSON_AND_ORGANIZATION_ROLE ( 'creator' ) ;
#267 = CONICAL_SURFACE ( 'NONE', #105, 18.99999999999999645, 2.440099081583614610E-05 ) ;
#268 = LINE ( 'NONE', #382, #115 ) ;
#269 = PERSON_AND_ORGANIZATION_ROLE ( 'creator' ) ;
#270 = CC_DESIGN_PERSON_AND_ORGANIZATION_ASSIGNMENT ( #346, #266, ( #204 ) ) ;
#271 = AXIS2_PLACEMENT_3D ( 'NONE', #225, #387, #385 ) ;
#272 = EDGE_CURVE ( 'NONE', #313, #65, #68, .T. ) ;
#273 = AXIS2_PLACEMENT_3D ( 'NONE', #81, #172, #206 ) ;
#274 = ORIENTED_EDGE ( 'NONE', *, *, #308, .T. ) ;
#275 = CARTESIAN_POINT ( 'NONE',  ( -106.4545301926918910, 5.277730947780232995, 0.000000000000000000 ) ) ;
#276 = VERTEX_POINT ( 'NONE', #15 ) ;
#277 = CIRCLE ( 'NONE', #110, 13.45100044062326994 ) ;
#278 = CC_DESIGN_APPROVAL ( #73, ( #145 ) ) ;
#279 = EDGE_LOOP ( 'NONE', ( #193, #22, #14, #197 ) ) ;
#280 = LINE ( 'NONE', #218, #383 ) ;
#281 = ORIENTED_EDGE ( 'NONE', *, *, #3, .F. ) ;
#282 = DIRECTION ( 'NONE',  ( 2.440099081132103019E-05, -0.9999999997022958054, 0.000000000000000000 ) ) ;
#283 = CC_DESIGN_PERSON_AND_ORGANIZATION_ASSIGNMENT ( #381, #109, ( #232 ) ) ;
#284 = EDGE_LOOP ( 'NONE', ( #77, #195, #255, #303 ) ) ;
#285 = CARTESIAN_POINT ( 'NONE',  ( -65.45428010694777754, -6.571268609497959545, 1.451206457047944259E-15 ) ) ;
#286 = DIRECTION ( 'NONE',  ( -2.440099081132104036E-05, 0.9999999997022959164, 0.000000000000000000 ) ) ;
#287 = EDGE_CURVE ( 'NONE', #67, #313, #344, .T. ) ;
#288 = CC_DESIGN_SECURITY_CLASSIFICATION ( #232, ( #204 ) ) ;
#289 = LINE ( 'NONE', #20, #124 ) ;
#290 = SECURITY_CLASSIFICATION_LEVEL ( 'unclassified' ) ;
#291 = ORIENTED_EDGE ( 'NONE', *, *, #90, .F. ) ;
#292 = DIRECTION ( 'NONE',  ( 2.440099081176225982E-05, -0.9999999997022958054, 0.000000000000000000 ) ) ;
#293 = FACE_OUTER_BOUND ( 'NONE', #331, .T. ) ;
#294 = CALENDAR_DATE ( 2024, 12, 8 ) ;
#295 = CONICAL_SURFACE ( 'NONE', #343, 19.00003904158529977, 1.570771925804083313 ) ;
#296 = AXIS2_PLACEMENT_3D ( 'NONE', #312, #9, #198 ) ;
#297 = APPROVAL_PERSON_ORGANIZATION ( #212, #73, #113 ) ;
#298 = ADVANCED_FACE ( 'NONE', ( #194 ), #229, .F. ) ;
#299 = CIRCLE ( 'NONE', #249, 11.85000000047630841 ) ;
#300 = EDGE_CURVE ( 'NONE', #98, #366, #58, .T. ) ;
#301 = VERTEX_POINT ( 'NONE', #163 ) ;
#302 = DIRECTION ( 'NONE',  ( 2.440099081124635916E-05, -0.9999999997022959164, 0.000000000000000000 ) ) ;
#303 = ORIENTED_EDGE ( 'NONE', *, *, #287, .F. ) ;
#304 = LINE ( 'NONE', #251, #246 ) ;
#305 = VERTEX_POINT ( 'NONE', #96 ) ;
#306 = DIRECTION ( 'NONE',  ( -2.440099081132104036E-05, 0.9999999997022959164, 0.000000000000000000 ) ) ;
#307 = APPROVAL_ROLE ( '' ) ;
#308 = EDGE_CURVE ( 'NONE', #340, #276, #280, .T. ) ;
#309 = CC_DESIGN_APPROVAL ( #358, ( #232 ) ) ;
#310 = CIRCLE ( 'NONE', #264, 11.85000000047630841 ) ;
#311 = ORIENTED_EDGE ( 'NONE', *, *, #237, .T. ) ;
#312 = CARTESIAN_POINT ( 'NONE',  ( -108.0545692333245427, 5.277691905242292592, 0.000000000000000000 ) ) ;
#313 = VERTEX_POINT ( 'NONE', #130 ) ;
#314 = AXIS2_PLACEMENT_3D ( 'NONE', #26, #265, #203 ) ;
#315 = CARTESIAN_POINT ( 'NONE',  ( -106.4548584104300488, 18.72873138439908303, 0.000000000000000000 ) ) ;
#316 = CARTESIAN_POINT ( 'NONE',  ( -65.45453021710362407, 5.278731388403204328, 0.000000000000000000 ) ) ;
#317 = EDGE_CURVE ( 'NONE', #142, #340, #304, .T. ) ;
#318 = COORDINATED_UNIVERSAL_TIME_OFFSET ( 1, 0, .AHEAD. ) ;
#319 = AXIS2_PLACEMENT_3D ( 'NONE', #245, #362, #306 ) ;
#320 = DIRECTION ( 'NONE',  ( -0.9999999997022959164, -2.440099081145985212E-05, -0.000000000000000000 ) ) ;
#321 = PERSON_AND_ORGANIZATION_ROLE ( 'design_supplier' ) ;
#322 = CONICAL_SURFACE ( 'NONE', #271, 11.85000000047630486, 1.570771925804084423 ) ;
#323 = LINE ( 'NONE', #259, #132 ) ;
#324 = FACE_OUTER_BOUND ( 'NONE', #162, .T. ) ;
#325 = CARTESIAN_POINT ( 'NONE',  ( -106.4545301926918910, 5.277730947780232995, 0.000000000000000000 ) ) ;
#326 = EDGE_CURVE ( 'NONE', #313, #340, #277, .T. ) ;
#327 = APPROVAL_PERSON_ORGANIZATION ( #36, #358, #307 ) ;
#328 = CIRCLE ( 'NONE', #273, 19.00003904158529977 ) ;
#329 = EDGE_LOOP ( 'NONE', ( #159, #371, #95, #125 ) ) ;
#330 = CC_DESIGN_PERSON_AND_ORGANIZATION_ASSIGNMENT ( #52, #269, ( #145 ) ) ;
#331 = EDGE_LOOP ( 'NONE', ( #128, #93, #43, #291 ) ) ;
#332 = DIRECTION ( 'NONE',  ( 2.440099081202224811E-05, -0.9999999997022958054, 0.000000000000000000 ) ) ;
#333 = CIRCLE ( 'NONE', #314, 19.00003904158529977 ) ;
#334 = DATE_TIME_ROLE ( 'classification_date' ) ;
#335 = EDGE_LOOP ( 'NONE', ( #69, #311, #262, #152 ) ) ;
#336 = ADVANCED_FACE ( 'NONE', ( #253 ), #38, .T. ) ;
#337 = CARTESIAN_POINT ( 'NONE',  ( -65.45428010694777754, -6.571268609497959545, 1.549178200950567322E-15 ) ) ;
#338 = ORIENTED_EDGE ( 'NONE', *, *, #243, .T. ) ;
#339 = DIRECTION ( 'NONE',  ( -0.9999999997022959164, -2.440099081145985212E-05, -0.000000000000000000 ) ) ;
#340 = VERTEX_POINT ( 'NONE', #315 ) ;
#341 = CARTESIAN_POINT ( 'NONE',  ( -65.45453021710362407, 5.278731388403204328, 0.000000000000000000 ) ) ;
#342 = FACE_OUTER_BOUND ( 'NONE', #279, .T. ) ;
#343 = AXIS2_PLACEMENT_3D ( 'NONE', #222, #34, #44 ) ;
#344 = LINE ( 'NONE', #126, #40 ) ;
#345 = DIRECTION ( 'NONE',  ( -0.9999999988091832215, -4.880198160825907503E-05, 0.000000000000000000 ) ) ;
#346 = PERSON_AND_ORGANIZATION ( #46, #10 ) ;
#347 = CIRCLE ( 'NONE', #361, 19.00000000000000000 ) ;
#348 = CC_DESIGN_APPROVAL ( #57, ( #204 ) ) ;
#349 = CARTESIAN_POINT ( 'NONE',  ( -108.0548584104300716, 17.12873138439905674, 1.451333756903893088E-15 ) ) ;
#350 = COORDINATED_UNIVERSAL_TIME_OFFSET ( 1, 0, .AHEAD. ) ;
#351 = CARTESIAN_POINT ( 'NONE',  ( -108.0543947906519975, 5.277691909498867240, 0.000000000000000000 ) ) ;
#352 =( NAMED_UNIT ( * ) SI_UNIT ( $, .STERADIAN. ) SOLID_ANGLE_UNIT ( ) );
#353 = DIRECTION ( 'NONE',  ( 0.9999999997022959164, 2.440099081145985212E-05, 0.000000000000000000 ) ) ;
#354 = DIRECTION ( 'NONE',  ( -0.9999999997022959164, -2.440099081145985212E-05, -0.000000000000000000 ) ) ;
#355 = LINE ( 'NONE', #118, #74 ) ;
#356 = COORDINATED_UNIVERSAL_TIME_OFFSET ( 1, 0, .AHEAD. ) ;
#357 = AXIS2_PLACEMENT_3D ( 'NONE', #79, #354, #236 ) ;
#358 = APPROVAL ( #165, 'UNSPECIFIED' ) ;
#359 = ADVANCED_BREP_SHAPE_REPRESENTATION ( '3D_R-159_DN20_1780120', ( #55, #185 ), #384 ) ;
#360 = EDGE_LOOP ( 'NONE', ( #281, #166, #11, #32 ) ) ;
#361 = AXIS2_PLACEMENT_3D ( 'NONE', #370, #367, #201 ) ;
#362 = DIRECTION ( 'NONE',  ( 0.9999999997022959164, 2.440099081145985212E-05, 0.000000000000000000 ) ) ;
#363 = AXIS2_PLACEMENT_3D ( 'NONE', #87, #25, #50 ) ;
#364 = DATE_AND_TIME ( #374, #91 ) ;
#365 = EDGE_CURVE ( 'NONE', #366, #98, #158, .T. ) ;
#366 = VERTEX_POINT ( 'NONE', #21 ) ;
#367 = DIRECTION ( 'NONE',  ( -0.9999999997022959164, -2.440099081145985212E-05, -0.000000000000000000 ) ) ;
#368 = SHAPE_DEFINITION_REPRESENTATION ( #61, #359 ) ;
#369 = ORIENTED_EDGE ( 'NONE', *, *, #157, .F. ) ;
#370 = CARTESIAN_POINT ( 'NONE',  ( -106.4543947916046562, 5.277730951084153688, 0.000000000000000000 ) ) ;
#371 = ORIENTED_EDGE ( 'NONE', *, *, #213, .F. ) ;
#372 = DIRECTION ( 'NONE',  ( -0.9999999997022959164, -2.440099081145985212E-05, -0.000000000000000000 ) ) ;
#373 = ADVANCED_FACE ( 'NONE', ( #19 ), #59, .F. ) ;
#374 = CALENDAR_DATE ( 2024, 12, 8 ) ;
#375 = AXIS2_PLACEMENT_3D ( 'NONE', #12, #42, #76 ) ;
#376 = DIRECTION ( 'NONE',  ( -0.9999999997022959164, -2.440099081145985212E-05, -0.000000000000000000 ) ) ;
#377 = FACE_OUTER_BOUND ( 'NONE', #360, .T. ) ;
#378 = CARTESIAN_POINT ( 'NONE',  ( -106.4539311727792352, -13.72226904325946428, 0.000000000000000000 ) ) ;
#379 = DATE_AND_TIME ( #47, #129 ) ;
#380 = DIRECTION ( 'NONE',  ( -0.9999999997022959164, -2.440099081145985212E-05, -0.000000000000000000 ) ) ;
#381 = PERSON_AND_ORGANIZATION ( #46, #10 ) ;
#382 = CARTESIAN_POINT ( 'NONE',  ( -108.0548584104300716, 24.27773094542777343, 0.000000000000000000 ) ) ;
#383 = VECTOR ( 'NONE', #66, 1000.000000000000000 ) ;
#384 =( GEOMETRIC_REPRESENTATION_CONTEXT ( 3 ) GLOBAL_UNCERTAINTY_ASSIGNED_CONTEXT ( ( #171 ) ) GLOBAL_UNIT_ASSIGNED_CONTEXT ( ( #176, #174, #352 ) ) REPRESENTATION_CONTEXT ( 'NONE', 'WORKASPACE' ) );
#385 = DIRECTION ( 'NONE',  ( -2.440099081202225489E-05, 0.9999999997022958054, 0.000000000000000000 ) ) ;
#386 = PERSON_AND_ORGANIZATION_ROLE ( 'design_owner' ) ;
#387 = DIRECTION ( 'NONE',  ( 0.9999999997022959164, 2.440099081145985212E-05, 0.000000000000000000 ) ) ;
#388 = CIRCLE ( 'NONE', #146, 19.00000000000000000 ) ;
#389 = CARTESIAN_POINT ( 'NONE',  ( -106.4543947916046562, 5.277730951084153688, 0.000000000000000000 ) ) ;
ENDSEC;
END-ISO-10303-21;
