ISO-10303-21;
HEADER;
FILE_DESCRIPTION (( 'STEP AP203' ),
    '1' );
FILE_NAME ('3D_R169_ DN28-20_17323150.STEP',
    '2024-07-17T12:10:11',
    ( '' ),
    ( '' ),
    'SwSTEP 2.0',
    'SolidWorks 2024',
    '' );
FILE_SCHEMA (( 'CONFIG_CONTROL_DESIGN' ));
ENDSEC;

DATA;
#1 = CC_DESIGN_DATE_AND_TIME_ASSIGNMENT ( #232, #103, ( #95 ) ) ;
#2 = ORIENTED_EDGE ( 'NONE', *, *, #132, .T. ) ;
#3 = COORDINATED_UNIVERSAL_TIME_OFFSET ( 1, 0, .AHEAD. ) ;
#4 = LINE ( 'NONE', #122, #142 ) ;
#5 = FACE_OUTER_BOUND ( 'NONE', #36, .T. ) ;
#6 = DIRECTION ( 'NONE',  ( 0.000000000000000000, 0.000000000000000000, -1.000000000000000000 ) ) ;
#7 = CARTESIAN_POINT ( 'NONE',  ( 24.00000000000000000, 1.224646799147353256E-15, -10.00000000000000000 ) ) ;
#8 = DIRECTION ( 'NONE',  ( 0.000000000000000000, 0.000000000000000000, -1.000000000000000000 ) ) ;
#9 = LINE ( 'NONE', #54, #87 ) ;
#10 = CC_DESIGN_PERSON_AND_ORGANIZATION_ASSIGNMENT ( #190, #211, ( #152 ) ) ;
#11 = DIRECTION ( 'NONE',  ( 1.000000000000000000, 0.000000000000000000, 0.000000000000000000 ) ) ;
#12 = ORIENTED_EDGE ( 'NONE', *, *, #206, .F. ) ;
#13 = ORIENTED_EDGE ( 'NONE', *, *, #43, .F. ) ;
#14 = PERSON_AND_ORGANIZATION ( #68, #57 ) ;
#15 = ORIENTED_EDGE ( 'NONE', *, *, #99, .F. ) ;
#16 = PRODUCT_RELATED_PRODUCT_CATEGORY ( 'detail', '', ( #50 ) ) ;
#17 =( NAMED_UNIT ( * ) SI_UNIT ( $, .STERADIAN. ) SOLID_ANGLE_UNIT ( ) );
#18 = AXIS2_PLACEMENT_3D ( 'NONE', #62, #204, #113 ) ;
#19 = COORDINATED_UNIVERSAL_TIME_OFFSET ( 1, 0, .AHEAD. ) ;
#20 = EDGE_CURVE ( 'NONE', #187, #133, #4, .T. ) ;
#21 = CIRCLE ( 'NONE', #159, 10.00000000000000000 ) ;
#22 = DATE_AND_TIME ( #177, #119 ) ;
#23 = EDGE_CURVE ( 'NONE', #139, #207, #67, .T. ) ;
#24 = DIRECTION ( 'NONE',  ( 1.000000000000000000, 0.000000000000000000, 0.000000000000000000 ) ) ;
#25 = ORIENTED_EDGE ( 'NONE', *, *, #43, .T. ) ;
#26 = LOCAL_TIME ( 14, 10, 11.00000000000000000, #81 ) ;
#27 = ORIENTED_EDGE ( 'NONE', *, *, #90, .T. ) ;
#28 = CARTESIAN_POINT ( 'NONE',  ( 0.000000000000000000, 0.000000000000000000, 0.000000000000000000 ) ) ;
#29 = CARTESIAN_POINT ( 'NONE',  ( 24.00000000000000000, 6.123233995736766282E-16, 10.00000000000000000 ) ) ;
#30 = CC_DESIGN_PERSON_AND_ORGANIZATION_ASSIGNMENT ( #14, #96, ( #50 ) ) ;
#31 = DIRECTION ( 'NONE',  ( -0.9863939238321437486, 2.013306935865721687E-17, -0.1643989873053572914 ) ) ;
#32 = VECTOR ( 'NONE', #222, 1000.000000000000000 ) ;
#33 = CARTESIAN_POINT ( 'NONE',  ( 23.67120202538928808, 0.000000000000000000, 0.000000000000000000 ) ) ;
#34 = VERTEX_POINT ( 'NONE', #233 ) ;
#35 = AXIS2_PLACEMENT_3D ( 'NONE', #93, #238, #224 ) ;
#36 = EDGE_LOOP ( 'NONE', ( #167, #117, #179, #15 ) ) ;
#37 = APPLICATION_PROTOCOL_DEFINITION ( 'international standard', 'config_control_design', 1994, #104 ) ;
#38 = DATE_AND_TIME ( #124, #66 ) ;
#39 = APPROVAL_PERSON_ORGANIZATION ( #69, #246, #121 ) ;
#40 = EDGE_LOOP ( 'NONE', ( #63, #27, #13, #161 ) ) ;
#41 = CC_DESIGN_PERSON_AND_ORGANIZATION_ASSIGNMENT ( #176, #194, ( #198 ) ) ;
#42 = AXIS2_PLACEMENT_3D ( 'NONE', #235, #72, #105 ) ;
#43 = EDGE_CURVE ( 'NONE', #133, #34, #125, .T. ) ;
#44 = DESIGN_CONTEXT ( 'detailed design', #128, 'design' ) ;
#45 = AXIS2_PLACEMENT_3D ( 'NONE', #154, #141, #219 ) ;
#46 = ORIENTED_EDGE ( 'NONE', *, *, #99, .T. ) ;
#47 = DIRECTION ( 'NONE',  ( -0.9863939238321437486, 0.000000000000000000, 0.1643989873053572914 ) ) ;
#48 = EDGE_LOOP ( 'NONE', ( #114, #59 ) ) ;
#49 = DIRECTION ( 'NONE',  ( 1.000000000000000000, 0.000000000000000000, 0.000000000000000000 ) ) ;
#50 = PRODUCT ( '3D_R169_ DN28-20_17323150', '3D_R169_ DN28-20_17323150', '', ( #64 ) ) ;
#51 = CC_DESIGN_PERSON_AND_ORGANIZATION_ASSIGNMENT ( #135, #245, ( #152 ) ) ;
#52 = VERTEX_POINT ( 'NONE', #178 ) ;
#53 = DIRECTION ( 'NONE',  ( 1.000000000000000000, 0.000000000000000000, 0.000000000000000000 ) ) ;
#54 = CARTESIAN_POINT ( 'NONE',  ( 23.67120202538928808, 9.830499668434666417E-16, -8.027212152335712503 ) ) ;
#55 = ADVANCED_FACE ( 'NONE', ( #5 ), #175, .F. ) ;
#56 = DIRECTION ( 'NONE',  ( 1.000000000000000000, 0.000000000000000000, 0.000000000000000000 ) ) ;
#57 = ORGANIZATION ( 'UNSPECIFIED', 'UNSPECIFIED', '' ) ;
#58 = AXIS2_PLACEMENT_3D ( 'NONE', #201, #11, #75 ) ;
#59 = ORIENTED_EDGE ( 'NONE', *, *, #180, .T. ) ;
#60 = CIRCLE ( 'NONE', #89, 11.97241248990059326 ) ;
#61 = ORIENTED_EDGE ( 'NONE', *, *, #171, .F. ) ;
#62 = CARTESIAN_POINT ( 'NONE',  ( 0.000000000000000000, 0.000000000000000000, 0.000000000000000000 ) ) ;
#63 = ORIENTED_EDGE ( 'NONE', *, *, #85, .T. ) ;
#64 = MECHANICAL_CONTEXT ( 'NONE', #104, 'mechanical' ) ;
#65 = ADVANCED_FACE ( 'NONE', ( #155 ), #150, .T. ) ;
#66 = LOCAL_TIME ( 14, 10, 11.00000000000000000, #3 ) ;
#67 = CIRCLE ( 'NONE', #228, 14.00000000000000000 ) ;
#68 = PERSON ( 'UNSPECIFIED', 'UNSPECIFIED', 'UNSPECIFIED', ('UNSPECIFIED'), ('UNSPECIFIED'), ('UNSPECIFIED') ) ;
#69 = PERSON_AND_ORGANIZATION ( #68, #57 ) ;
#70 = CARTESIAN_POINT ( 'NONE',  ( 0.000000000000000000, 0.000000000000000000, 0.000000000000000000 ) ) ;
#71 = AXIS2_PLACEMENT_3D ( 'NONE', #186, #166, #110 ) ;
#72 = DIRECTION ( 'NONE',  ( 1.000000000000000000, 0.000000000000000000, 0.000000000000000000 ) ) ;
#73 = AXIS2_PLACEMENT_3D ( 'NONE', #86, #192, #248 ) ;
#74 = CARTESIAN_POINT ( 'NONE',  ( 24.00000000000000000, 0.000000000000000000, 0.000000000000000000 ) ) ;
#75 = DIRECTION ( 'NONE',  ( 0.000000000000000000, 0.000000000000000000, -1.000000000000000000 ) ) ;
#76 = VERTEX_POINT ( 'NONE', #29 ) ;
#77 = AXIS2_PLACEMENT_3D ( 'NONE', #70, #212, #126 ) ;
#78 = ORIENTED_EDGE ( 'NONE', *, *, #112, .F. ) ;
#79 = CC_DESIGN_APPROVAL ( #246, ( #198 ) ) ;
#80 = APPLICATION_PROTOCOL_DEFINITION ( 'international standard', 'config_control_design', 1994, #128 ) ;
#81 = COORDINATED_UNIVERSAL_TIME_OFFSET ( 1, 0, .AHEAD. ) ;
#82 = APPROVAL ( #188, 'UNSPECIFIED' ) ;
#83 = CIRCLE ( 'NONE', #209, 14.00000000000000000 ) ;
#84 = CALENDAR_DATE ( 2024, 17, 7 ) ;
#85 = EDGE_CURVE ( 'NONE', #187, #146, #120, .T. ) ;
#86 = CARTESIAN_POINT ( 'NONE',  ( 23.67120202538928808, 0.000000000000000000, 0.000000000000000000 ) ) ;
#87 = VECTOR ( 'NONE', #31, 1000.000000000000000 ) ;
#88 = FACE_OUTER_BOUND ( 'NONE', #48, .T. ) ;
#89 = AXIS2_PLACEMENT_3D ( 'NONE', #199, #49, #217 ) ;
#90 = EDGE_CURVE ( 'NONE', #146, #34, #9, .T. ) ;
#91 = FACE_OUTER_BOUND ( 'NONE', #242, .T. ) ;
#92 = CLOSED_SHELL ( 'NONE', ( #218, #65, #138, #184, #197, #55 ) ) ;
#93 = CARTESIAN_POINT ( 'NONE',  ( 24.00000000000000000, 0.000000000000000000, 0.000000000000000000 ) ) ;
#94 = CARTESIAN_POINT ( 'NONE',  ( 0.000000000000000000, 0.000000000000000000, 11.97241248990059326 ) ) ;
#95 = PRODUCT_DEFINITION ( 'UNKNOWN', '', #152, #44 ) ;
#96 = PERSON_AND_ORGANIZATION_ROLE ( 'design_owner' ) ;
#97 = ORIENTED_EDGE ( 'NONE', *, *, #180, .F. ) ;
#98 = APPROVAL_ROLE ( '' ) ;
#99 = EDGE_CURVE ( 'NONE', #34, #133, #60, .T. ) ;
#100 = CALENDAR_DATE ( 2024, 17, 7 ) ;
#101 = CIRCLE ( 'NONE', #42, 10.00000000000000000 ) ;
#102 = COORDINATED_UNIVERSAL_TIME_OFFSET ( 1, 0, .AHEAD. ) ;
#103 = DATE_TIME_ROLE ( 'creation_date' ) ;
#104 = APPLICATION_CONTEXT ( 'configuration controlled 3d designs of mechanical parts and assemblies' ) ;
#105 = DIRECTION ( 'NONE',  ( 0.000000000000000000, 0.000000000000000000, -1.000000000000000000 ) ) ;
#106 = ORIENTED_EDGE ( 'NONE', *, *, #85, .F. ) ;
#107 = DIRECTION ( 'NONE',  ( 0.000000000000000000, 0.000000000000000000, -1.000000000000000000 ) ) ;
#108 = ADVANCED_BREP_SHAPE_REPRESENTATION ( '3D_R169_ DN28-20_17323150', ( #158, #18 ), #226 ) ;
#109 = DIRECTION ( 'NONE',  ( 1.000000000000000000, 0.000000000000000000, 0.000000000000000000 ) ) ;
#110 = DIRECTION ( 'NONE',  ( 0.000000000000000000, 0.000000000000000000, -1.000000000000000000 ) ) ;
#111 = PLANE ( 'NONE',  #71 ) ;
#112 = EDGE_CURVE ( 'NONE', #207, #139, #83, .T. ) ;
#113 = DIRECTION ( 'NONE',  ( 1.000000000000000000, 0.000000000000000000, 0.000000000000000000 ) ) ;
#114 = ORIENTED_EDGE ( 'NONE', *, *, #174, .T. ) ;
#115 = AXIS2_PLACEMENT_3D ( 'NONE', #143, #220, #185 ) ;
#116 = CARTESIAN_POINT ( 'NONE',  ( 0.000000000000000000, 2.571758278209441267E-15, -14.00000000000000000 ) ) ;
#117 = ORIENTED_EDGE ( 'NONE', *, *, #206, .T. ) ;
#118 = DIRECTION ( 'NONE',  ( -1.000000000000000000, -0.000000000000000000, -0.000000000000000000 ) ) ;
#119 = LOCAL_TIME ( 14, 10, 11.00000000000000000, #19 ) ;
#120 = CIRCLE ( 'NONE', #58, 7.972412489900592369 ) ;
#121 = APPROVAL_ROLE ( '' ) ;
#122 = CARTESIAN_POINT ( 'NONE',  ( 23.67120202538928808, 0.000000000000000000, 8.027212152335712503 ) ) ;
#123 = PERSON_AND_ORGANIZATION ( #68, #57 ) ;
#124 = CALENDAR_DATE ( 2024, 17, 7 ) ;
#125 = CIRCLE ( 'NONE', #77, 11.97241248990059326 ) ;
#126 = DIRECTION ( 'NONE',  ( 0.000000000000000000, 0.000000000000000000, -1.000000000000000000 ) ) ;
#127 = LOCAL_TIME ( 14, 10, 11.00000000000000000, #195 ) ;
#128 = APPLICATION_CONTEXT ( 'configuration controlled 3d designs of mechanical parts and assemblies' ) ;
#129 = CARTESIAN_POINT ( 'NONE',  ( 24.00000000000000000, 0.000000000000000000, 10.00000000000000000 ) ) ;
#130 = CARTESIAN_POINT ( 'NONE',  ( 0.000000000000000000, 0.000000000000000000, 0.000000000000000000 ) ) ;
#131 = LINE ( 'NONE', #129, #32 ) ;
#132 = EDGE_CURVE ( 'NONE', #76, #139, #131, .T. ) ;
#133 = VERTEX_POINT ( 'NONE', #94 ) ;
#134 = ORIENTED_EDGE ( 'NONE', *, *, #174, .F. ) ;
#135 = PERSON_AND_ORGANIZATION ( #68, #57 ) ;
#136 = APPROVAL_STATUS ( 'not_yet_approved' ) ;
#137 = SECURITY_CLASSIFICATION_LEVEL ( 'unclassified' ) ;
#138 = ADVANCED_FACE ( 'NONE', ( #164, #88 ), #111, .T. ) ;
#139 = VERTEX_POINT ( 'NONE', #214 ) ;
#140 = DIRECTION ( 'NONE',  ( -0.9863939238321437486, 2.013306935865721687E-17, -0.1643989873053572914 ) ) ;
#141 = DIRECTION ( 'NONE',  ( -1.000000000000000000, -0.000000000000000000, -0.000000000000000000 ) ) ;
#142 = VECTOR ( 'NONE', #47, 1000.000000000000000 ) ;
#143 = CARTESIAN_POINT ( 'NONE',  ( 24.00000000000000000, 0.000000000000000000, 0.000000000000000000 ) ) ;
#144 = APPROVAL ( #136, 'UNSPECIFIED' ) ;
#145 = EDGE_LOOP ( 'NONE', ( #61, #134, #2, #210 ) ) ;
#146 = VERTEX_POINT ( 'NONE', #182 ) ;
#147 = CONICAL_SURFACE ( 'NONE', #115, 10.00000000000000000, 0.1651486774146267988 ) ;
#148 = PERSON_AND_ORGANIZATION ( #68, #57 ) ;
#149 = ORIENTED_EDGE ( 'NONE', *, *, #132, .F. ) ;
#150 = CONICAL_SURFACE ( 'NONE', #45, 10.00000000000000000, 0.1651486774146267988 ) ;
#151 = APPROVAL_STATUS ( 'not_yet_approved' ) ;
#152 = PRODUCT_DEFINITION_FORMATION_WITH_SPECIFIED_SOURCE ( 'ANY', '', #50, .NOT_KNOWN. ) ;
#153 = PERSON_AND_ORGANIZATION_ROLE ( 'creator' ) ;
#154 = CARTESIAN_POINT ( 'NONE',  ( 24.00000000000000000, 0.000000000000000000, 0.000000000000000000 ) ) ;
#155 = FACE_OUTER_BOUND ( 'NONE', #236, .T. ) ;
#156 = APPROVAL_DATE_TIME ( #229, #246 ) ;
#157 = DIRECTION ( 'NONE',  ( 0.000000000000000000, 0.000000000000000000, -1.000000000000000000 ) ) ;
#158 = MANIFOLD_SOLID_BREP ( 'Wandung2', #92 ) ;
#159 = AXIS2_PLACEMENT_3D ( 'NONE', #74, #53, #6 ) ;
#160 = FACE_BOUND ( 'NONE', #223, .T. ) ;
#161 = ORIENTED_EDGE ( 'NONE', *, *, #20, .F. ) ;
#162 = AXIS2_PLACEMENT_3D ( 'NONE', #33, #118, #243 ) ;
#163 = CARTESIAN_POINT ( 'NONE',  ( 24.00000000000000000, 0.000000000000000000, 7.972412489900592369 ) ) ;
#164 = FACE_BOUND ( 'NONE', #213, .T. ) ;
#165 = CC_DESIGN_APPROVAL ( #82, ( #95 ) ) ;
#166 = DIRECTION ( 'NONE',  ( 1.000000000000000000, 0.000000000000000000, 0.000000000000000000 ) ) ;
#167 = ORIENTED_EDGE ( 'NONE', *, *, #90, .F. ) ;
#168 = FACE_OUTER_BOUND ( 'NONE', #40, .T. ) ;
#169 = CALENDAR_DATE ( 2024, 17, 7 ) ;
#170 = APPROVAL_DATE_TIME ( #38, #144 ) ;
#171 = EDGE_CURVE ( 'NONE', #52, #207, #183, .T. ) ;
#172 = PERSON_AND_ORGANIZATION ( #68, #57 ) ;
#173 = DATE_TIME_ROLE ( 'classification_date' ) ;
#174 = EDGE_CURVE ( 'NONE', #76, #52, #101, .T. ) ;
#175 = CONICAL_SURFACE ( 'NONE', #73, 8.027212152335712503, 0.1651486774146267988 ) ;
#176 = PERSON_AND_ORGANIZATION ( #68, #57 ) ;
#177 = CALENDAR_DATE ( 2024, 17, 7 ) ;
#178 = CARTESIAN_POINT ( 'NONE',  ( 24.00000000000000000, 6.123233995736766282E-16, -10.00000000000000000 ) ) ;
#179 = ORIENTED_EDGE ( 'NONE', *, *, #20, .T. ) ;
#180 = EDGE_CURVE ( 'NONE', #52, #76, #21, .T. ) ;
#181 = LOCAL_TIME ( 14, 10, 11.00000000000000000, #102 ) ;
#182 = CARTESIAN_POINT ( 'NONE',  ( 24.00000000000000000, 1.221268303553384833E-15, -7.972412489900592369 ) ) ;
#183 = LINE ( 'NONE', #7, #203 ) ;
#184 = ADVANCED_FACE ( 'NONE', ( #160, #91 ), #200, .F. ) ;
#185 = DIRECTION ( 'NONE',  ( 0.000000000000000000, 0.000000000000000000, 1.000000000000000000 ) ) ;
#186 = CARTESIAN_POINT ( 'NONE',  ( 24.00000000000000000, 0.000000000000000000, 0.000000000000000000 ) ) ;
#187 = VERTEX_POINT ( 'NONE', #163 ) ;
#188 = APPROVAL_STATUS ( 'not_yet_approved' ) ;
#189 = CC_DESIGN_PERSON_AND_ORGANIZATION_ASSIGNMENT ( #123, #153, ( #95 ) ) ;
#190 = PERSON_AND_ORGANIZATION ( #68, #57 ) ;
#191 = SHAPE_DEFINITION_REPRESENTATION ( #216, #108 ) ;
#192 = DIRECTION ( 'NONE',  ( -1.000000000000000000, -0.000000000000000000, -0.000000000000000000 ) ) ;
#193 = AXIS2_PLACEMENT_3D ( 'NONE', #28, #109, #8 ) ;
#194 = PERSON_AND_ORGANIZATION_ROLE ( 'classification_officer' ) ;
#195 = COORDINATED_UNIVERSAL_TIME_OFFSET ( 1, 0, .AHEAD. ) ;
#196 = CARTESIAN_POINT ( 'NONE',  ( 0.000000000000000000, 0.000000000000000000, 0.000000000000000000 ) ) ;
#197 = ADVANCED_FACE ( 'NONE', ( #237 ), #147, .T. ) ;
#198 = SECURITY_CLASSIFICATION ( '', '', #137 ) ;
#199 = CARTESIAN_POINT ( 'NONE',  ( 0.000000000000000000, 0.000000000000000000, 0.000000000000000000 ) ) ;
#200 = PLANE ( 'NONE',  #193 ) ;
#201 = CARTESIAN_POINT ( 'NONE',  ( 24.00000000000000000, 0.000000000000000000, 0.000000000000000000 ) ) ;
#202 = ORIENTED_EDGE ( 'NONE', *, *, #112, .T. ) ;
#203 = VECTOR ( 'NONE', #140, 1000.000000000000000 ) ;
#204 = DIRECTION ( 'NONE',  ( 0.000000000000000000, 0.000000000000000000, 1.000000000000000000 ) ) ;
#205 = ORIENTED_EDGE ( 'NONE', *, *, #23, .F. ) ;
#206 = EDGE_CURVE ( 'NONE', #146, #187, #247, .T. ) ;
#207 = VERTEX_POINT ( 'NONE', #116 ) ;
#208 = CC_DESIGN_SECURITY_CLASSIFICATION ( #198, ( #152 ) ) ;
#209 = AXIS2_PLACEMENT_3D ( 'NONE', #130, #56, #107 ) ;
#210 = ORIENTED_EDGE ( 'NONE', *, *, #23, .T. ) ;
#211 = PERSON_AND_ORGANIZATION_ROLE ( 'creator' ) ;
#212 = DIRECTION ( 'NONE',  ( 1.000000000000000000, 0.000000000000000000, 0.000000000000000000 ) ) ;
#213 = EDGE_LOOP ( 'NONE', ( #106, #12 ) ) ;
#214 = CARTESIAN_POINT ( 'NONE',  ( 0.000000000000000000, -8.572527594031473190E-16, 14.00000000000000000 ) ) ;
#215 = APPROVAL_PERSON_ORGANIZATION ( #172, #144, #231 ) ;
#216 = PRODUCT_DEFINITION_SHAPE ( 'NONE', 'NONE',  #95 ) ;
#217 = DIRECTION ( 'NONE',  ( 0.000000000000000000, 0.000000000000000000, -1.000000000000000000 ) ) ;
#218 = ADVANCED_FACE ( 'NONE', ( #168 ), #244, .F. ) ;
#219 = DIRECTION ( 'NONE',  ( 0.000000000000000000, 0.000000000000000000, 1.000000000000000000 ) ) ;
#220 = DIRECTION ( 'NONE',  ( -1.000000000000000000, -0.000000000000000000, -0.000000000000000000 ) ) ;
#221 = CC_DESIGN_APPROVAL ( #144, ( #152 ) ) ;
#222 = DIRECTION ( 'NONE',  ( -0.9863939238321437486, 0.000000000000000000, 0.1643989873053572914 ) ) ;
#223 = EDGE_LOOP ( 'NONE', ( #25, #46 ) ) ;
#224 = DIRECTION ( 'NONE',  ( 0.000000000000000000, 0.000000000000000000, -1.000000000000000000 ) ) ;
#225 = ORIENTED_EDGE ( 'NONE', *, *, #171, .T. ) ;
#226 =( GEOMETRIC_REPRESENTATION_CONTEXT ( 3 ) GLOBAL_UNCERTAINTY_ASSIGNED_CONTEXT ( ( #234 ) ) GLOBAL_UNIT_ASSIGNED_CONTEXT ( ( #241, #239, #17 ) ) REPRESENTATION_CONTEXT ( 'NONE', 'WORKASPACE' ) );
#227 = DATE_AND_TIME ( #169, #26 ) ;
#228 = AXIS2_PLACEMENT_3D ( 'NONE', #196, #24, #157 ) ;
#229 = DATE_AND_TIME ( #84, #181 ) ;
#230 = APPROVAL_PERSON_ORGANIZATION ( #148, #82, #98 ) ;
#231 = APPROVAL_ROLE ( '' ) ;
#232 = DATE_AND_TIME ( #100, #127 ) ;
#233 = CARTESIAN_POINT ( 'NONE',  ( 0.000000000000000000, 1.466197663382855721E-15, -11.97241248990059326 ) ) ;
#234 = UNCERTAINTY_MEASURE_WITH_UNIT (LENGTH_MEASURE( 1.000000000000000082E-05 ), #241, 'distance_accuracy_value', 'NONE');
#235 = CARTESIAN_POINT ( 'NONE',  ( 24.00000000000000000, 0.000000000000000000, 0.000000000000000000 ) ) ;
#236 = EDGE_LOOP ( 'NONE', ( #97, #225, #202, #149 ) ) ;
#237 = FACE_OUTER_BOUND ( 'NONE', #145, .T. ) ;
#238 = DIRECTION ( 'NONE',  ( 1.000000000000000000, 0.000000000000000000, 0.000000000000000000 ) ) ;
#239 =( NAMED_UNIT ( * ) PLANE_ANGLE_UNIT ( ) SI_UNIT ( $, .RADIAN. ) );
#240 = CC_DESIGN_DATE_AND_TIME_ASSIGNMENT ( #22, #173, ( #198 ) ) ;
#241 =( LENGTH_UNIT ( ) NAMED_UNIT ( * ) SI_UNIT ( .MILLI., .METRE. ) );
#242 = EDGE_LOOP ( 'NONE', ( #205, #78 ) ) ;
#243 = DIRECTION ( 'NONE',  ( 0.000000000000000000, 0.000000000000000000, 1.000000000000000000 ) ) ;
#244 = CONICAL_SURFACE ( 'NONE', #162, 8.027212152335712503, 0.1651486774146267988 ) ;
#245 = PERSON_AND_ORGANIZATION_ROLE ( 'design_supplier' ) ;
#246 = APPROVAL ( #151, 'UNSPECIFIED' ) ;
#247 = CIRCLE ( 'NONE', #35, 7.972412489900592369 ) ;
#248 = DIRECTION ( 'NONE',  ( 0.000000000000000000, 0.000000000000000000, 1.000000000000000000 ) ) ;
#249 = APPROVAL_DATE_TIME ( #227, #82 ) ;
ENDSEC;
END-ISO-10303-21;
