ISO-10303-21;
HEADER;
FILE_DESCRIPTION (( 'STEP AP203' ),
    '1' );
FILE_NAME ('3D_R169_ DN44-25_17323195.STEP',
    '2024-07-17T12:15:09',
    ( '' ),
    ( '' ),
    'SwSTEP 2.0',
    'SolidWorks 2024',
    '' );
FILE_SCHEMA (( 'CONFIG_CONTROL_DESIGN' ));
ENDSEC;

DATA;
#1 = CC_DESIGN_PERSON_AND_ORGANIZATION_ASSIGNMENT ( #139, #157, ( #29 ) ) ;
#2 = VECTOR ( 'NONE', #163, 1000.000000000000000 ) ;
#3 = PERSON_AND_ORGANIZATION ( #177, #233 ) ;
#4 = DATE_TIME_ROLE ( 'creation_date' ) ;
#5 = EDGE_LOOP ( 'NONE', ( #49, #31 ) ) ;
#6 = CIRCLE ( 'NONE', #225, 19.97241248990058793 ) ;
#7 = DIRECTION ( 'NONE',  ( 1.000000000000000000, 0.000000000000000000, 0.000000000000000000 ) ) ;
#8 = PRODUCT_DEFINITION_SHAPE ( 'NONE', 'NONE',  #33 ) ;
#9 = EDGE_LOOP ( 'NONE', ( #86, #206 ) ) ;
#10 = DIRECTION ( 'NONE',  ( -1.000000000000000000, -0.000000000000000000, -0.000000000000000000 ) ) ;
#11 = EDGE_CURVE ( 'NONE', #109, #183, #191, .T. ) ;
#12 = CARTESIAN_POINT ( 'NONE',  ( 57.00000000000000000, 1.864207873105744953E-15, -10.47241248990059326 ) ) ;
#13 = CARTESIAN_POINT ( 'NONE',  ( 56.67120202538928453, 0.000000000000000000, 0.000000000000000000 ) ) ;
#14 = AXIS2_PLACEMENT_3D ( 'NONE', #231, #60, #190 ) ;
#15 = ORIENTED_EDGE ( 'NONE', *, *, #223, .F. ) ;
#16 = CARTESIAN_POINT ( 'NONE',  ( 56.67120202538928453, 0.000000000000000000, 0.000000000000000000 ) ) ;
#17 = LOCAL_TIME ( 14, 15, 9.000000000000000000, #155 ) ;
#18 = ORIENTED_EDGE ( 'NONE', *, *, #11, .F. ) ;
#19 = APPROVAL ( #96, 'UNSPECIFIED' ) ;
#20 = CONICAL_SURFACE ( 'NONE', #156, 12.50000000000000000, 0.1651486774146267711 ) ;
#21 = UNCERTAINTY_MEASURE_WITH_UNIT (LENGTH_MEASURE( 1.000000000000000082E-05 ), #222, 'distance_accuracy_value', 'NONE');
#22 = APPROVAL_ROLE ( '' ) ;
#23 = APPROVAL_PERSON_ORGANIZATION ( #175, #176, #22 ) ;
#24 = EDGE_CURVE ( 'NONE', #124, #205, #164, .T. ) ;
#25 = MANIFOLD_SOLID_BREP ( 'Wandung2', #47 ) ;
#26 = DATE_AND_TIME ( #64, #221 ) ;
#27 = CALENDAR_DATE ( 2024, 17, 7 ) ;
#28 = CIRCLE ( 'NONE', #118, 12.50000000000000000 ) ;
#29 = PRODUCT_DEFINITION_FORMATION_WITH_SPECIFIED_SOURCE ( 'ANY', '', #224, .NOT_KNOWN. ) ;
#30 = ORIENTED_EDGE ( 'NONE', *, *, #24, .T. ) ;
#31 = ORIENTED_EDGE ( 'NONE', *, *, #69, .T. ) ;
#32 = CONICAL_SURFACE ( 'NONE', #63, 12.50000000000000000, 0.1651486774146267711 ) ;
#33 = PRODUCT_DEFINITION ( 'UNKNOWN', '', #29, #174 ) ;
#34 = CARTESIAN_POINT ( 'NONE',  ( 0.000000000000000000, 0.000000000000000000, 0.000000000000000000 ) ) ;
#35 = CARTESIAN_POINT ( 'NONE',  ( 0.000000000000000000, 4.041334437186265411E-15, -22.00000000000000000 ) ) ;
#36 = CARTESIAN_POINT ( 'NONE',  ( 57.00000000000000000, 0.000000000000000000, 0.000000000000000000 ) ) ;
#37 = PLANE ( 'NONE',  #197 ) ;
#38 = EDGE_LOOP ( 'NONE', ( #244, #240, #159, #144 ) ) ;
#39 = DIRECTION ( 'NONE',  ( 1.000000000000000000, 0.000000000000000000, 0.000000000000000000 ) ) ;
#40 = AXIS2_PLACEMENT_3D ( 'NONE', #102, #182, #7 ) ;
#41 = ORIENTED_EDGE ( 'NONE', *, *, #11, .T. ) ;
#42 = CC_DESIGN_PERSON_AND_ORGANIZATION_ASSIGNMENT ( #3, #115, ( #154 ) ) ;
#43 = PERSON_AND_ORGANIZATION_ROLE ( 'design_owner' ) ;
#44 = AXIS2_PLACEMENT_3D ( 'NONE', #242, #106, #148 ) ;
#45 = DATE_TIME_ROLE ( 'classification_date' ) ;
#46 = CALENDAR_DATE ( 2024, 17, 7 ) ;
#47 = CLOSED_SHELL ( 'NONE', ( #111, #184, #83, #200, #169, #152 ) ) ;
#48 = DIRECTION ( 'NONE',  ( 1.000000000000000000, 0.000000000000000000, 0.000000000000000000 ) ) ;
#49 = ORIENTED_EDGE ( 'NONE', *, *, #138, .T. ) ;
#50 = APPROVAL_PERSON_ORGANIZATION ( #218, #19, #71 ) ;
#51 = EDGE_LOOP ( 'NONE', ( #192, #41, #181, #133 ) ) ;
#52 = APPROVAL ( #158, 'UNSPECIFIED' ) ;
#53 = AXIS2_PLACEMENT_3D ( 'NONE', #143, #48, #85 ) ;
#54 = FACE_OUTER_BOUND ( 'NONE', #142, .T. ) ;
#55 = DIRECTION ( 'NONE',  ( 0.000000000000000000, 0.000000000000000000, -1.000000000000000000 ) ) ;
#56 = LINE ( 'NONE', #88, #2 ) ;
#57 = CARTESIAN_POINT ( 'NONE',  ( 57.00000000000000000, 0.000000000000000000, 0.000000000000000000 ) ) ;
#58 = DIRECTION ( 'NONE',  ( 0.000000000000000000, 0.000000000000000000, -1.000000000000000000 ) ) ;
#59 = CARTESIAN_POINT ( 'NONE',  ( 57.00000000000000000, 0.000000000000000000, 0.000000000000000000 ) ) ;
#60 = DIRECTION ( 'NONE',  ( 1.000000000000000000, 0.000000000000000000, 0.000000000000000000 ) ) ;
#61 = MECHANICAL_CONTEXT ( 'NONE', #248, 'mechanical' ) ;
#62 = EDGE_CURVE ( 'NONE', #189, #70, #28, .T. ) ;
#63 = AXIS2_PLACEMENT_3D ( 'NONE', #36, #10, #228 ) ;
#64 = CALENDAR_DATE ( 2024, 17, 7 ) ;
#65 = COORDINATED_UNIVERSAL_TIME_OFFSET ( 1, 0, .AHEAD. ) ;
#66 = CARTESIAN_POINT ( 'NONE',  ( 0.000000000000000000, -1.347111479062088405E-15, 22.00000000000000000 ) ) ;
#67 = ORIENTED_EDGE ( 'NONE', *, *, #100, .F. ) ;
#68 = APPROVAL_PERSON_ORGANIZATION ( #116, #52, #140 ) ;
#69 = EDGE_CURVE ( 'NONE', #161, #101, #232, .T. ) ;
#70 = VERTEX_POINT ( 'NONE', #187 ) ;
#71 = APPROVAL_ROLE ( '' ) ;
#72 = CARTESIAN_POINT ( 'NONE',  ( 57.00000000000000000, 0.000000000000000000, 0.000000000000000000 ) ) ;
#73 = DIRECTION ( 'NONE',  ( 1.000000000000000000, 0.000000000000000000, 0.000000000000000000 ) ) ;
#74 = CARTESIAN_POINT ( 'NONE',  ( 57.00000000000000000, 0.000000000000000000, 10.47241248990059326 ) ) ;
#75 = EDGE_LOOP ( 'NONE', ( #93, #18 ) ) ;
#76 = SHAPE_DEFINITION_REPRESENTATION ( #8, #196 ) ;
#77 = LINE ( 'NONE', #230, #112 ) ;
#78 = CARTESIAN_POINT ( 'NONE',  ( 0.000000000000000000, 0.000000000000000000, 0.000000000000000000 ) ) ;
#79 = AXIS2_PLACEMENT_3D ( 'NONE', #212, #39, #108 ) ;
#80 = CONICAL_SURFACE ( 'NONE', #172, 10.52721215233571250, 0.1651486774146267711 ) ;
#81 = PERSON_AND_ORGANIZATION ( #177, #233 ) ;
#82 = DATE_AND_TIME ( #46, #95 ) ;
#83 = ADVANCED_FACE ( 'NONE', ( #210, #129 ), #37, .T. ) ;
#84 = ORIENTED_EDGE ( 'NONE', *, *, #173, .T. ) ;
#85 = DIRECTION ( 'NONE',  ( 0.000000000000000000, 0.000000000000000000, -1.000000000000000000 ) ) ;
#86 = ORIENTED_EDGE ( 'NONE', *, *, #127, .T. ) ;
#87 = LINE ( 'NONE', #162, #125 ) ;
#88 = CARTESIAN_POINT ( 'NONE',  ( 57.00000000000000000, 0.000000000000000000, 12.50000000000000000 ) ) ;
#89 = FACE_OUTER_BOUND ( 'NONE', #38, .T. ) ;
#90 = AXIS2_PLACEMENT_3D ( 'NONE', #78, #229, #58 ) ;
#91 = ORIENTED_EDGE ( 'NONE', *, *, #198, .T. ) ;
#92 = DIRECTION ( 'NONE',  ( 0.000000000000000000, 0.000000000000000000, 1.000000000000000000 ) ) ;
#93 = ORIENTED_EDGE ( 'NONE', *, *, #173, .F. ) ;
#94 = EDGE_CURVE ( 'NONE', #70, #205, #56, .T. ) ;
#95 = LOCAL_TIME ( 14, 15, 9.000000000000000000, #179 ) ;
#96 = APPROVAL_STATUS ( 'not_yet_approved' ) ;
#97 = APPROVAL_DATE_TIME ( #219, #52 ) ;
#98 = PRODUCT_RELATED_PRODUCT_CATEGORY ( 'detail', '', ( #224 ) ) ;
#99 = LINE ( 'NONE', #180, #194 ) ;
#100 = EDGE_CURVE ( 'NONE', #205, #124, #137, .T. ) ;
#101 = VERTEX_POINT ( 'NONE', #168 ) ;
#102 = CARTESIAN_POINT ( 'NONE',  ( 0.000000000000000000, 0.000000000000000000, 0.000000000000000000 ) ) ;
#103 = CIRCLE ( 'NONE', #207, 10.47241248990059326 ) ;
#104 = ORIENTED_EDGE ( 'NONE', *, *, #62, .F. ) ;
#105 = FACE_OUTER_BOUND ( 'NONE', #51, .T. ) ;
#106 = DIRECTION ( 'NONE',  ( 1.000000000000000000, 0.000000000000000000, 0.000000000000000000 ) ) ;
#107 = DIRECTION ( 'NONE',  ( 0.000000000000000000, 0.000000000000000000, 1.000000000000000000 ) ) ;
#108 = DIRECTION ( 'NONE',  ( 0.000000000000000000, 0.000000000000000000, -1.000000000000000000 ) ) ;
#109 = VERTEX_POINT ( 'NONE', #12 ) ;
#110 = DIRECTION ( 'NONE',  ( 0.000000000000000000, 0.000000000000000000, -1.000000000000000000 ) ) ;
#111 = ADVANCED_FACE ( 'NONE', ( #151 ), #80, .F. ) ;
#112 = VECTOR ( 'NONE', #131, 1000.000000000000000 ) ;
#113 = APPROVAL_DATE_TIME ( #136, #176 ) ;
#114 = CIRCLE ( 'NONE', #44, 12.50000000000000000 ) ;
#115 = PERSON_AND_ORGANIZATION_ROLE ( 'classification_officer' ) ;
#116 = PERSON_AND_ORGANIZATION ( #177, #233 ) ;
#117 = APPLICATION_CONTEXT ( 'configuration controlled 3d designs of mechanical parts and assemblies' ) ;
#118 = AXIS2_PLACEMENT_3D ( 'NONE', #153, #211, #130 ) ;
#119 = DIRECTION ( 'NONE',  ( -0.9863939238321437486, 0.000000000000000000, 0.1643989873053572359 ) ) ;
#120 = EDGE_CURVE ( 'NONE', #189, #124, #77, .T. ) ;
#121 =( GEOMETRIC_REPRESENTATION_CONTEXT ( 3 ) GLOBAL_UNCERTAINTY_ASSIGNED_CONTEXT ( ( #21 ) ) GLOBAL_UNIT_ASSIGNED_CONTEXT ( ( #222, #141, #238 ) ) REPRESENTATION_CONTEXT ( 'NONE', 'WORKASPACE' ) );
#122 = EDGE_LOOP ( 'NONE', ( #84, #91, #170, #15 ) ) ;
#123 = APPLICATION_PROTOCOL_DEFINITION ( 'international standard', 'config_control_design', 1994, #248 ) ;
#124 = VERTEX_POINT ( 'NONE', #35 ) ;
#125 = VECTOR ( 'NONE', #241, 1000.000000000000000 ) ;
#126 = FACE_OUTER_BOUND ( 'NONE', #195, .T. ) ;
#127 = EDGE_CURVE ( 'NONE', #70, #189, #114, .T. ) ;
#128 = DIRECTION ( 'NONE',  ( -1.000000000000000000, -0.000000000000000000, -0.000000000000000000 ) ) ;
#129 = FACE_OUTER_BOUND ( 'NONE', #9, .T. ) ;
#130 = DIRECTION ( 'NONE',  ( 0.000000000000000000, 0.000000000000000000, -1.000000000000000000 ) ) ;
#131 = DIRECTION ( 'NONE',  ( -0.9863939238321437486, 2.013306935865721071E-17, -0.1643989873053572359 ) ) ;
#132 = CC_DESIGN_PERSON_AND_ORGANIZATION_ASSIGNMENT ( #81, #178, ( #29 ) ) ;
#133 = ORIENTED_EDGE ( 'NONE', *, *, #69, .F. ) ;
#134 = CC_DESIGN_SECURITY_CLASSIFICATION ( #154, ( #29 ) ) ;
#135 = AXIS2_PLACEMENT_3D ( 'NONE', #246, #166, #110 ) ;
#136 = DATE_AND_TIME ( #234, #17 ) ;
#137 = CIRCLE ( 'NONE', #79, 22.00000000000000000 ) ;
#138 = EDGE_CURVE ( 'NONE', #101, #161, #6, .T. ) ;
#139 = PERSON_AND_ORGANIZATION ( #177, #233 ) ;
#140 = APPROVAL_ROLE ( '' ) ;
#141 =( NAMED_UNIT ( * ) PLANE_ANGLE_UNIT ( ) SI_UNIT ( $, .RADIAN. ) );
#142 = EDGE_LOOP ( 'NONE', ( #104, #145, #30, #220 ) ) ;
#143 = CARTESIAN_POINT ( 'NONE',  ( 0.000000000000000000, 0.000000000000000000, 0.000000000000000000 ) ) ;
#144 = ORIENTED_EDGE ( 'NONE', *, *, #100, .T. ) ;
#145 = ORIENTED_EDGE ( 'NONE', *, *, #120, .T. ) ;
#146 = CC_DESIGN_DATE_AND_TIME_ASSIGNMENT ( #26, #45, ( #154 ) ) ;
#147 = DIRECTION ( 'NONE',  ( -1.000000000000000000, -0.000000000000000000, -0.000000000000000000 ) ) ;
#148 = DIRECTION ( 'NONE',  ( 0.000000000000000000, 0.000000000000000000, -1.000000000000000000 ) ) ;
#149 = PLANE ( 'NONE',  #53 ) ;
#150 = APPROVAL_DATE_TIME ( #185, #19 ) ;
#151 = FACE_OUTER_BOUND ( 'NONE', #122, .T. ) ;
#152 = ADVANCED_FACE ( 'NONE', ( #105 ), #247, .F. ) ;
#153 = CARTESIAN_POINT ( 'NONE',  ( 57.00000000000000000, 0.000000000000000000, 0.000000000000000000 ) ) ;
#154 = SECURITY_CLASSIFICATION ( '', '', #236 ) ;
#155 = COORDINATED_UNIVERSAL_TIME_OFFSET ( 1, 0, .AHEAD. ) ;
#156 = AXIS2_PLACEMENT_3D ( 'NONE', #72, #147, #107 ) ;
#157 = PERSON_AND_ORGANIZATION_ROLE ( 'creator' ) ;
#158 = APPROVAL_STATUS ( 'not_yet_approved' ) ;
#159 = ORIENTED_EDGE ( 'NONE', *, *, #94, .T. ) ;
#160 = CC_DESIGN_APPROVAL ( #176, ( #33 ) ) ;
#161 = VERTEX_POINT ( 'NONE', #186 ) ;
#162 = CARTESIAN_POINT ( 'NONE',  ( 56.67120202538928453, 1.289211666630304907E-15, -10.52721215233571250 ) ) ;
#163 = DIRECTION ( 'NONE',  ( -0.9863939238321437486, 0.000000000000000000, 0.1643989873053572359 ) ) ;
#164 = CIRCLE ( 'NONE', #90, 22.00000000000000000 ) ;
#165 = FACE_BOUND ( 'NONE', #5, .T. ) ;
#166 = DIRECTION ( 'NONE',  ( 1.000000000000000000, 0.000000000000000000, 0.000000000000000000 ) ) ;
#167 = LOCAL_TIME ( 14, 15, 9.000000000000000000, #193 ) ;
#168 = CARTESIAN_POINT ( 'NONE',  ( 0.000000000000000000, 0.000000000000000000, 19.97241248990059148 ) ) ;
#169 = ADVANCED_FACE ( 'NONE', ( #89 ), #32, .T. ) ;
#170 = ORIENTED_EDGE ( 'NONE', *, *, #138, .F. ) ;
#171 = CALENDAR_DATE ( 2024, 17, 7 ) ;
#172 = AXIS2_PLACEMENT_3D ( 'NONE', #16, #245, #92 ) ;
#173 = EDGE_CURVE ( 'NONE', #183, #109, #103, .T. ) ;
#174 = DESIGN_CONTEXT ( 'detailed design', #117, 'design' ) ;
#175 = PERSON_AND_ORGANIZATION ( #177, #233 ) ;
#176 = APPROVAL ( #216, 'UNSPECIFIED' ) ;
#177 = PERSON ( 'UNSPECIFIED', 'UNSPECIFIED', 'UNSPECIFIED', ('UNSPECIFIED'), ('UNSPECIFIED'), ('UNSPECIFIED') ) ;
#178 = PERSON_AND_ORGANIZATION_ROLE ( 'design_supplier' ) ;
#179 = COORDINATED_UNIVERSAL_TIME_OFFSET ( 1, 0, .AHEAD. ) ;
#180 = CARTESIAN_POINT ( 'NONE',  ( 56.67120202538928453, 0.000000000000000000, 10.52721215233571250 ) ) ;
#181 = ORIENTED_EDGE ( 'NONE', *, *, #223, .T. ) ;
#182 = DIRECTION ( 'NONE',  ( 0.000000000000000000, 0.000000000000000000, 1.000000000000000000 ) ) ;
#183 = VERTEX_POINT ( 'NONE', #74 ) ;
#184 = ADVANCED_FACE ( 'NONE', ( #54 ), #20, .T. ) ;
#185 = DATE_AND_TIME ( #171, #167 ) ;
#186 = CARTESIAN_POINT ( 'NONE',  ( 0.000000000000000000, 2.445915102700738090E-15, -19.97241248990059148 ) ) ;
#187 = CARTESIAN_POINT ( 'NONE',  ( 57.00000000000000000, 7.654042494670957606E-16, 12.50000000000000000 ) ) ;
#188 = DIRECTION ( 'NONE',  ( 0.000000000000000000, 0.000000000000000000, -1.000000000000000000 ) ) ;
#189 = VERTEX_POINT ( 'NONE', #209 ) ;
#190 = DIRECTION ( 'NONE',  ( 0.000000000000000000, 0.000000000000000000, -1.000000000000000000 ) ) ;
#191 = CIRCLE ( 'NONE', #135, 10.47241248990059326 ) ;
#192 = ORIENTED_EDGE ( 'NONE', *, *, #198, .F. ) ;
#193 = COORDINATED_UNIVERSAL_TIME_OFFSET ( 1, 0, .AHEAD. ) ;
#194 = VECTOR ( 'NONE', #119, 1000.000000000000000 ) ;
#195 = EDGE_LOOP ( 'NONE', ( #67, #213 ) ) ;
#196 = ADVANCED_BREP_SHAPE_REPRESENTATION ( '3D_R169_ DN44-25_17323195', ( #25, #40 ), #121 ) ;
#197 = AXIS2_PLACEMENT_3D ( 'NONE', #59, #73, #227 ) ;
#198 = EDGE_CURVE ( 'NONE', #109, #161, #87, .T. ) ;
#199 = APPLICATION_PROTOCOL_DEFINITION ( 'international standard', 'config_control_design', 1994, #117 ) ;
#200 = ADVANCED_FACE ( 'NONE', ( #165, #126 ), #149, .F. ) ;
#201 = COORDINATED_UNIVERSAL_TIME_OFFSET ( 1, 0, .AHEAD. ) ;
#202 = PERSON_AND_ORGANIZATION_ROLE ( 'creator' ) ;
#203 = CC_DESIGN_DATE_AND_TIME_ASSIGNMENT ( #82, #4, ( #33 ) ) ;
#204 = CC_DESIGN_APPROVAL ( #19, ( #154 ) ) ;
#205 = VERTEX_POINT ( 'NONE', #66 ) ;
#206 = ORIENTED_EDGE ( 'NONE', *, *, #62, .T. ) ;
#207 = AXIS2_PLACEMENT_3D ( 'NONE', #57, #226, #55 ) ;
#208 = DIRECTION ( 'NONE',  ( 1.000000000000000000, 0.000000000000000000, 0.000000000000000000 ) ) ;
#209 = CARTESIAN_POINT ( 'NONE',  ( 57.00000000000000000, 7.654042494670957606E-16, -12.50000000000000000 ) ) ;
#210 = FACE_BOUND ( 'NONE', #75, .T. ) ;
#211 = DIRECTION ( 'NONE',  ( 1.000000000000000000, 0.000000000000000000, 0.000000000000000000 ) ) ;
#212 = CARTESIAN_POINT ( 'NONE',  ( 0.000000000000000000, 0.000000000000000000, 0.000000000000000000 ) ) ;
#213 = ORIENTED_EDGE ( 'NONE', *, *, #24, .F. ) ;
#214 = CC_DESIGN_APPROVAL ( #52, ( #29 ) ) ;
#215 = CC_DESIGN_PERSON_AND_ORGANIZATION_ASSIGNMENT ( #249, #43, ( #224 ) ) ;
#216 = APPROVAL_STATUS ( 'not_yet_approved' ) ;
#217 = AXIS2_PLACEMENT_3D ( 'NONE', #13, #128, #243 ) ;
#218 = PERSON_AND_ORGANIZATION ( #177, #233 ) ;
#219 = DATE_AND_TIME ( #27, #239 ) ;
#220 = ORIENTED_EDGE ( 'NONE', *, *, #94, .F. ) ;
#221 = LOCAL_TIME ( 14, 15, 9.000000000000000000, #201 ) ;
#222 =( LENGTH_UNIT ( ) NAMED_UNIT ( * ) SI_UNIT ( .MILLI., .METRE. ) );
#223 = EDGE_CURVE ( 'NONE', #183, #101, #99, .T. ) ;
#224 = PRODUCT ( '3D_R169_ DN44-25_17323195', '3D_R169_ DN44-25_17323195', '', ( #61 ) ) ;
#225 = AXIS2_PLACEMENT_3D ( 'NONE', #34, #208, #188 ) ;
#226 = DIRECTION ( 'NONE',  ( 1.000000000000000000, 0.000000000000000000, 0.000000000000000000 ) ) ;
#227 = DIRECTION ( 'NONE',  ( 0.000000000000000000, 0.000000000000000000, -1.000000000000000000 ) ) ;
#228 = DIRECTION ( 'NONE',  ( 0.000000000000000000, 0.000000000000000000, 1.000000000000000000 ) ) ;
#229 = DIRECTION ( 'NONE',  ( 1.000000000000000000, 0.000000000000000000, 0.000000000000000000 ) ) ;
#230 = CARTESIAN_POINT ( 'NONE',  ( 57.00000000000000000, 1.530808498934191521E-15, -12.50000000000000000 ) ) ;
#231 = CARTESIAN_POINT ( 'NONE',  ( 0.000000000000000000, 0.000000000000000000, 0.000000000000000000 ) ) ;
#232 = CIRCLE ( 'NONE', #14, 19.97241248990058793 ) ;
#233 = ORGANIZATION ( 'UNSPECIFIED', 'UNSPECIFIED', '' ) ;
#234 = CALENDAR_DATE ( 2024, 17, 7 ) ;
#235 = CC_DESIGN_PERSON_AND_ORGANIZATION_ASSIGNMENT ( #237, #202, ( #33 ) ) ;
#236 = SECURITY_CLASSIFICATION_LEVEL ( 'unclassified' ) ;
#237 = PERSON_AND_ORGANIZATION ( #177, #233 ) ;
#238 =( NAMED_UNIT ( * ) SI_UNIT ( $, .STERADIAN. ) SOLID_ANGLE_UNIT ( ) );
#239 = LOCAL_TIME ( 14, 15, 9.000000000000000000, #65 ) ;
#240 = ORIENTED_EDGE ( 'NONE', *, *, #127, .F. ) ;
#241 = DIRECTION ( 'NONE',  ( -0.9863939238321437486, 2.013306935865721071E-17, -0.1643989873053572359 ) ) ;
#242 = CARTESIAN_POINT ( 'NONE',  ( 57.00000000000000000, 0.000000000000000000, 0.000000000000000000 ) ) ;
#243 = DIRECTION ( 'NONE',  ( 0.000000000000000000, 0.000000000000000000, 1.000000000000000000 ) ) ;
#244 = ORIENTED_EDGE ( 'NONE', *, *, #120, .F. ) ;
#245 = DIRECTION ( 'NONE',  ( -1.000000000000000000, -0.000000000000000000, -0.000000000000000000 ) ) ;
#246 = CARTESIAN_POINT ( 'NONE',  ( 57.00000000000000000, 0.000000000000000000, 0.000000000000000000 ) ) ;
#247 = CONICAL_SURFACE ( 'NONE', #217, 10.52721215233571250, 0.1651486774146267711 ) ;
#248 = APPLICATION_CONTEXT ( 'configuration controlled 3d designs of mechanical parts and assemblies' ) ;
#249 = PERSON_AND_ORGANIZATION ( #177, #233 ) ;
ENDSEC;
END-ISO-10303-21;
