ISO-10303-21;
HEADER;
FILE_DESCRIPTION (( 'STEP AP203' ),
    '1' );
FILE_NAME ('3D_GR1382_DN30x1.5_18380350.STEP',
    '2024-09-23T06:01:51',
    ( '' ),
    ( '' ),
    'SwSTEP 2.0',
    'SolidWorks 2024',
    '' );
FILE_SCHEMA (( 'CONFIG_CONTROL_DESIGN' ));
ENDSEC;

DATA;
#1 = AXIS2_PLACEMENT_3D ( 'NONE', #40, #348, #255 ) ;
#2 = DIRECTION ( 'NONE',  ( -1.000000000000000000, -0.000000000000000000, -0.000000000000000000 ) ) ;
#3 = ADVANCED_FACE ( 'NONE', ( #55 ), #208, .T. ) ;
#4 = CARTESIAN_POINT ( 'NONE',  ( 8.000000000000561329, 0.000000000000000000, 0.000000000000000000 ) ) ;
#5 = DIRECTION ( 'NONE',  ( -1.000000000000000000, -0.000000000000000000, -0.000000000000000000 ) ) ;
#6 = DIRECTION ( 'NONE',  ( 0.000000000000000000, 0.000000000000000000, 1.000000000000000000 ) ) ;
#7 = DIRECTION ( 'NONE',  ( -0.000000000000000000, 1.000000000000000000, 1.224646799147353207E-16 ) ) ;
#8 = DIRECTION ( 'NONE',  ( 0.000000000000000000, 0.000000000000000000, 1.000000000000000000 ) ) ;
#9 = CARTESIAN_POINT ( 'NONE',  ( -2.000000000000001776, 0.000000000000000000, 0.000000000000000000 ) ) ;
#10 = EDGE_CURVE ( 'NONE', #99, #238, #74, .T. ) ;
#11 = DIRECTION ( 'NONE',  ( -1.000000000000000000, -0.000000000000000000, -0.000000000000000000 ) ) ;
#12 = DIRECTION ( 'NONE',  ( 0.000000000000000000, 0.000000000000000000, 1.000000000000000000 ) ) ;
#13 = VECTOR ( 'NONE', #311, 1000.000000000000000 ) ;
#14 = ORIENTED_EDGE ( 'NONE', *, *, #167, .T. ) ;
#15 = CARTESIAN_POINT ( 'NONE',  ( 8.000000000000561329, 0.000000000000000000, 0.000000000000000000 ) ) ;
#16 = ORIENTED_EDGE ( 'NONE', *, *, #322, .F. ) ;
#17 = APPROVAL_STATUS ( 'not_yet_approved' ) ;
#18 = VERTEX_POINT ( 'NONE', #168 ) ;
#19 = CALENDAR_DATE ( 2024, 23, 9 ) ;
#20 = ORIENTED_EDGE ( 'NONE', *, *, #230, .F. ) ;
#21 = CIRCLE ( 'NONE', #352, 15.00000000000001776 ) ;
#22 = APPROVAL_ROLE ( '' ) ;
#23 = APPLICATION_PROTOCOL_DEFINITION ( 'international standard', 'config_control_design', 1994, #113 ) ;
#24 = EDGE_CURVE ( 'NONE', #187, #214, #87, .T. ) ;
#25 = APPROVAL_DATE_TIME ( #324, #52 ) ;
#26 = AXIS2_PLACEMENT_3D ( 'NONE', #166, #33, #142 ) ;
#27 = CIRCLE ( 'NONE', #1, 14.00000000000001954 ) ;
#28 = DIRECTION ( 'NONE',  ( -1.000000000000000000, -0.000000000000000000, -0.000000000000000000 ) ) ;
#29 = ADVANCED_FACE ( 'NONE', ( #221, #332 ), #141, .F. ) ;
#30 = DIRECTION ( 'NONE',  ( -1.000000000000000000, -0.000000000000000000, -0.000000000000000000 ) ) ;
#31 = DIRECTION ( 'NONE',  ( -1.000000000000000000, -0.000000000000000000, -0.000000000000000000 ) ) ;
#32 = DIRECTION ( 'NONE',  ( -1.000000000000000000, -0.000000000000000000, -0.000000000000000000 ) ) ;
#33 = DIRECTION ( 'NONE',  ( -1.000000000000000000, -0.000000000000000000, -0.000000000000000000 ) ) ;
#34 = APPROVAL ( #17, 'UNSPECIFIED' ) ;
#35 = DIRECTION ( 'NONE',  ( -1.000000000000000000, -0.000000000000000000, -0.000000000000000000 ) ) ;
#36 = DIRECTION ( 'NONE',  ( -0.7071067811865474617, 0.000000000000000000, 0.7071067811865474617 ) ) ;
#37 = ORIENTED_EDGE ( 'NONE', *, *, #252, .F. ) ;
#38 = ADVANCED_FACE ( 'NONE', ( #173 ), #88, .F. ) ;
#39 = CARTESIAN_POINT ( 'NONE',  ( -154.8395502972293230, 1.653273178848929233E-15, -13.50000000000001954 ) ) ;
#40 = CARTESIAN_POINT ( 'NONE',  ( -3.000000000000002665, 0.000000000000000000, 0.000000000000000000 ) ) ;
#41 = EDGE_LOOP ( 'NONE', ( #354, #75 ) ) ;
#42 = DIRECTION ( 'NONE',  ( 0.000000000000000000, -1.000000000000000000, 0.000000000000000000 ) ) ;
#43 = VERTEX_POINT ( 'NONE', #198 ) ;
#44 = PERSON_AND_ORGANIZATION ( #257, #259 ) ;
#45 = EDGE_LOOP ( 'NONE', ( #20, #336, #159, #73 ) ) ;
#46 = COORDINATED_UNIVERSAL_TIME_OFFSET ( 1, 0, .AHEAD. ) ;
#47 = ORIENTED_EDGE ( 'NONE', *, *, #280, .F. ) ;
#48 = COORDINATED_UNIVERSAL_TIME_OFFSET ( 1, 0, .AHEAD. ) ;
#49 = EDGE_CURVE ( 'NONE', #79, #323, #21, .T. ) ;
#50 = LOCAL_TIME ( 8, 1, 51.00000000000000000, #138 ) ;
#51 = PERSON_AND_ORGANIZATION ( #257, #259 ) ;
#52 = APPROVAL ( #268, 'UNSPECIFIED' ) ;
#53 = ADVANCED_BREP_SHAPE_REPRESENTATION ( '3D_GR1382_DN30x1.5_18380350', ( #327, #63 ), #121 ) ;
#54 = DATE_AND_TIME ( #294, #98 ) ;
#55 = FACE_OUTER_BOUND ( 'NONE', #45, .T. ) ;
#56 = CIRCLE ( 'NONE', #269, 12.50000000000001954 ) ;
#57 = CARTESIAN_POINT ( 'NONE',  ( -3.000000000000001776, 14.00000000000001954, 0.000000000000000000 ) ) ;
#58 = DIRECTION ( 'NONE',  ( 0.000000000000000000, 0.000000000000000000, 1.000000000000000000 ) ) ;
#59 = DIRECTION ( 'NONE',  ( 0.000000000000000000, -1.224646799147353454E-16, 1.000000000000000000 ) ) ;
#60 = EDGE_CURVE ( 'NONE', #323, #79, #155, .T. ) ;
#61 = TOROIDAL_SURFACE ( 'NONE', #328, 14.00000000000001954, 1.000000000000000444 ) ;
#62 = CARTESIAN_POINT ( 'NONE',  ( 0.000000000000000000, 0.000000000000000000, 0.000000000000000000 ) ) ;
#63 = AXIS2_PLACEMENT_3D ( 'NONE', #182, #188, #326 ) ;
#64 = CARTESIAN_POINT ( 'NONE',  ( -154.8395502972293230, 0.000000000000000000, 0.000000000000000000 ) ) ;
#65 = CARTESIAN_POINT ( 'NONE',  ( 7.000000000000561329, 1.653273178848929233E-15, -13.50000000000002132 ) ) ;
#66 = EDGE_CURVE ( 'NONE', #132, #43, #273, .T. ) ;
#67 = VERTEX_POINT ( 'NONE', #144 ) ;
#68 = LINE ( 'NONE', #70, #284 ) ;
#69 = VECTOR ( 'NONE', #36, 1000.000000000000114 ) ;
#70 = CARTESIAN_POINT ( 'NONE',  ( -154.8395502972293230, 0.000000000000000000, 15.00000000000001954 ) ) ;
#71 = ORIENTED_EDGE ( 'NONE', *, *, #191, .T. ) ;
#72 = CARTESIAN_POINT ( 'NONE',  ( 0.000000000000000000, 0.000000000000000000, 13.50000000000001954 ) ) ;
#73 = ORIENTED_EDGE ( 'NONE', *, *, #80, .F. ) ;
#74 = CIRCLE ( 'NONE', #258, 13.50000000000002132 ) ;
#75 = ORIENTED_EDGE ( 'NONE', *, *, #80, .T. ) ;
#76 = CALENDAR_DATE ( 2024, 23, 9 ) ;
#77 = ORIENTED_EDGE ( 'NONE', *, *, #322, .T. ) ;
#78 = SHAPE_DEFINITION_REPRESENTATION ( #186, #53 ) ;
#79 = VERTEX_POINT ( 'NONE', #247 ) ;
#80 = EDGE_CURVE ( 'NONE', #101, #317, #357, .T. ) ;
#81 = DATE_AND_TIME ( #19, #137 ) ;
#82 = AXIS2_PLACEMENT_3D ( 'NONE', #64, #11, #341 ) ;
#83 = AXIS2_PLACEMENT_3D ( 'NONE', #9, #150, #339 ) ;
#84 = PERSON_AND_ORGANIZATION ( #257, #259 ) ;
#85 = PRODUCT_RELATED_PRODUCT_CATEGORY ( 'detail', '', ( #158 ) ) ;
#86 = CARTESIAN_POINT ( 'NONE',  ( 8.000000000000561329, 0.000000000000000000, 0.000000000000000000 ) ) ;
#87 = CIRCLE ( 'NONE', #307, 14.00000000000001954 ) ;
#88 = PLANE ( 'NONE',  #299 ) ;
#89 = FACE_OUTER_BOUND ( 'NONE', #157, .T. ) ;
#90 = ADVANCED_FACE ( 'NONE', ( #89 ), #202, .T. ) ;
#91 = AXIS2_PLACEMENT_3D ( 'NONE', #4, #114, #58 ) ;
#92 = DIRECTION ( 'NONE',  ( -0.7071067811865474617, 8.659560562354932858E-17, -0.7071067811865474617 ) ) ;
#93 = UNCERTAINTY_MEASURE_WITH_UNIT (LENGTH_MEASURE( 1.000000000000000082E-05 ), #120, 'distance_accuracy_value', 'NONE');
#94 = EDGE_CURVE ( 'NONE', #67, #18, #283, .T. ) ;
#95 = CARTESIAN_POINT ( 'NONE',  ( -3.000000000000002665, 0.000000000000000000, 14.00000000000001954 ) ) ;
#96 = FACE_OUTER_BOUND ( 'NONE', #264, .T. ) ;
#97 = CARTESIAN_POINT ( 'NONE',  ( 7.000000000000561329, 0.000000000000000000, 0.000000000000000000 ) ) ;
#98 = LOCAL_TIME ( 8, 1, 51.00000000000000000, #265 ) ;
#99 = VERTEX_POINT ( 'NONE', #305 ) ;
#100 = CARTESIAN_POINT ( 'NONE',  ( -154.8395502972293230, 1.836970198721032350E-15, -15.00000000000001954 ) ) ;
#101 = VERTEX_POINT ( 'NONE', #118 ) ;
#102 = EDGE_CURVE ( 'NONE', #43, #214, #244, .T. ) ;
#103 = EDGE_LOOP ( 'NONE', ( #175, #210, #301, #47 ) ) ;
#104 = APPROVAL_ROLE ( '' ) ;
#105 = AXIS2_PLACEMENT_3D ( 'NONE', #199, #7, #59 ) ;
#106 = ORIENTED_EDGE ( 'NONE', *, *, #94, .F. ) ;
#107 = PERSON_AND_ORGANIZATION_ROLE ( 'classification_officer' ) ;
#108 = CC_DESIGN_PERSON_AND_ORGANIZATION_ASSIGNMENT ( #297, #356, ( #158 ) ) ;
#109 = ORIENTED_EDGE ( 'NONE', *, *, #60, .T. ) ;
#110 = DATE_AND_TIME ( #76, #128 ) ;
#111 = AXIS2_PLACEMENT_3D ( 'NONE', #245, #275, #335 ) ;
#112 = FACE_OUTER_BOUND ( 'NONE', #103, .T. ) ;
#113 = APPLICATION_CONTEXT ( 'configuration controlled 3d designs of mechanical parts and assemblies' ) ;
#114 = DIRECTION ( 'NONE',  ( -1.000000000000000000, -0.000000000000000000, -0.000000000000000000 ) ) ;
#115 = CIRCLE ( 'NONE', #161, 13.50000000000002132 ) ;
#116 = CARTESIAN_POINT ( 'NONE',  ( 0.000000000000000000, 0.000000000000000000, 0.000000000000000000 ) ) ;
#117 = ADVANCED_FACE ( 'NONE', ( #112 ), #291, .T. ) ;
#118 = CARTESIAN_POINT ( 'NONE',  ( 0.000000000000000000, 1.653273178848929233E-15, -13.50000000000001954 ) ) ;
#119 = DIRECTION ( 'NONE',  ( -1.000000000000000000, -0.000000000000000000, -0.000000000000000000 ) ) ;
#120 =( LENGTH_UNIT ( ) NAMED_UNIT ( * ) SI_UNIT ( .MILLI., .METRE. ) );
#121 =( GEOMETRIC_REPRESENTATION_CONTEXT ( 3 ) GLOBAL_UNCERTAINTY_ASSIGNED_CONTEXT ( ( #93 ) ) GLOBAL_UNIT_ASSIGNED_CONTEXT ( ( #120, #318, #219 ) ) REPRESENTATION_CONTEXT ( 'NONE', 'WORKASPACE' ) );
#122 = FACE_OUTER_BOUND ( 'NONE', #216, .T. ) ;
#123 = CARTESIAN_POINT ( 'NONE',  ( -154.8395502972293230, 0.000000000000000000, 13.50000000000001954 ) ) ;
#124 = CC_DESIGN_PERSON_AND_ORGANIZATION_ASSIGNMENT ( #44, #107, ( #345 ) ) ;
#125 = EDGE_LOOP ( 'NONE', ( #347, #14, #312, #290 ) ) ;
#126 = LINE ( 'NONE', #100, #248 ) ;
#127 = AXIS2_PLACEMENT_3D ( 'NONE', #204, #254, #148 ) ;
#128 = LOCAL_TIME ( 8, 1, 51.00000000000000000, #46 ) ;
#129 = ADVANCED_FACE ( 'NONE', ( #193 ), #250, .T. ) ;
#130 = ORIENTED_EDGE ( 'NONE', *, *, #60, .F. ) ;
#131 = FACE_OUTER_BOUND ( 'NONE', #125, .T. ) ;
#132 = VERTEX_POINT ( 'NONE', #146 ) ;
#133 = ORIENTED_EDGE ( 'NONE', *, *, #225, .F. ) ;
#134 = APPROVAL ( #298, 'UNSPECIFIED' ) ;
#135 = PERSON_AND_ORGANIZATION ( #257, #259 ) ;
#136 = EDGE_LOOP ( 'NONE', ( #282, #106 ) ) ;
#137 = LOCAL_TIME ( 8, 1, 51.00000000000000000, #213 ) ;
#138 = COORDINATED_UNIVERSAL_TIME_OFFSET ( 1, 0, .AHEAD. ) ;
#139 = CIRCLE ( 'NONE', #165, 13.50000000000001954 ) ;
#140 = CC_DESIGN_APPROVAL ( #134, ( #334 ) ) ;
#141 = PLANE ( 'NONE',  #111 ) ;
#142 = DIRECTION ( 'NONE',  ( 0.000000000000000000, 0.000000000000000000, 1.000000000000000000 ) ) ;
#143 = EDGE_CURVE ( 'NONE', #317, #101, #139, .T. ) ;
#144 = CARTESIAN_POINT ( 'NONE',  ( 8.000000000000561329, 1.592040838891561659E-15, -12.50000000000001954 ) ) ;
#145 = AXIS2_PLACEMENT_3D ( 'NONE', #246, #5, #302 ) ;
#146 = CARTESIAN_POINT ( 'NONE',  ( -2.000000000000001776, 0.000000000000000000, 15.00000000000001954 ) ) ;
#147 = DIRECTION ( 'NONE',  ( 0.000000000000000000, 0.000000000000000000, 1.000000000000000000 ) ) ;
#148 = DIRECTION ( 'NONE',  ( -0.000000000000000000, 0.000000000000000000, 1.000000000000000000 ) ) ;
#149 = CLOSED_SHELL ( 'NONE', ( #117, #243, #129, #333, #288, #90, #3, #29, #178, #296, #38 ) ) ;
#150 = DIRECTION ( 'NONE',  ( -1.000000000000000000, -0.000000000000000000, -0.000000000000000000 ) ) ;
#151 = LINE ( 'NONE', #123, #13 ) ;
#152 = CARTESIAN_POINT ( 'NONE',  ( -3.000000000000002665, 1.775737858763664381E-15, -14.00000000000001954 ) ) ;
#153 = ORIENTED_EDGE ( 'NONE', *, *, #102, .F. ) ;
#154 = FACE_OUTER_BOUND ( 'NONE', #136, .T. ) ;
#155 = CIRCLE ( 'NONE', #196, 15.00000000000001776 ) ;
#156 = EDGE_LOOP ( 'NONE', ( #266, #109, #185, #37 ) ) ;
#157 = EDGE_LOOP ( 'NONE', ( #263, #237, #71, #133 ) ) ;
#158 = PRODUCT ( '3D_GR1382_DN30x1.5_18380350', '3D_GR1382_DN30x1.5_18380350', '', ( #350 ) ) ;
#159 = ORIENTED_EDGE ( 'NONE', *, *, #304, .T. ) ;
#160 = PERSON_AND_ORGANIZATION ( #257, #259 ) ;
#161 = AXIS2_PLACEMENT_3D ( 'NONE', #97, #281, #289 ) ;
#162 = APPROVAL_DATE_TIME ( #54, #134 ) ;
#163 = PRODUCT_DEFINITION ( 'UNKNOWN', '', #334, #309 ) ;
#164 = EDGE_LOOP ( 'NONE', ( #293, #130 ) ) ;
#165 = AXIS2_PLACEMENT_3D ( 'NONE', #249, #119, #279 ) ;
#166 = CARTESIAN_POINT ( 'NONE',  ( -2.000000000000001776, 0.000000000000000000, 0.000000000000000000 ) ) ;
#167 = EDGE_CURVE ( 'NONE', #67, #238, #226, .T. ) ;
#168 = CARTESIAN_POINT ( 'NONE',  ( 8.000000000000561329, 0.000000000000000000, 12.50000000000001954 ) ) ;
#169 = CARTESIAN_POINT ( 'NONE',  ( -154.8395502972293230, 0.000000000000000000, 0.000000000000000000 ) ) ;
#170 = AXIS2_PLACEMENT_3D ( 'NONE', #86, #172, #6 ) ;
#171 = CC_DESIGN_APPROVAL ( #52, ( #345 ) ) ;
#172 = DIRECTION ( 'NONE',  ( -1.000000000000000000, -0.000000000000000000, -0.000000000000000000 ) ) ;
#173 = FACE_OUTER_BOUND ( 'NONE', #236, .T. ) ;
#174 = CYLINDRICAL_SURFACE ( 'NONE', #234, 15.00000000000001954 ) ;
#175 = ORIENTED_EDGE ( 'NONE', *, *, #66, .T. ) ;
#176 = AXIS2_PLACEMENT_3D ( 'NONE', #331, #2, #276 ) ;
#177 = CARTESIAN_POINT ( 'NONE',  ( 8.000000000000561329, 0.000000000000000000, 0.000000000000000000 ) ) ;
#178 = ADVANCED_FACE ( 'NONE', ( #203 ), #308, .T. ) ;
#179 = DIRECTION ( 'NONE',  ( 0.000000000000000000, 0.000000000000000000, 1.000000000000000000 ) ) ;
#180 = DIRECTION ( 'NONE',  ( 0.000000000000000000, 0.000000000000000000, 1.000000000000000000 ) ) ;
#181 = ORIENTED_EDGE ( 'NONE', *, *, #252, .T. ) ;
#182 = CARTESIAN_POINT ( 'NONE',  ( 0.000000000000000000, 0.000000000000000000, 0.000000000000000000 ) ) ;
#183 = ORIENTED_EDGE ( 'NONE', *, *, #342, .T. ) ;
#184 = APPLICATION_PROTOCOL_DEFINITION ( 'international standard', 'config_control_design', 1994, #261 ) ;
#185 = ORIENTED_EDGE ( 'NONE', *, *, #316, .T. ) ;
#186 = PRODUCT_DEFINITION_SHAPE ( 'NONE', 'NONE',  #163 ) ;
#187 = VERTEX_POINT ( 'NONE', #95 ) ;
#188 = DIRECTION ( 'NONE',  ( 0.000000000000000000, 0.000000000000000000, 1.000000000000000000 ) ) ;
#189 = CIRCLE ( 'NONE', #83, 15.00000000000001954 ) ;
#190 = LOCAL_TIME ( 8, 1, 51.00000000000000000, #48 ) ;
#191 = EDGE_CURVE ( 'NONE', #18, #99, #231, .T. ) ;
#192 = DATE_TIME_ROLE ( 'classification_date' ) ;
#193 = FACE_OUTER_BOUND ( 'NONE', #256, .T. ) ;
#194 = EDGE_CURVE ( 'NONE', #18, #67, #56, .T. ) ;
#195 = CC_DESIGN_PERSON_AND_ORGANIZATION_ASSIGNMENT ( #51, #353, ( #334 ) ) ;
#196 = AXIS2_PLACEMENT_3D ( 'NONE', #62, #30, #337 ) ;
#197 = CONICAL_SURFACE ( 'NONE', #240, 12.50000000000001954, 0.7853981633974482790 ) ;
#198 = CARTESIAN_POINT ( 'NONE',  ( -2.000000000000001776, 1.836970198721032350E-15, -15.00000000000001954 ) ) ;
#199 = CARTESIAN_POINT ( 'NONE',  ( -2.000000000000001776, 1.714505518806296807E-15, -14.00000000000001954 ) ) ;
#200 = CC_DESIGN_DATE_AND_TIME_ASSIGNMENT ( #218, #192, ( #345 ) ) ;
#201 = DIRECTION ( 'NONE',  ( -1.000000000000000000, -0.000000000000000000, -0.000000000000000000 ) ) ;
#202 = CONICAL_SURFACE ( 'NONE', #91, 12.50000000000001954, 0.7853981633974482790 ) ;
#203 = FACE_OUTER_BOUND ( 'NONE', #156, .T. ) ;
#204 = CARTESIAN_POINT ( 'NONE',  ( 8.000000000000273559, 1.517883041479706208E-15, 0.000000000000000000 ) ) ;
#205 = CARTESIAN_POINT ( 'NONE',  ( -2.000000000000001776, 0.000000000000000000, 14.00000000000001954 ) ) ;
#206 = VECTOR ( 'NONE', #340, 1000.000000000000000 ) ;
#207 = DIRECTION ( 'NONE',  ( -1.000000000000000000, -0.000000000000000000, -0.000000000000000000 ) ) ;
#208 = CYLINDRICAL_SURFACE ( 'NONE', #313, 13.50000000000001954 ) ;
#209 = DIRECTION ( 'NONE',  ( -1.000000000000000000, -0.000000000000000000, -0.000000000000000000 ) ) ;
#210 = ORIENTED_EDGE ( 'NONE', *, *, #102, .T. ) ;
#211 = LINE ( 'NONE', #39, #206 ) ;
#212 = ORIENTED_EDGE ( 'NONE', *, *, #230, .T. ) ;
#213 = COORDINATED_UNIVERSAL_TIME_OFFSET ( 1, 0, .AHEAD. ) ;
#214 = VERTEX_POINT ( 'NONE', #152 ) ;
#215 = CALENDAR_DATE ( 2024, 23, 9 ) ;
#216 = EDGE_LOOP ( 'NONE', ( #153, #181, #325, #16 ) ) ;
#217 = APPROVAL_DATE_TIME ( #81, #34 ) ;
#218 = DATE_AND_TIME ( #215, #50 ) ;
#219 =( NAMED_UNIT ( * ) SI_UNIT ( $, .STERADIAN. ) SOLID_ANGLE_UNIT ( ) );
#220 = DIRECTION ( 'NONE',  ( 0.000000000000000000, 0.000000000000000000, 1.000000000000000000 ) ) ;
#221 = FACE_OUTER_BOUND ( 'NONE', #164, .T. ) ;
#222 = CC_DESIGN_SECURITY_CLASSIFICATION ( #345, ( #334 ) ) ;
#223 = DIRECTION ( 'NONE',  ( 0.000000000000000000, 0.000000000000000000, 1.000000000000000000 ) ) ;
#224 = CARTESIAN_POINT ( 'NONE',  ( -3.000000000000002665, 0.000000000000000000, 0.000000000000000000 ) ) ;
#225 = EDGE_CURVE ( 'NONE', #238, #99, #115, .T. ) ;
#226 = LINE ( 'NONE', #338, #227 ) ;
#227 = VECTOR ( 'NONE', #92, 1000.000000000000114 ) ;
#228 = CC_DESIGN_APPROVAL ( #34, ( #163 ) ) ;
#229 = CARTESIAN_POINT ( 'NONE',  ( -154.8395502972293230, 0.000000000000000000, 0.000000000000000000 ) ) ;
#230 = EDGE_CURVE ( 'NONE', #238, #101, #211, .T. ) ;
#231 = LINE ( 'NONE', #346, #69 ) ;
#232 = ORIENTED_EDGE ( 'NONE', *, *, #304, .F. ) ;
#233 = CIRCLE ( 'NONE', #277, 1.000000000000000888 ) ;
#234 = AXIS2_PLACEMENT_3D ( 'NONE', #229, #35, #179 ) ;
#235 = DIRECTION ( 'NONE',  ( -1.000000000000000000, -0.000000000000000000, -0.000000000000000000 ) ) ;
#236 = EDGE_LOOP ( 'NONE', ( #343, #77 ) ) ;
#237 = ORIENTED_EDGE ( 'NONE', *, *, #94, .T. ) ;
#238 = VERTEX_POINT ( 'NONE', #65 ) ;
#239 = PERSON_AND_ORGANIZATION_ROLE ( 'creator' ) ;
#240 = AXIS2_PLACEMENT_3D ( 'NONE', #15, #235, #12 ) ;
#241 = ORIENTED_EDGE ( 'NONE', *, *, #10, .T. ) ;
#242 = PERSON_AND_ORGANIZATION ( #257, #259 ) ;
#243 = ADVANCED_FACE ( 'NONE', ( #96 ), #174, .T. ) ;
#244 = CIRCLE ( 'NONE', #105, 1.000000000000000888 ) ;
#245 = CARTESIAN_POINT ( 'NONE',  ( -1.622657008870193184E-15, 13.50000000000001954, 0.000000000000000000 ) ) ;
#246 = CARTESIAN_POINT ( 'NONE',  ( 0.000000000000000000, 0.000000000000000000, 0.000000000000000000 ) ) ;
#247 = CARTESIAN_POINT ( 'NONE',  ( 0.000000000000000000, 0.000000000000000000, 15.00000000000001776 ) ) ;
#248 = VECTOR ( 'NONE', #209, 1000.000000000000000 ) ;
#249 = CARTESIAN_POINT ( 'NONE',  ( 0.000000000000000000, 0.000000000000000000, 0.000000000000000000 ) ) ;
#250 = CYLINDRICAL_SURFACE ( 'NONE', #344, 13.50000000000001954 ) ;
#251 = DIRECTION ( 'NONE',  ( -1.000000000000000000, -0.000000000000000000, -0.000000000000000000 ) ) ;
#252 = EDGE_CURVE ( 'NONE', #43, #132, #189, .T. ) ;
#253 = PLANE ( 'NONE',  #127 ) ;
#254 = DIRECTION ( 'NONE',  ( -1.000000000000000000, 0.000000000000000000, -0.000000000000000000 ) ) ;
#255 = DIRECTION ( 'NONE',  ( 0.000000000000000000, 0.000000000000000000, 1.000000000000000000 ) ) ;
#256 = EDGE_LOOP ( 'NONE', ( #241, #212, #351, #232 ) ) ;
#257 = PERSON ( 'UNSPECIFIED', 'UNSPECIFIED', 'UNSPECIFIED', ('UNSPECIFIED'), ('UNSPECIFIED'), ('UNSPECIFIED') ) ;
#258 = AXIS2_PLACEMENT_3D ( 'NONE', #287, #201, #274 ) ;
#259 = ORGANIZATION ( 'UNSPECIFIED', 'UNSPECIFIED', '' ) ;
#260 = CARTESIAN_POINT ( 'NONE',  ( 0.000000000000000000, 1.836970198721031955E-15, -15.00000000000001776 ) ) ;
#261 = APPLICATION_CONTEXT ( 'configuration controlled 3d designs of mechanical parts and assemblies' ) ;
#262 = CC_DESIGN_PERSON_AND_ORGANIZATION_ASSIGNMENT ( #135, #321, ( #163 ) ) ;
#263 = ORIENTED_EDGE ( 'NONE', *, *, #167, .F. ) ;
#264 = EDGE_LOOP ( 'NONE', ( #319, #183, #295, #272 ) ) ;
#265 = COORDINATED_UNIVERSAL_TIME_OFFSET ( 1, 0, .AHEAD. ) ;
#266 = ORIENTED_EDGE ( 'NONE', *, *, #342, .F. ) ;
#267 = CC_DESIGN_PERSON_AND_ORGANIZATION_ASSIGNMENT ( #300, #239, ( #334 ) ) ;
#268 = APPROVAL_STATUS ( 'not_yet_approved' ) ;
#269 = AXIS2_PLACEMENT_3D ( 'NONE', #177, #207, #285 ) ;
#270 = SECURITY_CLASSIFICATION_LEVEL ( 'unclassified' ) ;
#271 = CALENDAR_DATE ( 2024, 23, 9 ) ;
#272 = ORIENTED_EDGE ( 'NONE', *, *, #316, .F. ) ;
#273 = CIRCLE ( 'NONE', #26, 15.00000000000001954 ) ;
#274 = DIRECTION ( 'NONE',  ( 0.000000000000000000, 0.000000000000000000, 1.000000000000000000 ) ) ;
#275 = DIRECTION ( 'NONE',  ( -1.000000000000000000, 0.000000000000000000, -0.000000000000000000 ) ) ;
#276 = DIRECTION ( 'NONE',  ( 0.000000000000000000, 0.000000000000000000, 1.000000000000000000 ) ) ;
#277 = AXIS2_PLACEMENT_3D ( 'NONE', #205, #42, #310 ) ;
#278 = APPROVAL_PERSON_ORGANIZATION ( #160, #34, #104 ) ;
#279 = DIRECTION ( 'NONE',  ( 0.000000000000000000, 0.000000000000000000, 1.000000000000000000 ) ) ;
#280 = EDGE_CURVE ( 'NONE', #132, #187, #233, .T. ) ;
#281 = DIRECTION ( 'NONE',  ( -1.000000000000000000, -0.000000000000000000, -0.000000000000000000 ) ) ;
#282 = ORIENTED_EDGE ( 'NONE', *, *, #194, .F. ) ;
#283 = CIRCLE ( 'NONE', #170, 12.50000000000001954 ) ;
#284 = VECTOR ( 'NONE', #286, 1000.000000000000000 ) ;
#285 = DIRECTION ( 'NONE',  ( 0.000000000000000000, 0.000000000000000000, 1.000000000000000000 ) ) ;
#286 = DIRECTION ( 'NONE',  ( -1.000000000000000000, -0.000000000000000000, -0.000000000000000000 ) ) ;
#287 = CARTESIAN_POINT ( 'NONE',  ( 7.000000000000561329, 0.000000000000000000, 0.000000000000000000 ) ) ;
#288 = ADVANCED_FACE ( 'NONE', ( #154 ), #253, .F. ) ;
#289 = DIRECTION ( 'NONE',  ( 0.000000000000000000, 0.000000000000000000, 1.000000000000000000 ) ) ;
#290 = ORIENTED_EDGE ( 'NONE', *, *, #191, .F. ) ;
#291 = TOROIDAL_SURFACE ( 'NONE', #176, 14.00000000000001954, 1.000000000000000444 ) ;
#292 = DATE_TIME_ROLE ( 'creation_date' ) ;
#293 = ORIENTED_EDGE ( 'NONE', *, *, #49, .F. ) ;
#294 = CALENDAR_DATE ( 2024, 23, 9 ) ;
#295 = ORIENTED_EDGE ( 'NONE', *, *, #66, .F. ) ;
#296 = ADVANCED_FACE ( 'NONE', ( #122 ), #61, .T. ) ;
#297 = PERSON_AND_ORGANIZATION ( #257, #259 ) ;
#298 = APPROVAL_STATUS ( 'not_yet_approved' ) ;
#299 = AXIS2_PLACEMENT_3D ( 'NONE', #57, #303, #306 ) ;
#300 = PERSON_AND_ORGANIZATION ( #257, #259 ) ;
#301 = ORIENTED_EDGE ( 'NONE', *, *, #24, .F. ) ;
#302 = DIRECTION ( 'NONE',  ( 0.000000000000000000, 0.000000000000000000, 1.000000000000000000 ) ) ;
#303 = DIRECTION ( 'NONE',  ( 1.000000000000000000, 0.000000000000000000, 0.000000000000000000 ) ) ;
#304 = EDGE_CURVE ( 'NONE', #99, #317, #151, .T. ) ;
#305 = CARTESIAN_POINT ( 'NONE',  ( 7.000000000000561329, 0.000000000000000000, 13.50000000000002132 ) ) ;
#306 = DIRECTION ( 'NONE',  ( 0.000000000000000000, 0.000000000000000000, -1.000000000000000000 ) ) ;
#307 = AXIS2_PLACEMENT_3D ( 'NONE', #224, #28, #220 ) ;
#308 = CYLINDRICAL_SURFACE ( 'NONE', #82, 15.00000000000001954 ) ;
#309 = DESIGN_CONTEXT ( 'detailed design', #261, 'design' ) ;
#310 = DIRECTION ( 'NONE',  ( 0.000000000000000000, 0.000000000000000000, -1.000000000000000000 ) ) ;
#311 = DIRECTION ( 'NONE',  ( -1.000000000000000000, -0.000000000000000000, -0.000000000000000000 ) ) ;
#312 = ORIENTED_EDGE ( 'NONE', *, *, #10, .F. ) ;
#313 = AXIS2_PLACEMENT_3D ( 'NONE', #315, #349, #180 ) ;
#314 = CARTESIAN_POINT ( 'NONE',  ( -2.000000000000001776, 0.000000000000000000, 0.000000000000000000 ) ) ;
#315 = CARTESIAN_POINT ( 'NONE',  ( -154.8395502972293230, 0.000000000000000000, 0.000000000000000000 ) ) ;
#316 = EDGE_CURVE ( 'NONE', #79, #132, #68, .T. ) ;
#317 = VERTEX_POINT ( 'NONE', #72 ) ;
#318 =( NAMED_UNIT ( * ) PLANE_ANGLE_UNIT ( ) SI_UNIT ( $, .RADIAN. ) );
#319 = ORIENTED_EDGE ( 'NONE', *, *, #49, .T. ) ;
#320 = APPROVAL_PERSON_ORGANIZATION ( #84, #52, #22 ) ;
#321 = PERSON_AND_ORGANIZATION_ROLE ( 'creator' ) ;
#322 = EDGE_CURVE ( 'NONE', #214, #187, #27, .T. ) ;
#323 = VERTEX_POINT ( 'NONE', #260 ) ;
#324 = DATE_AND_TIME ( #271, #190 ) ;
#325 = ORIENTED_EDGE ( 'NONE', *, *, #280, .T. ) ;
#326 = DIRECTION ( 'NONE',  ( 1.000000000000000000, 0.000000000000000000, 0.000000000000000000 ) ) ;
#327 = MANIFOLD_SOLID_BREP ( 'Rotation1', #149 ) ;
#328 = AXIS2_PLACEMENT_3D ( 'NONE', #314, #251, #8 ) ;
#329 = APPROVAL_PERSON_ORGANIZATION ( #242, #134, #355 ) ;
#330 = CC_DESIGN_DATE_AND_TIME_ASSIGNMENT ( #110, #292, ( #163 ) ) ;
#331 = CARTESIAN_POINT ( 'NONE',  ( -2.000000000000001776, 0.000000000000000000, 0.000000000000000000 ) ) ;
#332 = FACE_BOUND ( 'NONE', #41, .T. ) ;
#333 = ADVANCED_FACE ( 'NONE', ( #131 ), #197, .T. ) ;
#334 = PRODUCT_DEFINITION_FORMATION_WITH_SPECIFIED_SOURCE ( 'ANY', '', #158, .NOT_KNOWN. ) ;
#335 = DIRECTION ( 'NONE',  ( -0.000000000000000000, 0.000000000000000000, 1.000000000000000000 ) ) ;
#336 = ORIENTED_EDGE ( 'NONE', *, *, #225, .T. ) ;
#337 = DIRECTION ( 'NONE',  ( 0.000000000000000000, 0.000000000000000000, 1.000000000000000000 ) ) ;
#338 = CARTESIAN_POINT ( 'NONE',  ( 8.000000000000561329, 1.530808498934193888E-15, -12.50000000000001954 ) ) ;
#339 = DIRECTION ( 'NONE',  ( 0.000000000000000000, 0.000000000000000000, 1.000000000000000000 ) ) ;
#340 = DIRECTION ( 'NONE',  ( -1.000000000000000000, -0.000000000000000000, -0.000000000000000000 ) ) ;
#341 = DIRECTION ( 'NONE',  ( 0.000000000000000000, 0.000000000000000000, 1.000000000000000000 ) ) ;
#342 = EDGE_CURVE ( 'NONE', #323, #43, #126, .T. ) ;
#343 = ORIENTED_EDGE ( 'NONE', *, *, #24, .T. ) ;
#344 = AXIS2_PLACEMENT_3D ( 'NONE', #169, #32, #147 ) ;
#345 = SECURITY_CLASSIFICATION ( '', '', #270 ) ;
#346 = CARTESIAN_POINT ( 'NONE',  ( 8.000000000000561329, 0.000000000000000000, 12.50000000000001954 ) ) ;
#347 = ORIENTED_EDGE ( 'NONE', *, *, #194, .T. ) ;
#348 = DIRECTION ( 'NONE',  ( -1.000000000000000000, -0.000000000000000000, -0.000000000000000000 ) ) ;
#349 = DIRECTION ( 'NONE',  ( -1.000000000000000000, -0.000000000000000000, -0.000000000000000000 ) ) ;
#350 = MECHANICAL_CONTEXT ( 'NONE', #113, 'mechanical' ) ;
#351 = ORIENTED_EDGE ( 'NONE', *, *, #143, .F. ) ;
#352 = AXIS2_PLACEMENT_3D ( 'NONE', #116, #31, #223 ) ;
#353 = PERSON_AND_ORGANIZATION_ROLE ( 'design_supplier' ) ;
#354 = ORIENTED_EDGE ( 'NONE', *, *, #143, .T. ) ;
#355 = APPROVAL_ROLE ( '' ) ;
#356 = PERSON_AND_ORGANIZATION_ROLE ( 'design_owner' ) ;
#357 = CIRCLE ( 'NONE', #145, 13.50000000000001954 ) ;
ENDSEC;
END-ISO-10303-21;
