ISO-10303-21;
HEADER;
FILE_DESCRIPTION (( 'STEP AP203' ),
    '1' );
FILE_NAME ('3D_GR1442_40 x 4_188741160.STEP',
    '2024-10-22T15:32:10',
    ( '' ),
    ( '' ),
    'SwSTEP 2.0',
    'SolidWorks 2023',
    '' );
FILE_SCHEMA (( 'CONFIG_CONTROL_DESIGN' ));
ENDSEC;

DATA;
#1 = DIRECTION ( 'NONE',  ( 1.000000000000000000, 0.000000000000000000, 0.000000000000000000 ) ) ;
#2 = AXIS2_PLACEMENT_3D ( 'NONE', #158, #161, #261 ) ;
#3 = CALENDAR_DATE ( 2024, 22, 10 ) ;
#4 = CC_DESIGN_PERSON_AND_ORGANIZATION_ASSIGNMENT ( #153, #132, ( #252 ) ) ;
#5 = DIRECTION ( 'NONE',  ( 0.000000000000000000, 0.000000000000000000, 1.000000000000000000 ) ) ;
#6 = AXIS2_PLACEMENT_3D ( 'NONE', #267, #206, #63 ) ;
#7 = ORIENTED_EDGE ( 'NONE', *, *, #277, .T. ) ;
#8 = ORIENTED_EDGE ( 'NONE', *, *, #130, .T. ) ;
#9 = EDGE_LOOP ( 'NONE', ( #204, #43, #7, #73 ) ) ;
#10 = CIRCLE ( 'NONE', #192, 19.75000000000000000 ) ;
#11 = EDGE_CURVE ( 'NONE', #135, #243, #265, .T. ) ;
#12 = FACE_OUTER_BOUND ( 'NONE', #28, .T. ) ;
#13 = DIRECTION ( 'NONE',  ( 0.000000000000000000, 1.000000000000000000, 0.000000000000000000 ) ) ;
#14 = CARTESIAN_POINT ( 'NONE',  ( 0.000000000000000000, 0.000000000000000000, 19.75000000000000000 ) ) ;
#15 = DIRECTION ( 'NONE',  ( 1.000000000000000000, -0.000000000000000000, 1.224646799147353207E-16 ) ) ;
#16 = APPROVAL ( #68, 'UNSPECIFIED' ) ;
#17 = DIRECTION ( 'NONE',  ( -0.000000000000000000, -1.000000000000000000, -0.000000000000000000 ) ) ;
#18 = APPROVAL_STATUS ( 'not_yet_approved' ) ;
#19 = APPROVAL ( #171, 'UNSPECIFIED' ) ;
#20 = AXIS2_PLACEMENT_3D ( 'NONE', #272, #184, #163 ) ;
#21 = PERSON_AND_ORGANIZATION ( #185, #95 ) ;
#22 = EDGE_LOOP ( 'NONE', ( #119, #8 ) ) ;
#23 = COORDINATED_UNIVERSAL_TIME_OFFSET ( 1, 0, .AHEAD. ) ;
#24 = CALENDAR_DATE ( 2024, 22, 10 ) ;
#25 = PERSON_AND_ORGANIZATION_ROLE ( 'design_owner' ) ;
#26 = AXIS2_PLACEMENT_3D ( 'NONE', #187, #15, #123 ) ;
#27 = ORIENTED_EDGE ( 'NONE', *, *, #11, .T. ) ;
#28 = EDGE_LOOP ( 'NONE', ( #98, #242, #27, #217 ) ) ;
#29 = SECURITY_CLASSIFICATION ( '', '', #87 ) ;
#30 = ORIENTED_EDGE ( 'NONE', *, *, #168, .F. ) ;
#31 = PLANE ( 'NONE',  #38 ) ;
#32 = ORIENTED_EDGE ( 'NONE', *, *, #188, .T. ) ;
#33 = AXIS2_PLACEMENT_3D ( 'NONE', #249, #167, #250 ) ;
#34 = CARTESIAN_POINT ( 'NONE',  ( 0.000000000000000000, 4.000000000000000000, 0.000000000000000000 ) ) ;
#35 = DIRECTION ( 'NONE',  ( -1.000000000000000000, 0.000000000000000000, 0.000000000000000000 ) ) ;
#36 = ADVANCED_FACE ( 'NONE', ( #266 ), #74, .F. ) ;
#37 = DIRECTION ( 'NONE',  ( 0.000000000000000000, 0.000000000000000000, 1.000000000000000000 ) ) ;
#38 = AXIS2_PLACEMENT_3D ( 'NONE', #55, #136, #221 ) ;
#39 = DIRECTION ( 'NONE',  ( -0.000000000000000000, -1.000000000000000000, -0.000000000000000000 ) ) ;
#40 = CARTESIAN_POINT ( 'NONE',  ( 0.000000000000000000, 4.000000000000000000, 19.75000000000000000 ) ) ;
#41 = ADVANCED_FACE ( 'NONE', ( #245 ), #31, .T. ) ;
#42 = COORDINATED_UNIVERSAL_TIME_OFFSET ( 1, 0, .AHEAD. ) ;
#43 = ORIENTED_EDGE ( 'NONE', *, *, #188, .F. ) ;
#44 = CIRCLE ( 'NONE', #275, 19.75000000000000000 ) ;
#45 = DATE_AND_TIME ( #92, #122 ) ;
#46 = ADVANCED_FACE ( 'NONE', ( #120 ), #115, .T. ) ;
#47 = DATE_AND_TIME ( #24, #269 ) ;
#48 = CIRCLE ( 'NONE', #199, 20.00000000000000000 ) ;
#49 = CARTESIAN_POINT ( 'NONE',  ( 0.000000000000000000, 0.2500000000000002220, 0.000000000000000000 ) ) ;
#50 = ADVANCED_FACE ( 'NONE', ( #246 ), #104, .T. ) ;
#51 = SHAPE_DEFINITION_REPRESENTATION ( #113, #117 ) ;
#52 = EDGE_LOOP ( 'NONE', ( #94, #157, #71, #177 ) ) ;
#53 = EDGE_LOOP ( 'NONE', ( #219, #159, #121, #151 ) ) ;
#54 = LOCAL_TIME ( 17, 32, 10.00000000000000000, #42 ) ;
#55 = CARTESIAN_POINT ( 'NONE',  ( 0.000000000000000000, 4.000000000000000000, 0.000000000000000000 ) ) ;
#56 = EDGE_CURVE ( 'NONE', #141, #179, #70, .T. ) ;
#57 = ORIENTED_EDGE ( 'NONE', *, *, #238, .T. ) ;
#58 = DIRECTION ( 'NONE',  ( 0.000000000000000000, 0.000000000000000000, 1.000000000000000000 ) ) ;
#59 = CARTESIAN_POINT ( 'NONE',  ( 0.000000000000000000, 0.2500000000000002220, -20.00000000000000000 ) ) ;
#60 = DIRECTION ( 'NONE',  ( -0.000000000000000000, -1.000000000000000000, -0.000000000000000000 ) ) ;
#61 = DIRECTION ( 'NONE',  ( 0.000000000000000000, 1.000000000000000000, 0.000000000000000000 ) ) ;
#62 = AXIS2_PLACEMENT_3D ( 'NONE', #114, #198, #5 ) ;
#63 = DIRECTION ( 'NONE',  ( 0.000000000000000000, 0.000000000000000000, 1.000000000000000000 ) ) ;
#64 = PERSON_AND_ORGANIZATION_ROLE ( 'design_supplier' ) ;
#65 = AXIS2_PLACEMENT_3D ( 'NONE', #49, #178, #264 ) ;
#66 = CALENDAR_DATE ( 2024, 22, 10 ) ;
#67 = APPROVAL ( #18, 'UNSPECIFIED' ) ;
#68 = APPROVAL_STATUS ( 'not_yet_approved' ) ;
#69 = COORDINATED_UNIVERSAL_TIME_OFFSET ( 1, 0, .AHEAD. ) ;
#70 = CIRCLE ( 'NONE', #90, 0.2500000000000002220 ) ;
#71 = ORIENTED_EDGE ( 'NONE', *, *, #93, .F. ) ;
#72 = DIRECTION ( 'NONE',  ( 1.224646799147349509E-16, 0.000000000000000000, -1.000000000000000000 ) ) ;
#73 = ORIENTED_EDGE ( 'NONE', *, *, #155, .F. ) ;
#74 = PLANE ( 'NONE',  #2 ) ;
#75 = AXIS2_PLACEMENT_3D ( 'NONE', #225, #35, #124 ) ;
#76 = CARTESIAN_POINT ( 'NONE',  ( 0.000000000000000000, 3.750000000000000000, 0.000000000000000000 ) ) ;
#77 = DIRECTION ( 'NONE',  ( 0.000000000000000000, 0.000000000000000000, 1.000000000000000000 ) ) ;
#78 = DIRECTION ( 'NONE',  ( -0.000000000000000000, -1.000000000000000000, -0.000000000000000000 ) ) ;
#79 = EDGE_CURVE ( 'NONE', #141, #180, #248, .T. ) ;
#80 = CIRCLE ( 'NONE', #139, 20.00000000000000000 ) ;
#81 = DIRECTION ( 'NONE',  ( -0.000000000000000000, -1.000000000000000000, -0.000000000000000000 ) ) ;
#82 = CYLINDRICAL_SURFACE ( 'NONE', #222, 20.00000000000000000 ) ;
#83 = CARTESIAN_POINT ( 'NONE',  ( 0.000000000000000000, 4.000000000000000000, 0.000000000000000000 ) ) ;
#84 = UNCERTAINTY_MEASURE_WITH_UNIT (LENGTH_MEASURE( 1.000000000000000082E-05 ), #154, 'distance_accuracy_value', 'NONE');
#85 = CC_DESIGN_APPROVAL ( #19, ( #252 ) ) ;
#86 = PERSON_AND_ORGANIZATION ( #185, #95 ) ;
#87 = SECURITY_CLASSIFICATION_LEVEL ( 'unclassified' ) ;
#88 =( NAMED_UNIT ( * ) PLANE_ANGLE_UNIT ( ) SI_UNIT ( $, .RADIAN. ) );
#89 = CC_DESIGN_DATE_AND_TIME_ASSIGNMENT ( #45, #255, ( #252 ) ) ;
#90 = AXIS2_PLACEMENT_3D ( 'NONE', #216, #96, #72 ) ;
#91 = DIRECTION ( 'NONE',  ( 0.000000000000000000, 0.000000000000000000, 1.000000000000000000 ) ) ;
#92 = CALENDAR_DATE ( 2024, 22, 10 ) ;
#93 = EDGE_CURVE ( 'NONE', #140, #179, #44, .T. ) ;
#94 = ORIENTED_EDGE ( 'NONE', *, *, #79, .F. ) ;
#95 = ORGANIZATION ( 'UNSPECIFIED', 'UNSPECIFIED', '' ) ;
#96 = DIRECTION ( 'NONE',  ( 1.000000000000000000, -0.000000000000000000, 1.224646799147353207E-16 ) ) ;
#97 = ORIENTED_EDGE ( 'NONE', *, *, #191, .T. ) ;
#98 = ORIENTED_EDGE ( 'NONE', *, *, #79, .T. ) ;
#99 = DIRECTION ( 'NONE',  ( 0.000000000000000000, 1.000000000000000000, 0.000000000000000000 ) ) ;
#100 = DIRECTION ( 'NONE',  ( 0.000000000000000000, 0.000000000000000000, 1.000000000000000000 ) ) ;
#101 = EDGE_CURVE ( 'NONE', #180, #140, #152, .T. ) ;
#102 = FACE_OUTER_BOUND ( 'NONE', #201, .T. ) ;
#103 = CARTESIAN_POINT ( 'NONE',  ( 0.000000000000000000, 4.000000000000000000, 0.000000000000000000 ) ) ;
#104 = TOROIDAL_SURFACE ( 'NONE', #62, 19.75000000000000000, 0.2500000000000000000 ) ;
#105 = CARTESIAN_POINT ( 'NONE',  ( 0.000000000000000000, 3.750000000000000000, -20.00000000000000000 ) ) ;
#106 = DIRECTION ( 'NONE',  ( -1.000000000000000000, 0.000000000000000000, 0.000000000000000000 ) ) ;
#107 = EDGE_CURVE ( 'NONE', #241, #243, #262, .T. ) ;
#108 = AXIS2_PLACEMENT_3D ( 'NONE', #76, #99, #142 ) ;
#109 = CALENDAR_DATE ( 2024, 22, 10 ) ;
#110 = PERSON_AND_ORGANIZATION ( #185, #95 ) ;
#111 = APPROVAL_DATE_TIME ( #276, #19 ) ;
#112 = APPROVAL_PERSON_ORGANIZATION ( #259, #16, #236 ) ;
#113 = PRODUCT_DEFINITION_SHAPE ( 'NONE', 'NONE',  #252 ) ;
#114 = CARTESIAN_POINT ( 'NONE',  ( 0.000000000000000000, 0.2500000000000002220, 0.000000000000000000 ) ) ;
#115 = TOROIDAL_SURFACE ( 'NONE', #108, 19.75000000000000000, 0.2500000000000000000 ) ;
#116 = VERTEX_POINT ( 'NONE', #14 ) ;
#117 = ADVANCED_BREP_SHAPE_REPRESENTATION ( '3D_GR1442_40 x 4_188741160', ( #165, #211 ), #227 ) ;
#118 = EDGE_CURVE ( 'NONE', #180, #141, #48, .T. ) ;
#119 = ORIENTED_EDGE ( 'NONE', *, *, #93, .T. ) ;
#120 = FACE_OUTER_BOUND ( 'NONE', #52, .T. ) ;
#121 = ORIENTED_EDGE ( 'NONE', *, *, #101, .T. ) ;
#122 = LOCAL_TIME ( 17, 32, 10.00000000000000000, #23 ) ;
#123 = DIRECTION ( 'NONE',  ( 1.224646799147349509E-16, 0.000000000000000000, -1.000000000000000000 ) ) ;
#124 = DIRECTION ( 'NONE',  ( 0.000000000000000000, 0.000000000000000000, 1.000000000000000000 ) ) ;
#125 = CIRCLE ( 'NONE', #181, 19.75000000000000000 ) ;
#126 = LINE ( 'NONE', #228, #193 ) ;
#127 = CARTESIAN_POINT ( 'NONE',  ( 2.433985513305364619E-15, 0.000000000000000000, -19.75000000000000000 ) ) ;
#128 =( NAMED_UNIT ( * ) SI_UNIT ( $, .STERADIAN. ) SOLID_ANGLE_UNIT ( ) );
#129 = APPROVAL_PERSON_ORGANIZATION ( #86, #19, #173 ) ;
#130 = EDGE_CURVE ( 'NONE', #179, #140, #10, .T. ) ;
#131 = PRODUCT ( '3D_GR1442_40 x 4_188741160', '3D_GR1442_40 x 4_188741160', '', ( #256 ) ) ;
#132 = PERSON_AND_ORGANIZATION_ROLE ( 'creator' ) ;
#133 = COORDINATED_UNIVERSAL_TIME_OFFSET ( 1, 0, .AHEAD. ) ;
#134 = PRODUCT_DEFINITION_FORMATION_WITH_SPECIFIED_SOURCE ( 'ANY', '', #131, .NOT_KNOWN. ) ;
#135 = VERTEX_POINT ( 'NONE', #229 ) ;
#136 = DIRECTION ( 'NONE',  ( 0.000000000000000000, 1.000000000000000000, 0.000000000000000000 ) ) ;
#137 = ORIENTED_EDGE ( 'NONE', *, *, #11, .F. ) ;
#138 = CC_DESIGN_PERSON_AND_ORGANIZATION_ASSIGNMENT ( #210, #25, ( #131 ) ) ;
#139 = AXIS2_PLACEMENT_3D ( 'NONE', #251, #223, #100 ) ;
#140 = VERTEX_POINT ( 'NONE', #40 ) ;
#141 = VERTEX_POINT ( 'NONE', #105 ) ;
#142 = DIRECTION ( 'NONE',  ( 0.000000000000000000, 0.000000000000000000, 1.000000000000000000 ) ) ;
#143 = CC_DESIGN_DATE_AND_TIME_ASSIGNMENT ( #47, #209, ( #29 ) ) ;
#144 = TOROIDAL_SURFACE ( 'NONE', #174, 19.75000000000000000, 0.2500000000000000000 ) ;
#145 = DIRECTION ( 'NONE',  ( 0.000000000000000000, 0.000000000000000000, 1.000000000000000000 ) ) ;
#146 = DIRECTION ( 'NONE',  ( 0.000000000000000000, 0.000000000000000000, -1.000000000000000000 ) ) ;
#147 = CARTESIAN_POINT ( 'NONE',  ( 2.449293598294706513E-15, 4.000000000000000000, 20.00000000000000000 ) ) ;
#148 = DIRECTION ( 'NONE',  ( 0.000000000000000000, 0.000000000000000000, 1.000000000000000000 ) ) ;
#149 = CLOSED_SHELL ( 'NONE', ( #46, #224, #234, #273, #41, #36, #50, #220 ) ) ;
#150 = CARTESIAN_POINT ( 'NONE',  ( 0.000000000000000000, 0.000000000000000000, 0.000000000000000000 ) ) ;
#151 = ORIENTED_EDGE ( 'NONE', *, *, #130, .F. ) ;
#152 = CIRCLE ( 'NONE', #218, 0.2500000000000002220 ) ;
#153 = PERSON_AND_ORGANIZATION ( #185, #95 ) ;
#154 =( LENGTH_UNIT ( ) NAMED_UNIT ( * ) SI_UNIT ( .MILLI., .METRE. ) );
#155 = EDGE_CURVE ( 'NONE', #243, #135, #80, .T. ) ;
#156 = VECTOR ( 'NONE', #39, 1000.000000000000000 ) ;
#157 = ORIENTED_EDGE ( 'NONE', *, *, #56, .T. ) ;
#158 = CARTESIAN_POINT ( 'NONE',  ( 0.000000000000000000, 0.000000000000000000, 0.000000000000000000 ) ) ;
#159 = ORIENTED_EDGE ( 'NONE', *, *, #118, .F. ) ;
#160 = TOROIDAL_SURFACE ( 'NONE', #20, 19.75000000000000000, 0.2500000000000000000 ) ;
#161 = DIRECTION ( 'NONE',  ( 0.000000000000000000, 1.000000000000000000, 0.000000000000000000 ) ) ;
#162 = ORIENTED_EDGE ( 'NONE', *, *, #107, .T. ) ;
#163 = DIRECTION ( 'NONE',  ( 0.000000000000000000, 0.000000000000000000, 1.000000000000000000 ) ) ;
#164 = CC_DESIGN_APPROVAL ( #16, ( #134 ) ) ;
#165 = MANIFOLD_SOLID_BREP ( 'Verrundung1', #149 ) ;
#166 = FACE_OUTER_BOUND ( 'NONE', #53, .T. ) ;
#167 = DIRECTION ( 'NONE',  ( -0.000000000000000000, -1.000000000000000000, -0.000000000000000000 ) ) ;
#168 = EDGE_CURVE ( 'NONE', #180, #135, #190, .T. ) ;
#169 = DIRECTION ( 'NONE',  ( 0.000000000000000000, 0.000000000000000000, -1.000000000000000000 ) ) ;
#170 = DIRECTION ( 'NONE',  ( 0.000000000000000000, 1.000000000000000000, 0.000000000000000000 ) ) ;
#171 = APPROVAL_STATUS ( 'not_yet_approved' ) ;
#172 = APPLICATION_PROTOCOL_DEFINITION ( 'international standard', 'config_control_design', 1994, #278 ) ;
#173 = APPROVAL_ROLE ( '' ) ;
#174 = AXIS2_PLACEMENT_3D ( 'NONE', #226, #61, #148 ) ;
#175 = CC_DESIGN_PERSON_AND_ORGANIZATION_ASSIGNMENT ( #110, #260, ( #134 ) ) ;
#176 = APPROVAL_DATE_TIME ( #195, #16 ) ;
#177 = ORIENTED_EDGE ( 'NONE', *, *, #101, .F. ) ;
#178 = DIRECTION ( 'NONE',  ( 0.000000000000000000, 1.000000000000000000, 0.000000000000000000 ) ) ;
#179 = VERTEX_POINT ( 'NONE', #189 ) ;
#180 = VERTEX_POINT ( 'NONE', #274 ) ;
#181 = AXIS2_PLACEMENT_3D ( 'NONE', #208, #81, #77 ) ;
#182 = ORIENTED_EDGE ( 'NONE', *, *, #118, .T. ) ;
#183 = DIRECTION ( 'NONE',  ( 0.000000000000000000, 0.000000000000000000, 1.000000000000000000 ) ) ;
#184 = DIRECTION ( 'NONE',  ( 0.000000000000000000, 1.000000000000000000, 0.000000000000000000 ) ) ;
#185 = PERSON ( 'UNSPECIFIED', 'UNSPECIFIED', 'UNSPECIFIED', ('UNSPECIFIED'), ('UNSPECIFIED'), ('UNSPECIFIED') ) ;
#186 = APPROVAL_PERSON_ORGANIZATION ( #235, #67, #231 ) ;
#187 = CARTESIAN_POINT ( 'NONE',  ( 2.418677428316022726E-15, 0.2500000000000002220, -19.75000000000000000 ) ) ;
#188 = EDGE_CURVE ( 'NONE', #116, #241, #125, .T. ) ;
#189 = CARTESIAN_POINT ( 'NONE',  ( 2.433985513305364619E-15, 4.000000000000000000, -19.75000000000000000 ) ) ;
#190 = LINE ( 'NONE', #147, #156 ) ;
#191 = EDGE_CURVE ( 'NONE', #241, #116, #257, .T. ) ;
#192 = AXIS2_PLACEMENT_3D ( 'NONE', #205, #13, #37 ) ;
#193 = VECTOR ( 'NONE', #253, 1000.000000000000000 ) ;
#194 = ORIENTED_EDGE ( 'NONE', *, *, #191, .F. ) ;
#195 = DATE_AND_TIME ( #3, #240 ) ;
#196 = CC_DESIGN_APPROVAL ( #67, ( #29 ) ) ;
#197 = COORDINATED_UNIVERSAL_TIME_OFFSET ( 1, 0, .AHEAD. ) ;
#198 = DIRECTION ( 'NONE',  ( 0.000000000000000000, 1.000000000000000000, 0.000000000000000000 ) ) ;
#199 = AXIS2_PLACEMENT_3D ( 'NONE', #270, #60, #145 ) ;
#200 = EDGE_LOOP ( 'NONE', ( #32, #97 ) ) ;
#201 = EDGE_LOOP ( 'NONE', ( #194, #162, #137, #239 ) ) ;
#202 = EDGE_LOOP ( 'NONE', ( #30, #182, #57, #263 ) ) ;
#203 = LOCAL_TIME ( 17, 32, 10.00000000000000000, #133 ) ;
#204 = ORIENTED_EDGE ( 'NONE', *, *, #107, .F. ) ;
#205 = CARTESIAN_POINT ( 'NONE',  ( 0.000000000000000000, 4.000000000000000000, 0.000000000000000000 ) ) ;
#206 = DIRECTION ( 'NONE',  ( -0.000000000000000000, -1.000000000000000000, -0.000000000000000000 ) ) ;
#207 = CARTESIAN_POINT ( 'NONE',  ( 0.000000000000000000, 3.750000000000000000, 19.75000000000000000 ) ) ;
#208 = CARTESIAN_POINT ( 'NONE',  ( 0.000000000000000000, 0.000000000000000000, 0.000000000000000000 ) ) ;
#209 = DATE_TIME_ROLE ( 'classification_date' ) ;
#210 = PERSON_AND_ORGANIZATION ( #185, #95 ) ;
#211 = AXIS2_PLACEMENT_3D ( 'NONE', #150, #91, #1 ) ;
#212 = PERSON_AND_ORGANIZATION ( #185, #95 ) ;
#213 = PERSON_AND_ORGANIZATION_ROLE ( 'classification_officer' ) ;
#214 = CC_DESIGN_PERSON_AND_ORGANIZATION_ASSIGNMENT ( #21, #64, ( #134 ) ) ;
#215 = CIRCLE ( 'NONE', #75, 0.2500000000000002220 ) ;
#216 = CARTESIAN_POINT ( 'NONE',  ( 2.418677428316022726E-15, 3.750000000000000000, -19.75000000000000000 ) ) ;
#217 = ORIENTED_EDGE ( 'NONE', *, *, #238, .F. ) ;
#218 = AXIS2_PLACEMENT_3D ( 'NONE', #207, #106, #183 ) ;
#219 = ORIENTED_EDGE ( 'NONE', *, *, #56, .F. ) ;
#220 = ADVANCED_FACE ( 'NONE', ( #166 ), #144, .T. ) ;
#221 = DIRECTION ( 'NONE',  ( 0.000000000000000000, -0.000000000000000000, 1.000000000000000000 ) ) ;
#222 = AXIS2_PLACEMENT_3D ( 'NONE', #83, #17, #169 ) ;
#223 = DIRECTION ( 'NONE',  ( 0.000000000000000000, 1.000000000000000000, 0.000000000000000000 ) ) ;
#224 = ADVANCED_FACE ( 'NONE', ( #102 ), #160, .T. ) ;
#225 = CARTESIAN_POINT ( 'NONE',  ( 0.000000000000000000, 0.2500000000000002220, 19.75000000000000000 ) ) ;
#226 = CARTESIAN_POINT ( 'NONE',  ( 0.000000000000000000, 3.750000000000000000, 0.000000000000000000 ) ) ;
#227 =( GEOMETRIC_REPRESENTATION_CONTEXT ( 3 ) GLOBAL_UNCERTAINTY_ASSIGNED_CONTEXT ( ( #84 ) ) GLOBAL_UNIT_ASSIGNED_CONTEXT ( ( #154, #88, #128 ) ) REPRESENTATION_CONTEXT ( 'NONE', 'WORKASPACE' ) );
#228 = CARTESIAN_POINT ( 'NONE',  ( 0.000000000000000000, 4.000000000000000000, -20.00000000000000000 ) ) ;
#229 = CARTESIAN_POINT ( 'NONE',  ( 2.449293598294706513E-15, 0.2500000000000002220, 20.00000000000000000 ) ) ;
#230 = CC_DESIGN_PERSON_AND_ORGANIZATION_ASSIGNMENT ( #212, #213, ( #29 ) ) ;
#231 = APPROVAL_ROLE ( '' ) ;
#232 = APPROVAL_DATE_TIME ( #279, #67 ) ;
#233 = AXIS2_PLACEMENT_3D ( 'NONE', #34, #78, #146 ) ;
#234 = ADVANCED_FACE ( 'NONE', ( #12 ), #82, .T. ) ;
#235 = PERSON_AND_ORGANIZATION ( #185, #95 ) ;
#236 = APPROVAL_ROLE ( '' ) ;
#237 = APPLICATION_PROTOCOL_DEFINITION ( 'international standard', 'config_control_design', 1994, #271 ) ;
#238 = EDGE_CURVE ( 'NONE', #141, #243, #126, .T. ) ;
#239 = ORIENTED_EDGE ( 'NONE', *, *, #277, .F. ) ;
#240 = LOCAL_TIME ( 17, 32, 10.00000000000000000, #197 ) ;
#241 = VERTEX_POINT ( 'NONE', #127 ) ;
#242 = ORIENTED_EDGE ( 'NONE', *, *, #168, .T. ) ;
#243 = VERTEX_POINT ( 'NONE', #59 ) ;
#244 = PRODUCT_RELATED_PRODUCT_CATEGORY ( 'detail', '', ( #131 ) ) ;
#245 = FACE_OUTER_BOUND ( 'NONE', #22, .T. ) ;
#246 = FACE_OUTER_BOUND ( 'NONE', #9, .T. ) ;
#247 = FACE_OUTER_BOUND ( 'NONE', #202, .T. ) ;
#248 = CIRCLE ( 'NONE', #6, 20.00000000000000000 ) ;
#249 = CARTESIAN_POINT ( 'NONE',  ( 0.000000000000000000, 0.000000000000000000, 0.000000000000000000 ) ) ;
#250 = DIRECTION ( 'NONE',  ( 0.000000000000000000, 0.000000000000000000, 1.000000000000000000 ) ) ;
#251 = CARTESIAN_POINT ( 'NONE',  ( 0.000000000000000000, 0.2500000000000002220, 0.000000000000000000 ) ) ;
#252 = PRODUCT_DEFINITION ( 'UNKNOWN', '', #134, #254 ) ;
#253 = DIRECTION ( 'NONE',  ( -0.000000000000000000, -1.000000000000000000, -0.000000000000000000 ) ) ;
#254 = DESIGN_CONTEXT ( 'detailed design', #271, 'design' ) ;
#255 = DATE_TIME_ROLE ( 'creation_date' ) ;
#256 = MECHANICAL_CONTEXT ( 'NONE', #278, 'mechanical' ) ;
#257 = CIRCLE ( 'NONE', #33, 19.75000000000000000 ) ;
#258 = CC_DESIGN_SECURITY_CLASSIFICATION ( #29, ( #134 ) ) ;
#259 = PERSON_AND_ORGANIZATION ( #185, #95 ) ;
#260 = PERSON_AND_ORGANIZATION_ROLE ( 'creator' ) ;
#261 = DIRECTION ( 'NONE',  ( 0.000000000000000000, -0.000000000000000000, 1.000000000000000000 ) ) ;
#262 = CIRCLE ( 'NONE', #26, 0.2500000000000002220 ) ;
#263 = ORIENTED_EDGE ( 'NONE', *, *, #155, .T. ) ;
#264 = DIRECTION ( 'NONE',  ( 0.000000000000000000, 0.000000000000000000, 1.000000000000000000 ) ) ;
#265 = CIRCLE ( 'NONE', #65, 20.00000000000000000 ) ;
#266 = FACE_OUTER_BOUND ( 'NONE', #200, .T. ) ;
#267 = CARTESIAN_POINT ( 'NONE',  ( 0.000000000000000000, 3.750000000000000000, 0.000000000000000000 ) ) ;
#268 = CYLINDRICAL_SURFACE ( 'NONE', #233, 20.00000000000000000 ) ;
#269 = LOCAL_TIME ( 17, 32, 10.00000000000000000, #69 ) ;
#270 = CARTESIAN_POINT ( 'NONE',  ( 0.000000000000000000, 3.750000000000000000, 0.000000000000000000 ) ) ;
#271 = APPLICATION_CONTEXT ( 'configuration controlled 3d designs of mechanical parts and assemblies' ) ;
#272 = CARTESIAN_POINT ( 'NONE',  ( 0.000000000000000000, 0.2500000000000002220, 0.000000000000000000 ) ) ;
#273 = ADVANCED_FACE ( 'NONE', ( #247 ), #268, .T. ) ;
#274 = CARTESIAN_POINT ( 'NONE',  ( 2.449293598294706513E-15, 3.750000000000000000, 20.00000000000000000 ) ) ;
#275 = AXIS2_PLACEMENT_3D ( 'NONE', #103, #170, #58 ) ;
#276 = DATE_AND_TIME ( #66, #203 ) ;
#277 = EDGE_CURVE ( 'NONE', #116, #135, #215, .T. ) ;
#278 = APPLICATION_CONTEXT ( 'configuration controlled 3d designs of mechanical parts and assemblies' ) ;
#279 = DATE_AND_TIME ( #109, #54 ) ;
ENDSEC;
END-ISO-10303-21;
