ISO-10303-21;
HEADER;
FILE_DESCRIPTION(('STEP AP214'),'1');
FILE_NAME('V-Boerdel-DN100.stp','2023-07-13T07:46:41',(' '),(' '),'Spatial InterOp 3D',' ',' ');
FILE_SCHEMA(('automotive_design'));
ENDSEC;
DATA;
#1=MECHANICAL_DESIGN_GEOMETRIC_PRESENTATION_REPRESENTATION(' ',(#10,#11,#12,#13,#14,#15,#16,#17,#18,#19,#20,#21,#22,#23),#6);
#2=PRODUCT_DEFINITION_CONTEXT('',#24,'design');
#3=APPLICATION_PROTOCOL_DEFINITION('INTERNATIONAL STANDARD','automotive_design',1994,#24);
#4=PRODUCT_CATEGORY_RELATIONSHIP('NONE','NONE',#25,#26);
#5=SHAPE_DEFINITION_REPRESENTATION(#27,#28);
#6= (GEOMETRIC_REPRESENTATION_CONTEXT(3)GLOBAL_UNCERTAINTY_ASSIGNED_CONTEXT((#31))GLOBAL_UNIT_ASSIGNED_CONTEXT((#33,#34,#35))REPRESENTATION_CONTEXT('NONE','WORKSPACE'));
#10=STYLED_ITEM('',(#37),#38);
#11=STYLED_ITEM('',(#39),#40);
#12=STYLED_ITEM('',(#41),#42);
#13=STYLED_ITEM('',(#43),#44);
#14=STYLED_ITEM('',(#45),#46);
#15=STYLED_ITEM('',(#47),#48);
#16=STYLED_ITEM('',(#49),#50);
#17=STYLED_ITEM('',(#51),#52);
#18=STYLED_ITEM('',(#53),#54);
#19=STYLED_ITEM('',(#55),#56);
#20=STYLED_ITEM('',(#57),#58);
#21=STYLED_ITEM('',(#59),#60);
#22=STYLED_ITEM('',(#61),#62);
#23=STYLED_ITEM('',(#63),#64);
#24=APPLICATION_CONTEXT(' ');
#25=PRODUCT_CATEGORY('part','NONE');
#26=PRODUCT_RELATED_PRODUCT_CATEGORY('detail',' ',(#65));
#27=PRODUCT_DEFINITION_SHAPE('NONE','NONE',#66);
#28=ADVANCED_BREP_SHAPE_REPRESENTATION('1',(#64,#67),#6);
#31=UNCERTAINTY_MEASURE_WITH_UNIT(LENGTH_MEASURE(1.0E-006),#33,'','');
#33= (CONVERSION_BASED_UNIT('MILLIMETRE',#70)LENGTH_UNIT()NAMED_UNIT(#73));
#34= (NAMED_UNIT(#75)PLANE_ANGLE_UNIT()SI_UNIT($,.RADIAN.));
#35= (NAMED_UNIT(#75)SOLID_ANGLE_UNIT()SI_UNIT($,.STERADIAN.));
#37=PRESENTATION_STYLE_ASSIGNMENT((#81));
#38=ADVANCED_FACE('',(#82),#83,.F.);
#39=PRESENTATION_STYLE_ASSIGNMENT((#84));
#40=ADVANCED_FACE('',(#85),#86,.T.);
#41=PRESENTATION_STYLE_ASSIGNMENT((#87));
#42=ADVANCED_FACE('',(#88),#89,.F.);
#43=PRESENTATION_STYLE_ASSIGNMENT((#90));
#44=ADVANCED_FACE('',(#91),#92,.T.);
#45=PRESENTATION_STYLE_ASSIGNMENT((#93));
#46=ADVANCED_FACE('',(#94),#95,.T.);
#47=PRESENTATION_STYLE_ASSIGNMENT((#96));
#48=ADVANCED_FACE('',(#97),#98,.T.);
#49=PRESENTATION_STYLE_ASSIGNMENT((#99));
#50=ADVANCED_FACE('',(#100,#101),#102,.T.);
#51=PRESENTATION_STYLE_ASSIGNMENT((#103));
#52=ADVANCED_FACE('',(#104),#105,.T.);
#53=PRESENTATION_STYLE_ASSIGNMENT((#106));
#54=ADVANCED_FACE('',(#107),#108,.F.);
#55=PRESENTATION_STYLE_ASSIGNMENT((#109));
#56=ADVANCED_FACE('',(#110,#111),#112,.T.);
#57=PRESENTATION_STYLE_ASSIGNMENT((#113));
#58=ADVANCED_FACE('',(#114),#115,.T.);
#59=PRESENTATION_STYLE_ASSIGNMENT((#116));
#60=ADVANCED_FACE('',(#117),#118,.F.);
#61=PRESENTATION_STYLE_ASSIGNMENT((#119));
#62=ADVANCED_FACE('',(#120,#121),#122,.T.);
#63=PRESENTATION_STYLE_ASSIGNMENT((#123));
#64=MANIFOLD_SOLID_BREP('1',#124);
#65=PRODUCT('1','1','PART-1-DESC',(#125));
#66=PRODUCT_DEFINITION('NONE','NONE',#126,#2);
#67=AXIS2_PLACEMENT_3D('',#127,#128,#129);
#70=LENGTH_MEASURE_WITH_UNIT(LENGTH_MEASURE(1.0),#130);
#73=DIMENSIONAL_EXPONENTS(1.0,0.0,0.0,0.0,0.0,0.0,0.0);
#75=DIMENSIONAL_EXPONENTS(0.0,0.0,0.0,0.0,0.0,0.0,0.0);
#81=SURFACE_STYLE_USAGE(.BOTH.,#131);
#82=FACE_OUTER_BOUND('',#132,.T.);
#83=TOROIDAL_SURFACE('',#133,62.15,5.0);
#84=SURFACE_STYLE_USAGE(.BOTH.,#134);
#85=FACE_OUTER_BOUND('',#135,.T.);
#86=CYLINDRICAL_SURFACE('',#136,57.15);
#87=SURFACE_STYLE_USAGE(.BOTH.,#137);
#88=FACE_OUTER_BOUND('',#138,.T.);
#89=CYLINDRICAL_SURFACE('',#139,53.95);
#90=SURFACE_STYLE_USAGE(.BOTH.,#140);
#91=FACE_OUTER_BOUND('',#141,.T.);
#92=TOROIDAL_SURFACE('',#142,62.95,9.0);
#93=SURFACE_STYLE_USAGE(.BOTH.,#143);
#94=FACE_OUTER_BOUND('',#144,.T.);
#95=CYLINDRICAL_SURFACE('',#145,79.0);
#96=SURFACE_STYLE_USAGE(.BOTH.,#146);
#97=FACE_OUTER_BOUND('',#147,.T.);
#98=CYLINDRICAL_SURFACE('',#148,79.0);
#99=SURFACE_STYLE_USAGE(.BOTH.,#149);
#100=FACE_BOUND('',#150,.T.);
#101=FACE_OUTER_BOUND('',#151,.T.);
#102=PLANE('',#152);
#103=SURFACE_STYLE_USAGE(.BOTH.,#153);
#104=FACE_OUTER_BOUND('',#154,.T.);
#105=TOROIDAL_SURFACE('',#155,62.95,9.0);
#106=SURFACE_STYLE_USAGE(.BOTH.,#156);
#107=FACE_OUTER_BOUND('',#157,.T.);
#108=CYLINDRICAL_SURFACE('',#158,53.95);
#109=SURFACE_STYLE_USAGE(.BOTH.,#159);
#110=FACE_OUTER_BOUND('',#160,.T.);
#111=FACE_BOUND('',#161,.T.);
#112=PLANE('',#162);
#113=SURFACE_STYLE_USAGE(.BOTH.,#163);
#114=FACE_OUTER_BOUND('',#164,.T.);
#115=CYLINDRICAL_SURFACE('',#165,57.15);
#116=SURFACE_STYLE_USAGE(.BOTH.,#166);
#117=FACE_OUTER_BOUND('',#167,.T.);
#118=TOROIDAL_SURFACE('',#168,62.15,5.0);
#119=SURFACE_STYLE_USAGE(.BOTH.,#169);
#120=FACE_OUTER_BOUND('',#170,.T.);
#121=FACE_BOUND('',#171,.T.);
#122=PLANE('',#172);
#123=SURFACE_STYLE_USAGE(.BOTH.,#173);
#124=CLOSED_SHELL('',(#38,#40,#42,#44,#46,#48,#50,#52,#54,#56,#58,#60,#62));
#125=PRODUCT_CONTEXT('',#24,'mechanical');
#126=PRODUCT_DEFINITION_FORMATION_WITH_SPECIFIED_SOURCE(' ','NONE',#65,.NOT_KNOWN.);
#127=CARTESIAN_POINT('',(0.0,0.0,0.0));
#128=DIRECTION('',(0.0,0.0,1.0));
#129=DIRECTION('',(1.0,0.0,0.0));
#130= (NAMED_UNIT(#73)LENGTH_UNIT()SI_UNIT(.MILLI.,.METRE.));
#131=SURFACE_SIDE_STYLE('',(#175));
#132=EDGE_LOOP('',(#176,#177,#178,#179,#180,#181));
#133=AXIS2_PLACEMENT_3D('',#182,#183,#184);
#134=SURFACE_SIDE_STYLE('',(#185));
#135=EDGE_LOOP('',(#186,#187,#188,#189,#190));
#136=AXIS2_PLACEMENT_3D('',#191,#192,#193);
#137=SURFACE_SIDE_STYLE('',(#194));
#138=EDGE_LOOP('',(#195,#196,#197,#198,#199));
#139=AXIS2_PLACEMENT_3D('',#200,#201,#202);
#140=SURFACE_SIDE_STYLE('',(#203));
#141=EDGE_LOOP('',(#204,#205,#206,#207,#208));
#142=AXIS2_PLACEMENT_3D('',#209,#210,#211);
#143=SURFACE_SIDE_STYLE('',(#212));
#144=EDGE_LOOP('',(#213,#214,#215,#216));
#145=AXIS2_PLACEMENT_3D('',#217,#218,#219);
#146=SURFACE_SIDE_STYLE('',(#220));
#147=EDGE_LOOP('',(#221,#222,#223,#224));
#148=AXIS2_PLACEMENT_3D('',#225,#226,#227);
#149=SURFACE_SIDE_STYLE('',(#228));
#150=EDGE_LOOP('',(#229,#230,#231));
#151=EDGE_LOOP('',(#232,#233));
#152=AXIS2_PLACEMENT_3D('',#234,#235,#236);
#153=SURFACE_SIDE_STYLE('',(#237));
#154=EDGE_LOOP('',(#238,#239,#240,#241,#242,#243));
#155=AXIS2_PLACEMENT_3D('',#244,#245,#246);
#156=SURFACE_SIDE_STYLE('',(#247));
#157=EDGE_LOOP('',(#248,#249,#250,#251,#252));
#158=AXIS2_PLACEMENT_3D('',#253,#254,#255);
#159=SURFACE_SIDE_STYLE('',(#256));
#160=EDGE_LOOP('',(#257,#258));
#161=EDGE_LOOP('',(#259,#260));
#162=AXIS2_PLACEMENT_3D('',#261,#262,#263);
#163=SURFACE_SIDE_STYLE('',(#264));
#164=EDGE_LOOP('',(#265,#266,#267,#268,#269));
#165=AXIS2_PLACEMENT_3D('',#270,#271,#272);
#166=SURFACE_SIDE_STYLE('',(#273));
#167=EDGE_LOOP('',(#274,#275,#276,#277,#278));
#168=AXIS2_PLACEMENT_3D('',#279,#280,#281);
#169=SURFACE_SIDE_STYLE('',(#282));
#170=EDGE_LOOP('',(#283,#284));
#171=EDGE_LOOP('',(#285,#286,#287));
#172=AXIS2_PLACEMENT_3D('',#288,#289,#290);
#173=SURFACE_SIDE_STYLE('',(#291));
#175=SURFACE_STYLE_FILL_AREA(#292);
#176=ORIENTED_EDGE('',*,*,#293,.F.);
#177=ORIENTED_EDGE('',*,*,#294,.T.);
#178=ORIENTED_EDGE('',*,*,#295,.T.);
#179=ORIENTED_EDGE('',*,*,#296,.F.);
#180=ORIENTED_EDGE('',*,*,#297,.F.);
#181=ORIENTED_EDGE('',*,*,#298,.F.);
#182=CARTESIAN_POINT('',(0.0,-9.0,0.0));
#183=DIRECTION('',(0.0,1.0,0.0));
#184=DIRECTION('',(0.0,0.0,1.0));
#185=SURFACE_STYLE_FILL_AREA(#299);
#186=ORIENTED_EDGE('',*,*,#300,.F.);
#187=ORIENTED_EDGE('',*,*,#301,.T.);
#188=ORIENTED_EDGE('',*,*,#302,.F.);
#189=ORIENTED_EDGE('',*,*,#303,.F.);
#190=ORIENTED_EDGE('',*,*,#295,.F.);
#191=CARTESIAN_POINT('',(0.0,-18.5,0.0));
#192=DIRECTION('',(0.0,1.0,0.0));
#193=DIRECTION('',(-1.0,0.0,0.0));
#194=SURFACE_STYLE_FILL_AREA(#304);
#195=ORIENTED_EDGE('',*,*,#305,.F.);
#196=ORIENTED_EDGE('',*,*,#306,.F.);
#197=ORIENTED_EDGE('',*,*,#307,.F.);
#198=ORIENTED_EDGE('',*,*,#308,.T.);
#199=ORIENTED_EDGE('',*,*,#309,.T.);
#200=CARTESIAN_POINT('',(0.0,-18.5,0.0));
#201=DIRECTION('',(0.0,1.0,0.0));
#202=DIRECTION('',(-1.0,0.0,0.0));
#203=SURFACE_STYLE_FILL_AREA(#310);
#204=ORIENTED_EDGE('',*,*,#311,.F.);
#205=ORIENTED_EDGE('',*,*,#312,.T.);
#206=ORIENTED_EDGE('',*,*,#313,.F.);
#207=ORIENTED_EDGE('',*,*,#308,.F.);
#208=ORIENTED_EDGE('',*,*,#314,.F.);
#209=CARTESIAN_POINT('',(0.0,-9.0,0.0));
#210=DIRECTION('',(0.0,1.0,0.0));
#211=DIRECTION('',(0.0,0.0,1.0));
#212=SURFACE_STYLE_FILL_AREA(#315);
#213=ORIENTED_EDGE('',*,*,#316,.F.);
#214=ORIENTED_EDGE('',*,*,#317,.T.);
#215=ORIENTED_EDGE('',*,*,#318,.F.);
#216=ORIENTED_EDGE('',*,*,#319,.F.);
#217=CARTESIAN_POINT('',(0.0,-2.0,0.0));
#218=DIRECTION('',(0.0,1.0,0.0));
#219=DIRECTION('',(-1.0,0.0,0.0));
#220=SURFACE_STYLE_FILL_AREA(#320);
#221=ORIENTED_EDGE('',*,*,#316,.T.);
#222=ORIENTED_EDGE('',*,*,#321,.F.);
#223=ORIENTED_EDGE('',*,*,#318,.T.);
#224=ORIENTED_EDGE('',*,*,#322,.T.);
#225=CARTESIAN_POINT('',(0.0,-2.0,0.0));
#226=DIRECTION('',(0.0,1.0,0.0));
#227=DIRECTION('',(-1.0,0.0,0.0));
#228=SURFACE_STYLE_FILL_AREA(#323);
#229=ORIENTED_EDGE('',*,*,#324,.F.);
#230=ORIENTED_EDGE('',*,*,#325,.F.);
#231=ORIENTED_EDGE('',*,*,#312,.F.);
#232=ORIENTED_EDGE('',*,*,#319,.T.);
#233=ORIENTED_EDGE('',*,*,#321,.T.);
#234=CARTESIAN_POINT('',(-70.975,0.0,0.0));
#235=DIRECTION('',(0.0,1.0,0.0));
#236=DIRECTION('',(-1.0,0.0,0.0));
#237=SURFACE_STYLE_FILL_AREA(#326);
#238=ORIENTED_EDGE('',*,*,#311,.T.);
#239=ORIENTED_EDGE('',*,*,#327,.F.);
#240=ORIENTED_EDGE('',*,*,#309,.F.);
#241=ORIENTED_EDGE('',*,*,#313,.T.);
#242=ORIENTED_EDGE('',*,*,#325,.T.);
#243=ORIENTED_EDGE('',*,*,#324,.T.);
#244=CARTESIAN_POINT('',(0.0,-9.0,0.0));
#245=DIRECTION('',(0.0,1.0,0.0));
#246=DIRECTION('',(0.0,0.0,1.0));
#247=SURFACE_STYLE_FILL_AREA(#328);
#248=ORIENTED_EDGE('',*,*,#305,.T.);
#249=ORIENTED_EDGE('',*,*,#327,.T.);
#250=ORIENTED_EDGE('',*,*,#314,.T.);
#251=ORIENTED_EDGE('',*,*,#307,.T.);
#252=ORIENTED_EDGE('',*,*,#329,.F.);
#253=CARTESIAN_POINT('',(0.0,-18.5,0.0));
#254=DIRECTION('',(0.0,1.0,0.0));
#255=DIRECTION('',(-1.0,0.0,0.0));
#256=SURFACE_STYLE_FILL_AREA(#330);
#257=ORIENTED_EDGE('',*,*,#301,.F.);
#258=ORIENTED_EDGE('',*,*,#331,.F.);
#259=ORIENTED_EDGE('',*,*,#329,.T.);
#260=ORIENTED_EDGE('',*,*,#306,.T.);
#261=CARTESIAN_POINT('',(-55.55,-28.0,0.0));
#262=DIRECTION('',(0.0,-1.0,0.0));
#263=DIRECTION('',(1.0,0.0,0.0));
#264=SURFACE_STYLE_FILL_AREA(#332);
#265=ORIENTED_EDGE('',*,*,#300,.T.);
#266=ORIENTED_EDGE('',*,*,#294,.F.);
#267=ORIENTED_EDGE('',*,*,#333,.F.);
#268=ORIENTED_EDGE('',*,*,#302,.T.);
#269=ORIENTED_EDGE('',*,*,#331,.T.);
#270=CARTESIAN_POINT('',(0.0,-18.5,0.0));
#271=DIRECTION('',(0.0,1.0,0.0));
#272=DIRECTION('',(-1.0,0.0,0.0));
#273=SURFACE_STYLE_FILL_AREA(#334);
#274=ORIENTED_EDGE('',*,*,#293,.T.);
#275=ORIENTED_EDGE('',*,*,#335,.F.);
#276=ORIENTED_EDGE('',*,*,#296,.T.);
#277=ORIENTED_EDGE('',*,*,#303,.T.);
#278=ORIENTED_EDGE('',*,*,#333,.T.);
#279=CARTESIAN_POINT('',(0.0,-9.0,0.0));
#280=DIRECTION('',(0.0,1.0,0.0));
#281=DIRECTION('',(0.0,0.0,1.0));
#282=SURFACE_STYLE_FILL_AREA(#336);
#283=ORIENTED_EDGE('',*,*,#317,.F.);
#284=ORIENTED_EDGE('',*,*,#322,.F.);
#285=ORIENTED_EDGE('',*,*,#297,.T.);
#286=ORIENTED_EDGE('',*,*,#335,.T.);
#287=ORIENTED_EDGE('',*,*,#298,.T.);
#288=CARTESIAN_POINT('',(-70.575,-4.0,0.0));
#289=DIRECTION('',(0.0,-1.0,0.0));
#290=DIRECTION('',(1.0,0.0,0.0));
#291=SURFACE_STYLE_FILL_AREA(#337);
#292=FILL_AREA_STYLE('',(#338));
#293=EDGE_CURVE('',#339,#340,#341,.T.);
#294=EDGE_CURVE('',#339,#342,#343,.T.);
#295=EDGE_CURVE('',#342,#344,#345,.T.);
#296=EDGE_CURVE('',#346,#344,#347,.T.);
#297=EDGE_CURVE('',#348,#346,#349,.T.);
#298=EDGE_CURVE('',#340,#348,#350,.T.);
#299=FILL_AREA_STYLE('',(#351));
#300=EDGE_CURVE('',#352,#342,#353,.T.);
#301=EDGE_CURVE('',#352,#354,#355,.T.);
#302=EDGE_CURVE('',#356,#354,#357,.T.);
#303=EDGE_CURVE('',#344,#356,#358,.T.);
#304=FILL_AREA_STYLE('',(#359));
#305=EDGE_CURVE('',#360,#361,#362,.T.);
#306=EDGE_CURVE('',#363,#360,#364,.T.);
#307=EDGE_CURVE('',#365,#363,#366,.T.);
#308=EDGE_CURVE('',#365,#367,#368,.T.);
#309=EDGE_CURVE('',#367,#361,#369,.T.);
#310=FILL_AREA_STYLE('',(#370));
#311=EDGE_CURVE('',#371,#372,#373,.T.);
#312=EDGE_CURVE('',#371,#374,#375,.T.);
#313=EDGE_CURVE('',#367,#374,#376,.T.);
#314=EDGE_CURVE('',#372,#365,#377,.T.);
#315=FILL_AREA_STYLE('',(#378));
#316=EDGE_CURVE('',#379,#380,#381,.T.);
#317=EDGE_CURVE('',#379,#382,#383,.T.);
#318=EDGE_CURVE('',#384,#382,#385,.T.);
#319=EDGE_CURVE('',#380,#384,#386,.T.);
#320=FILL_AREA_STYLE('',(#387));
#321=EDGE_CURVE('',#384,#380,#388,.T.);
#322=EDGE_CURVE('',#382,#379,#389,.T.);
#323=FILL_AREA_STYLE('',(#390));
#324=EDGE_CURVE('',#391,#371,#392,.T.);
#325=EDGE_CURVE('',#374,#391,#393,.T.);
#326=FILL_AREA_STYLE('',(#394));
#327=EDGE_CURVE('',#361,#372,#395,.T.);
#328=FILL_AREA_STYLE('',(#396));
#329=EDGE_CURVE('',#360,#363,#397,.T.);
#330=FILL_AREA_STYLE('',(#398));
#331=EDGE_CURVE('',#354,#352,#399,.T.);
#332=FILL_AREA_STYLE('',(#400));
#333=EDGE_CURVE('',#356,#339,#401,.T.);
#334=FILL_AREA_STYLE('',(#402));
#335=EDGE_CURVE('',#346,#340,#403,.T.);
#336=FILL_AREA_STYLE('',(#404));
#337=FILL_AREA_STYLE('',(#405));
#338=FILL_AREA_STYLE_COLOUR('',#406);
#339=VERTEX_POINT('',#407);
#340=VERTEX_POINT('',#408);
#341=CIRCLE('',#409,5.0);
#342=VERTEX_POINT('',#410);
#343=CIRCLE('',#411,57.15);
#344=VERTEX_POINT('',#412);
#345=CIRCLE('',#413,57.15);
#346=VERTEX_POINT('',#414);
#347=CIRCLE('',#415,5.0);
#348=VERTEX_POINT('',#416);
#349=CIRCLE('',#417,62.15);
#350=CIRCLE('',#418,62.15);
#351=FILL_AREA_STYLE_COLOUR('',#419);
#352=VERTEX_POINT('',#420);
#353=LINE('',#421,#422);
#354=VERTEX_POINT('',#423);
#355=CIRCLE('',#424,57.15);
#356=VERTEX_POINT('',#425);
#357=LINE('',#426,#427);
#358=CIRCLE('',#428,57.15);
#359=FILL_AREA_STYLE_COLOUR('',#429);
#360=VERTEX_POINT('',#430);
#361=VERTEX_POINT('',#431);
#362=LINE('',#432,#433);
#363=VERTEX_POINT('',#434);
#364=CIRCLE('',#435,53.95);
#365=VERTEX_POINT('',#436);
#366=LINE('',#437,#438);
#367=VERTEX_POINT('',#439);
#368=CIRCLE('',#440,53.95);
#369=CIRCLE('',#441,53.95);
#370=FILL_AREA_STYLE_COLOUR('',#442);
#371=VERTEX_POINT('',#443);
#372=VERTEX_POINT('',#444);
#373=CIRCLE('',#445,9.0);
#374=VERTEX_POINT('',#446);
#375=CIRCLE('',#447,62.95);
#376=CIRCLE('',#448,9.0);
#377=CIRCLE('',#449,53.95);
#378=FILL_AREA_STYLE_COLOUR('',#450);
#379=VERTEX_POINT('',#451);
#380=VERTEX_POINT('',#452);
#381=LINE('',#453,#454);
#382=VERTEX_POINT('',#455);
#383=CIRCLE('',#456,79.0);
#384=VERTEX_POINT('',#457);
#385=LINE('',#458,#459);
#386=CIRCLE('',#460,79.0);
#387=FILL_AREA_STYLE_COLOUR('',#461);
#388=CIRCLE('',#462,79.0);
#389=CIRCLE('',#463,79.0);
#390=FILL_AREA_STYLE_COLOUR('',#464);
#391=VERTEX_POINT('',#465);
#392=CIRCLE('',#466,62.95);
#393=CIRCLE('',#467,62.95);
#394=FILL_AREA_STYLE_COLOUR('',#468);
#395=CIRCLE('',#469,53.95);
#396=FILL_AREA_STYLE_COLOUR('',#470);
#397=CIRCLE('',#471,53.95);
#398=FILL_AREA_STYLE_COLOUR('',#472);
#399=CIRCLE('',#473,57.15);
#400=FILL_AREA_STYLE_COLOUR('',#474);
#401=CIRCLE('',#475,57.15);
#402=FILL_AREA_STYLE_COLOUR('',#476);
#403=CIRCLE('',#477,62.15);
#404=FILL_AREA_STYLE_COLOUR('',#478);
#405=FILL_AREA_STYLE_COLOUR('',#479);
#406=COLOUR_RGB('',1.0,1.0,0.0);
#407=CARTESIAN_POINT('',(6.99885645712712E-015,-9.0,-57.15));
#408=CARTESIAN_POINT('',(7.6111798567008E-015,-4.0,-62.15));
#409=AXIS2_PLACEMENT_3D('',#480,#481,#482);
#410=CARTESIAN_POINT('',(-57.15,-9.0,0.0));
#411=AXIS2_PLACEMENT_3D('',#483,#484,#485);
#412=CARTESIAN_POINT('',(-6.99885645712712E-015,-9.0,57.15));
#413=AXIS2_PLACEMENT_3D('',#486,#487,#488);
#414=CARTESIAN_POINT('',(-7.6111798567008E-015,-4.0,62.15));
#415=AXIS2_PLACEMENT_3D('',#489,#490,#491);
#416=CARTESIAN_POINT('',(-62.15,-4.0,0.0));
#417=AXIS2_PLACEMENT_3D('',#492,#493,#494);
#418=AXIS2_PLACEMENT_3D('',#495,#496,#497);
#419=COLOUR_RGB('',1.0,1.0,0.0);
#420=CARTESIAN_POINT('',(-57.15,-28.0,0.0));
#421=CARTESIAN_POINT('',(-57.15,-18.5,-6.99885645712712E-015));
#422=VECTOR('',#498,1.0);
#423=CARTESIAN_POINT('',(57.15,-28.0,6.99885645712712E-015));
#424=AXIS2_PLACEMENT_3D('',#499,#500,#501);
#425=CARTESIAN_POINT('',(57.15,-9.0,6.99885645712712E-015));
#426=CARTESIAN_POINT('',(57.15,-18.5,6.99885645712712E-015));
#427=VECTOR('',#502,1.0);
#428=AXIS2_PLACEMENT_3D('',#503,#504,#505);
#429=COLOUR_RGB('',1.0,1.0,0.0);
#430=CARTESIAN_POINT('',(-53.95,-28.0,0.0));
#431=CARTESIAN_POINT('',(-53.95,-9.0,0.0));
#432=CARTESIAN_POINT('',(-53.95,-18.5,-6.60696948139998E-015));
#433=VECTOR('',#506,1.0);
#434=CARTESIAN_POINT('',(53.95,-28.0,6.60696948139998E-015));
#435=AXIS2_PLACEMENT_3D('',#507,#508,#509);
#436=CARTESIAN_POINT('',(53.95,-9.0,6.60696948139998E-015));
#437=CARTESIAN_POINT('',(53.95,-18.5,6.60696948139998E-015));
#438=VECTOR('',#510,1.0);
#439=CARTESIAN_POINT('',(6.60696948139998E-015,-9.0,-53.95));
#440=AXIS2_PLACEMENT_3D('',#511,#512,#513);
#441=AXIS2_PLACEMENT_3D('',#514,#515,#516);
#442=COLOUR_RGB('',1.0,1.0,0.0);
#443=CARTESIAN_POINT('',(-7.70915160063259E-015,0.0,62.95));
#444=CARTESIAN_POINT('',(-6.60696948139998E-015,-9.0,53.95));
#445=AXIS2_PLACEMENT_3D('',#517,#518,#519);
#446=CARTESIAN_POINT('',(7.70915160063259E-015,0.0,-62.95));
#447=AXIS2_PLACEMENT_3D('',#520,#521,#522);
#448=AXIS2_PLACEMENT_3D('',#523,#524,#525);
#449=AXIS2_PLACEMENT_3D('',#526,#527,#528);
#450=COLOUR_RGB('',1.0,1.0,0.0);
#451=CARTESIAN_POINT('',(-79.0,-4.0,0.0));
#452=CARTESIAN_POINT('',(-79.0,0.0,0.0));
#453=CARTESIAN_POINT('',(-79.0,-2.0,-9.67470971326409E-015));
#454=VECTOR('',#529,1.0);
#455=CARTESIAN_POINT('',(79.0,-4.0,9.67470971326409E-015));
#456=AXIS2_PLACEMENT_3D('',#530,#531,#532);
#457=CARTESIAN_POINT('',(79.0,0.0,9.67470971326409E-015));
#458=CARTESIAN_POINT('',(79.0,-2.0,9.67470971326409E-015));
#459=VECTOR('',#533,1.0);
#460=AXIS2_PLACEMENT_3D('',#534,#535,#536);
#461=COLOUR_RGB('',1.0,1.0,0.0);
#462=AXIS2_PLACEMENT_3D('',#537,#538,#539);
#463=AXIS2_PLACEMENT_3D('',#540,#541,#542);
#464=COLOUR_RGB('',1.0,1.0,0.0);
#465=CARTESIAN_POINT('',(-62.95,0.0,0.0));
#466=AXIS2_PLACEMENT_3D('',#543,#544,#545);
#467=AXIS2_PLACEMENT_3D('',#546,#547,#548);
#468=COLOUR_RGB('',1.0,1.0,0.0);
#469=AXIS2_PLACEMENT_3D('',#549,#550,#551);
#470=COLOUR_RGB('',1.0,1.0,0.0);
#471=AXIS2_PLACEMENT_3D('',#552,#553,#554);
#472=COLOUR_RGB('',1.0,1.0,0.0);
#473=AXIS2_PLACEMENT_3D('',#555,#556,#557);
#474=COLOUR_RGB('',1.0,1.0,0.0);
#475=AXIS2_PLACEMENT_3D('',#558,#559,#560);
#476=COLOUR_RGB('',1.0,1.0,0.0);
#477=AXIS2_PLACEMENT_3D('',#561,#562,#563);
#478=COLOUR_RGB('',1.0,1.0,0.0);
#479=COLOUR_RGB('',1.0,1.0,0.0);
#480=CARTESIAN_POINT('',(7.6111798567008E-015,-9.0,-62.15));
#481=DIRECTION('',(-1.0,0.0,-1.22464679914735E-016));
#482=DIRECTION('',(1.22464679914735E-016,-0.0,-1.0));
#483=CARTESIAN_POINT('',(0.0,-9.0,0.0));
#484=DIRECTION('',(0.0,1.0,0.0));
#485=DIRECTION('',(-1.0,0.0,0.0));
#486=CARTESIAN_POINT('',(0.0,-9.0,0.0));
#487=DIRECTION('',(0.0,1.0,0.0));
#488=DIRECTION('',(-1.0,0.0,0.0));
#489=CARTESIAN_POINT('',(-7.6111798567008E-015,-9.0,62.15));
#490=DIRECTION('',(-1.0,0.0,-1.22464679914735E-016));
#491=DIRECTION('',(-1.22464679914735E-016,0.0,1.0));
#492=CARTESIAN_POINT('',(0.0,-4.0,0.0));
#493=DIRECTION('',(0.0,1.0,0.0));
#494=DIRECTION('',(-1.0,0.0,0.0));
#495=CARTESIAN_POINT('',(0.0,-4.0,0.0));
#496=DIRECTION('',(0.0,1.0,0.0));
#497=DIRECTION('',(-1.0,0.0,0.0));
#498=DIRECTION('',(0.0,1.0,0.0));
#499=CARTESIAN_POINT('',(0.0,-28.0,0.0));
#500=DIRECTION('',(0.0,1.0,0.0));
#501=DIRECTION('',(-1.0,0.0,0.0));
#502=DIRECTION('',(-0.0,-1.0,-0.0));
#503=CARTESIAN_POINT('',(0.0,-9.0,0.0));
#504=DIRECTION('',(0.0,1.0,0.0));
#505=DIRECTION('',(-1.0,0.0,0.0));
#506=DIRECTION('',(0.0,1.0,0.0));
#507=CARTESIAN_POINT('',(0.0,-28.0,0.0));
#508=DIRECTION('',(0.0,1.0,0.0));
#509=DIRECTION('',(-1.0,0.0,0.0));
#510=DIRECTION('',(0.0,-1.0,0.0));
#511=CARTESIAN_POINT('',(0.0,-9.0,0.0));
#512=DIRECTION('',(0.0,1.0,0.0));
#513=DIRECTION('',(-1.0,0.0,0.0));
#514=CARTESIAN_POINT('',(0.0,-9.0,0.0));
#515=DIRECTION('',(0.0,1.0,0.0));
#516=DIRECTION('',(-1.0,0.0,0.0));
#517=CARTESIAN_POINT('',(-7.70915160063259E-015,-9.0,62.95));
#518=DIRECTION('',(-1.0,0.0,-1.22464679914735E-016));
#519=DIRECTION('',(-1.22464679914735E-016,-0.0,1.0));
#520=CARTESIAN_POINT('',(0.0,0.0,0.0));
#521=DIRECTION('',(0.0,1.0,0.0));
#522=DIRECTION('',(-1.0,0.0,0.0));
#523=CARTESIAN_POINT('',(7.70915160063259E-015,-9.0,-62.95));
#524=DIRECTION('',(-1.0,0.0,-1.22464679914735E-016));
#525=DIRECTION('',(1.22464679914735E-016,0.0,-1.0));
#526=CARTESIAN_POINT('',(0.0,-9.0,0.0));
#527=DIRECTION('',(0.0,1.0,0.0));
#528=DIRECTION('',(-1.0,0.0,0.0));
#529=DIRECTION('',(0.0,1.0,0.0));
#530=CARTESIAN_POINT('',(0.0,-4.0,0.0));
#531=DIRECTION('',(0.0,1.0,0.0));
#532=DIRECTION('',(-1.0,0.0,0.0));
#533=DIRECTION('',(-0.0,-1.0,-0.0));
#534=CARTESIAN_POINT('',(0.0,0.0,0.0));
#535=DIRECTION('',(0.0,1.0,0.0));
#536=DIRECTION('',(-1.0,0.0,0.0));
#537=CARTESIAN_POINT('',(0.0,0.0,0.0));
#538=DIRECTION('',(0.0,1.0,0.0));
#539=DIRECTION('',(-1.0,0.0,0.0));
#540=CARTESIAN_POINT('',(0.0,-4.0,0.0));
#541=DIRECTION('',(0.0,1.0,0.0));
#542=DIRECTION('',(-1.0,0.0,0.0));
#543=CARTESIAN_POINT('',(0.0,0.0,0.0));
#544=DIRECTION('',(0.0,1.0,0.0));
#545=DIRECTION('',(-1.0,0.0,0.0));
#546=CARTESIAN_POINT('',(0.0,0.0,0.0));
#547=DIRECTION('',(0.0,1.0,0.0));
#548=DIRECTION('',(-1.0,0.0,0.0));
#549=CARTESIAN_POINT('',(0.0,-9.0,0.0));
#550=DIRECTION('',(0.0,1.0,0.0));
#551=DIRECTION('',(-1.0,0.0,0.0));
#552=CARTESIAN_POINT('',(0.0,-28.0,0.0));
#553=DIRECTION('',(0.0,1.0,0.0));
#554=DIRECTION('',(-1.0,0.0,0.0));
#555=CARTESIAN_POINT('',(0.0,-28.0,0.0));
#556=DIRECTION('',(0.0,1.0,0.0));
#557=DIRECTION('',(-1.0,0.0,0.0));
#558=CARTESIAN_POINT('',(0.0,-9.0,0.0));
#559=DIRECTION('',(0.0,1.0,0.0));
#560=DIRECTION('',(-1.0,0.0,0.0));
#561=CARTESIAN_POINT('',(0.0,-4.0,0.0));
#562=DIRECTION('',(0.0,1.0,0.0));
#563=DIRECTION('',(-1.0,0.0,0.0));
ENDSEC;
END-ISO-10303-21;
