ISO-10303-21;
HEADER;
FILE_DESCRIPTION(('STEP AP214'),'1');
FILE_NAME('V-Boerdel-DN80.stp','2023-07-13T07:46:11',(' '),(' '),'Spatial InterOp 3D',' ',' ');
FILE_SCHEMA(('automotive_design'));
ENDSEC;
DATA;
#1=MECHANICAL_DESIGN_GEOMETRIC_PRESENTATION_REPRESENTATION(' ',(#10,#11,#12,#13,#14,#15,#16,#17,#18,#19,#20,#21,#22,#23),#6);
#2=PRODUCT_DEFINITION_CONTEXT('',#24,'design');
#3=APPLICATION_PROTOCOL_DEFINITION('INTERNATIONAL STANDARD','automotive_design',1994,#24);
#4=PRODUCT_CATEGORY_RELATIONSHIP('NONE','NONE',#25,#26);
#5=SHAPE_DEFINITION_REPRESENTATION(#27,#28);
#6= (GEOMETRIC_REPRESENTATION_CONTEXT(3)GLOBAL_UNCERTAINTY_ASSIGNED_CONTEXT((#31))GLOBAL_UNIT_ASSIGNED_CONTEXT((#33,#34,#35))REPRESENTATION_CONTEXT('NONE','WORKSPACE'));
#10=STYLED_ITEM('',(#37),#38);
#11=STYLED_ITEM('',(#39),#40);
#12=STYLED_ITEM('',(#41),#42);
#13=STYLED_ITEM('',(#43),#44);
#14=STYLED_ITEM('',(#45),#46);
#15=STYLED_ITEM('',(#47),#48);
#16=STYLED_ITEM('',(#49),#50);
#17=STYLED_ITEM('',(#51),#52);
#18=STYLED_ITEM('',(#53),#54);
#19=STYLED_ITEM('',(#55),#56);
#20=STYLED_ITEM('',(#57),#58);
#21=STYLED_ITEM('',(#59),#60);
#22=STYLED_ITEM('',(#61),#62);
#23=STYLED_ITEM('',(#63),#64);
#24=APPLICATION_CONTEXT(' ');
#25=PRODUCT_CATEGORY('part','NONE');
#26=PRODUCT_RELATED_PRODUCT_CATEGORY('detail',' ',(#65));
#27=PRODUCT_DEFINITION_SHAPE('NONE','NONE',#66);
#28=ADVANCED_BREP_SHAPE_REPRESENTATION('1',(#64,#67),#6);
#31=UNCERTAINTY_MEASURE_WITH_UNIT(LENGTH_MEASURE(1.0E-006),#33,'','');
#33= (CONVERSION_BASED_UNIT('MILLIMETRE',#70)LENGTH_UNIT()NAMED_UNIT(#73));
#34= (NAMED_UNIT(#75)PLANE_ANGLE_UNIT()SI_UNIT($,.RADIAN.));
#35= (NAMED_UNIT(#75)SOLID_ANGLE_UNIT()SI_UNIT($,.STERADIAN.));
#37=PRESENTATION_STYLE_ASSIGNMENT((#81));
#38=ADVANCED_FACE('',(#82),#83,.F.);
#39=PRESENTATION_STYLE_ASSIGNMENT((#84));
#40=ADVANCED_FACE('',(#85),#86,.T.);
#41=PRESENTATION_STYLE_ASSIGNMENT((#87));
#42=ADVANCED_FACE('',(#88),#89,.T.);
#43=PRESENTATION_STYLE_ASSIGNMENT((#90));
#44=ADVANCED_FACE('',(#91),#92,.F.);
#45=PRESENTATION_STYLE_ASSIGNMENT((#93));
#46=ADVANCED_FACE('',(#94),#95,.T.);
#47=PRESENTATION_STYLE_ASSIGNMENT((#96));
#48=ADVANCED_FACE('',(#97,#98),#99,.T.);
#49=PRESENTATION_STYLE_ASSIGNMENT((#100));
#50=ADVANCED_FACE('',(#101),#102,.T.);
#51=PRESENTATION_STYLE_ASSIGNMENT((#103));
#52=ADVANCED_FACE('',(#104),#105,.F.);
#53=PRESENTATION_STYLE_ASSIGNMENT((#106));
#54=ADVANCED_FACE('',(#107,#108),#109,.T.);
#55=PRESENTATION_STYLE_ASSIGNMENT((#110));
#56=ADVANCED_FACE('',(#111),#112,.T.);
#57=PRESENTATION_STYLE_ASSIGNMENT((#113));
#58=ADVANCED_FACE('',(#114,#115),#116,.T.);
#59=PRESENTATION_STYLE_ASSIGNMENT((#117));
#60=ADVANCED_FACE('',(#118),#119,.T.);
#61=PRESENTATION_STYLE_ASSIGNMENT((#120));
#62=ADVANCED_FACE('',(#121),#122,.F.);
#63=PRESENTATION_STYLE_ASSIGNMENT((#123));
#64=MANIFOLD_SOLID_BREP('1',#124);
#65=PRODUCT('1','1','PART-1-DESC',(#125));
#66=PRODUCT_DEFINITION('NONE','NONE',#126,#2);
#67=AXIS2_PLACEMENT_3D('',#127,#128,#129);
#70=LENGTH_MEASURE_WITH_UNIT(LENGTH_MEASURE(1.0),#130);
#73=DIMENSIONAL_EXPONENTS(1.0,0.0,0.0,0.0,0.0,0.0,0.0);
#75=DIMENSIONAL_EXPONENTS(0.0,0.0,0.0,0.0,0.0,0.0,0.0);
#81=SURFACE_STYLE_USAGE(.BOTH.,#131);
#82=FACE_OUTER_BOUND('',#132,.T.);
#83=CYLINDRICAL_SURFACE('',#133,41.2500000000001);
#84=SURFACE_STYLE_USAGE(.BOTH.,#134);
#85=FACE_OUTER_BOUND('',#135,.T.);
#86=TOROIDAL_SURFACE('',#136,50.2500000000001,9.0);
#87=SURFACE_STYLE_USAGE(.BOTH.,#137);
#88=FACE_OUTER_BOUND('',#138,.T.);
#89=CYLINDRICAL_SURFACE('',#139,69.0000000000001);
#90=SURFACE_STYLE_USAGE(.BOTH.,#140);
#91=FACE_OUTER_BOUND('',#141,.T.);
#92=TOROIDAL_SURFACE('',#142,49.45,5.0);
#93=SURFACE_STYLE_USAGE(.BOTH.,#143);
#94=FACE_OUTER_BOUND('',#144,.T.);
#95=CYLINDRICAL_SURFACE('',#145,44.45);
#96=SURFACE_STYLE_USAGE(.BOTH.,#146);
#97=FACE_OUTER_BOUND('',#147,.T.);
#98=FACE_BOUND('',#148,.T.);
#99=PLANE('',#149);
#100=SURFACE_STYLE_USAGE(.BOTH.,#150);
#101=FACE_OUTER_BOUND('',#151,.T.);
#102=CYLINDRICAL_SURFACE('',#152,44.45);
#103=SURFACE_STYLE_USAGE(.BOTH.,#153);
#104=FACE_OUTER_BOUND('',#154,.T.);
#105=TOROIDAL_SURFACE('',#155,49.45,5.0);
#106=SURFACE_STYLE_USAGE(.BOTH.,#156);
#107=FACE_OUTER_BOUND('',#157,.T.);
#108=FACE_BOUND('',#158,.T.);
#109=PLANE('',#159);
#110=SURFACE_STYLE_USAGE(.BOTH.,#160);
#111=FACE_OUTER_BOUND('',#161,.T.);
#112=CYLINDRICAL_SURFACE('',#162,69.0000000000001);
#113=SURFACE_STYLE_USAGE(.BOTH.,#163);
#114=FACE_BOUND('',#164,.T.);
#115=FACE_OUTER_BOUND('',#165,.T.);
#116=PLANE('',#166);
#117=SURFACE_STYLE_USAGE(.BOTH.,#167);
#118=FACE_OUTER_BOUND('',#168,.T.);
#119=TOROIDAL_SURFACE('',#169,50.2500000000001,9.0);
#120=SURFACE_STYLE_USAGE(.BOTH.,#170);
#121=FACE_OUTER_BOUND('',#171,.T.);
#122=CYLINDRICAL_SURFACE('',#172,41.2500000000001);
#123=SURFACE_STYLE_USAGE(.BOTH.,#173);
#124=CLOSED_SHELL('',(#38,#40,#42,#44,#46,#48,#50,#52,#54,#56,#58,#60,#62));
#125=PRODUCT_CONTEXT('',#24,'mechanical');
#126=PRODUCT_DEFINITION_FORMATION_WITH_SPECIFIED_SOURCE(' ','NONE',#65,.NOT_KNOWN.);
#127=CARTESIAN_POINT('',(0.0,0.0,0.0));
#128=DIRECTION('',(0.0,0.0,1.0));
#129=DIRECTION('',(1.0,0.0,0.0));
#130= (NAMED_UNIT(#73)LENGTH_UNIT()SI_UNIT(.MILLI.,.METRE.));
#131=SURFACE_SIDE_STYLE('',(#175));
#132=EDGE_LOOP('',(#176,#177,#178,#179,#180));
#133=AXIS2_PLACEMENT_3D('',#181,#182,#183);
#134=SURFACE_SIDE_STYLE('',(#184));
#135=EDGE_LOOP('',(#185,#186,#187,#188,#189));
#136=AXIS2_PLACEMENT_3D('',#190,#191,#192);
#137=SURFACE_SIDE_STYLE('',(#193));
#138=EDGE_LOOP('',(#194,#195,#196,#197));
#139=AXIS2_PLACEMENT_3D('',#198,#199,#200);
#140=SURFACE_SIDE_STYLE('',(#201));
#141=EDGE_LOOP('',(#202,#203,#204,#205,#206,#207));
#142=AXIS2_PLACEMENT_3D('',#208,#209,#210);
#143=SURFACE_SIDE_STYLE('',(#211));
#144=EDGE_LOOP('',(#212,#213,#214,#215,#216));
#145=AXIS2_PLACEMENT_3D('',#217,#218,#219);
#146=SURFACE_SIDE_STYLE('',(#220));
#147=EDGE_LOOP('',(#221,#222));
#148=EDGE_LOOP('',(#223,#224));
#149=AXIS2_PLACEMENT_3D('',#225,#226,#227);
#150=SURFACE_SIDE_STYLE('',(#228));
#151=EDGE_LOOP('',(#229,#230,#231,#232,#233));
#152=AXIS2_PLACEMENT_3D('',#234,#235,#236);
#153=SURFACE_SIDE_STYLE('',(#237));
#154=EDGE_LOOP('',(#238,#239,#240,#241,#242));
#155=AXIS2_PLACEMENT_3D('',#243,#244,#245);
#156=SURFACE_SIDE_STYLE('',(#246));
#157=EDGE_LOOP('',(#247,#248));
#158=EDGE_LOOP('',(#249,#250,#251));
#159=AXIS2_PLACEMENT_3D('',#252,#253,#254);
#160=SURFACE_SIDE_STYLE('',(#255));
#161=EDGE_LOOP('',(#256,#257,#258,#259));
#162=AXIS2_PLACEMENT_3D('',#260,#261,#262);
#163=SURFACE_SIDE_STYLE('',(#263));
#164=EDGE_LOOP('',(#264,#265,#266));
#165=EDGE_LOOP('',(#267,#268));
#166=AXIS2_PLACEMENT_3D('',#269,#270,#271);
#167=SURFACE_SIDE_STYLE('',(#272));
#168=EDGE_LOOP('',(#273,#274,#275,#276,#277,#278));
#169=AXIS2_PLACEMENT_3D('',#279,#280,#281);
#170=SURFACE_SIDE_STYLE('',(#282));
#171=EDGE_LOOP('',(#283,#284,#285,#286,#287));
#172=AXIS2_PLACEMENT_3D('',#288,#289,#290);
#173=SURFACE_SIDE_STYLE('',(#291));
#175=SURFACE_STYLE_FILL_AREA(#292);
#176=ORIENTED_EDGE('',*,*,#293,.F.);
#177=ORIENTED_EDGE('',*,*,#294,.F.);
#178=ORIENTED_EDGE('',*,*,#295,.F.);
#179=ORIENTED_EDGE('',*,*,#296,.T.);
#180=ORIENTED_EDGE('',*,*,#297,.T.);
#181=CARTESIAN_POINT('',(0.0,-16.0,0.0));
#182=DIRECTION('',(0.0,1.0,0.0));
#183=DIRECTION('',(-1.0,0.0,0.0));
#184=SURFACE_STYLE_FILL_AREA(#298);
#185=ORIENTED_EDGE('',*,*,#299,.F.);
#186=ORIENTED_EDGE('',*,*,#300,.T.);
#187=ORIENTED_EDGE('',*,*,#301,.F.);
#188=ORIENTED_EDGE('',*,*,#296,.F.);
#189=ORIENTED_EDGE('',*,*,#302,.F.);
#190=CARTESIAN_POINT('',(0.0,-9.00000000000003,0.0));
#191=DIRECTION('',(0.0,1.0,0.0));
#192=DIRECTION('',(0.0,0.0,1.0));
#193=SURFACE_STYLE_FILL_AREA(#303);
#194=ORIENTED_EDGE('',*,*,#304,.F.);
#195=ORIENTED_EDGE('',*,*,#305,.T.);
#196=ORIENTED_EDGE('',*,*,#306,.F.);
#197=ORIENTED_EDGE('',*,*,#307,.F.);
#198=CARTESIAN_POINT('',(0.0,-2.00000000000003,0.0));
#199=DIRECTION('',(0.0,1.0,0.0));
#200=DIRECTION('',(-1.0,0.0,0.0));
#201=SURFACE_STYLE_FILL_AREA(#308);
#202=ORIENTED_EDGE('',*,*,#309,.F.);
#203=ORIENTED_EDGE('',*,*,#310,.T.);
#204=ORIENTED_EDGE('',*,*,#311,.T.);
#205=ORIENTED_EDGE('',*,*,#312,.F.);
#206=ORIENTED_EDGE('',*,*,#313,.F.);
#207=ORIENTED_EDGE('',*,*,#314,.F.);
#208=CARTESIAN_POINT('',(0.0,-9.00000000000003,0.0));
#209=DIRECTION('',(0.0,1.0,0.0));
#210=DIRECTION('',(0.0,0.0,1.0));
#211=SURFACE_STYLE_FILL_AREA(#315);
#212=ORIENTED_EDGE('',*,*,#316,.F.);
#213=ORIENTED_EDGE('',*,*,#317,.T.);
#214=ORIENTED_EDGE('',*,*,#318,.F.);
#215=ORIENTED_EDGE('',*,*,#319,.F.);
#216=ORIENTED_EDGE('',*,*,#311,.F.);
#217=CARTESIAN_POINT('',(0.0,-16.0,0.0));
#218=DIRECTION('',(0.0,1.0,0.0));
#219=DIRECTION('',(-1.0,0.0,0.0));
#220=SURFACE_STYLE_FILL_AREA(#320);
#221=ORIENTED_EDGE('',*,*,#317,.F.);
#222=ORIENTED_EDGE('',*,*,#321,.F.);
#223=ORIENTED_EDGE('',*,*,#322,.T.);
#224=ORIENTED_EDGE('',*,*,#294,.T.);
#225=CARTESIAN_POINT('',(-42.8500000000001,-23.0,0.0));
#226=DIRECTION('',(0.0,-1.0,0.0));
#227=DIRECTION('',(1.0,0.0,0.0));
#228=SURFACE_STYLE_FILL_AREA(#323);
#229=ORIENTED_EDGE('',*,*,#316,.T.);
#230=ORIENTED_EDGE('',*,*,#310,.F.);
#231=ORIENTED_EDGE('',*,*,#324,.F.);
#232=ORIENTED_EDGE('',*,*,#318,.T.);
#233=ORIENTED_EDGE('',*,*,#321,.T.);
#234=CARTESIAN_POINT('',(0.0,-16.0,0.0));
#235=DIRECTION('',(0.0,1.0,0.0));
#236=DIRECTION('',(-1.0,0.0,0.0));
#237=SURFACE_STYLE_FILL_AREA(#325);
#238=ORIENTED_EDGE('',*,*,#309,.T.);
#239=ORIENTED_EDGE('',*,*,#326,.F.);
#240=ORIENTED_EDGE('',*,*,#312,.T.);
#241=ORIENTED_EDGE('',*,*,#319,.T.);
#242=ORIENTED_EDGE('',*,*,#324,.T.);
#243=CARTESIAN_POINT('',(0.0,-9.00000000000003,0.0));
#244=DIRECTION('',(0.0,1.0,0.0));
#245=DIRECTION('',(0.0,0.0,1.0));
#246=SURFACE_STYLE_FILL_AREA(#327);
#247=ORIENTED_EDGE('',*,*,#305,.F.);
#248=ORIENTED_EDGE('',*,*,#328,.F.);
#249=ORIENTED_EDGE('',*,*,#313,.T.);
#250=ORIENTED_EDGE('',*,*,#326,.T.);
#251=ORIENTED_EDGE('',*,*,#314,.T.);
#252=CARTESIAN_POINT('',(-59.2250000000001,-4.00000000000003,0.0));
#253=DIRECTION('',(0.0,-1.0,0.0));
#254=DIRECTION('',(1.0,0.0,0.0));
#255=SURFACE_STYLE_FILL_AREA(#329);
#256=ORIENTED_EDGE('',*,*,#304,.T.);
#257=ORIENTED_EDGE('',*,*,#330,.F.);
#258=ORIENTED_EDGE('',*,*,#306,.T.);
#259=ORIENTED_EDGE('',*,*,#328,.T.);
#260=CARTESIAN_POINT('',(0.0,-2.00000000000003,0.0));
#261=DIRECTION('',(0.0,1.0,0.0));
#262=DIRECTION('',(-1.0,0.0,0.0));
#263=SURFACE_STYLE_FILL_AREA(#331);
#264=ORIENTED_EDGE('',*,*,#332,.F.);
#265=ORIENTED_EDGE('',*,*,#333,.F.);
#266=ORIENTED_EDGE('',*,*,#300,.F.);
#267=ORIENTED_EDGE('',*,*,#307,.T.);
#268=ORIENTED_EDGE('',*,*,#330,.T.);
#269=CARTESIAN_POINT('',(-59.6250000000001,-2.8421709430404E-014,0.0));
#270=DIRECTION('',(0.0,1.0,0.0));
#271=DIRECTION('',(-1.0,0.0,0.0));
#272=SURFACE_STYLE_FILL_AREA(#334);
#273=ORIENTED_EDGE('',*,*,#299,.T.);
#274=ORIENTED_EDGE('',*,*,#335,.F.);
#275=ORIENTED_EDGE('',*,*,#297,.F.);
#276=ORIENTED_EDGE('',*,*,#301,.T.);
#277=ORIENTED_EDGE('',*,*,#333,.T.);
#278=ORIENTED_EDGE('',*,*,#332,.T.);
#279=CARTESIAN_POINT('',(0.0,-9.00000000000003,0.0));
#280=DIRECTION('',(0.0,1.0,0.0));
#281=DIRECTION('',(0.0,0.0,1.0));
#282=SURFACE_STYLE_FILL_AREA(#336);
#283=ORIENTED_EDGE('',*,*,#293,.T.);
#284=ORIENTED_EDGE('',*,*,#335,.T.);
#285=ORIENTED_EDGE('',*,*,#302,.T.);
#286=ORIENTED_EDGE('',*,*,#295,.T.);
#287=ORIENTED_EDGE('',*,*,#322,.F.);
#288=CARTESIAN_POINT('',(0.0,-16.0,0.0));
#289=DIRECTION('',(0.0,1.0,0.0));
#290=DIRECTION('',(-1.0,0.0,0.0));
#291=SURFACE_STYLE_FILL_AREA(#337);
#292=FILL_AREA_STYLE('',(#338));
#293=EDGE_CURVE('',#339,#340,#341,.T.);
#294=EDGE_CURVE('',#342,#339,#343,.T.);
#295=EDGE_CURVE('',#344,#342,#345,.T.);
#296=EDGE_CURVE('',#344,#346,#347,.T.);
#297=EDGE_CURVE('',#346,#340,#348,.T.);
#298=FILL_AREA_STYLE('',(#349));
#299=EDGE_CURVE('',#350,#351,#352,.T.);
#300=EDGE_CURVE('',#350,#353,#354,.T.);
#301=EDGE_CURVE('',#346,#353,#355,.T.);
#302=EDGE_CURVE('',#351,#344,#356,.T.);
#303=FILL_AREA_STYLE('',(#357));
#304=EDGE_CURVE('',#358,#359,#360,.T.);
#305=EDGE_CURVE('',#358,#361,#362,.T.);
#306=EDGE_CURVE('',#363,#361,#364,.T.);
#307=EDGE_CURVE('',#359,#363,#365,.T.);
#308=FILL_AREA_STYLE('',(#366));
#309=EDGE_CURVE('',#367,#368,#369,.T.);
#310=EDGE_CURVE('',#367,#370,#371,.T.);
#311=EDGE_CURVE('',#370,#372,#373,.T.);
#312=EDGE_CURVE('',#374,#372,#375,.T.);
#313=EDGE_CURVE('',#376,#374,#377,.T.);
#314=EDGE_CURVE('',#368,#376,#378,.T.);
#315=FILL_AREA_STYLE('',(#379));
#316=EDGE_CURVE('',#380,#370,#381,.T.);
#317=EDGE_CURVE('',#380,#382,#383,.T.);
#318=EDGE_CURVE('',#384,#382,#385,.T.);
#319=EDGE_CURVE('',#372,#384,#386,.T.);
#320=FILL_AREA_STYLE('',(#387));
#321=EDGE_CURVE('',#382,#380,#388,.T.);
#322=EDGE_CURVE('',#339,#342,#389,.T.);
#323=FILL_AREA_STYLE('',(#390));
#324=EDGE_CURVE('',#384,#367,#391,.T.);
#325=FILL_AREA_STYLE('',(#392));
#326=EDGE_CURVE('',#374,#368,#393,.T.);
#327=FILL_AREA_STYLE('',(#394));
#328=EDGE_CURVE('',#361,#358,#395,.T.);
#329=FILL_AREA_STYLE('',(#396));
#330=EDGE_CURVE('',#363,#359,#397,.T.);
#331=FILL_AREA_STYLE('',(#398));
#332=EDGE_CURVE('',#399,#350,#400,.T.);
#333=EDGE_CURVE('',#353,#399,#401,.T.);
#334=FILL_AREA_STYLE('',(#402));
#335=EDGE_CURVE('',#340,#351,#403,.T.);
#336=FILL_AREA_STYLE('',(#404));
#337=FILL_AREA_STYLE('',(#405));
#338=FILL_AREA_STYLE_COLOUR('',#406);
#339=VERTEX_POINT('',#407);
#340=VERTEX_POINT('',#408);
#341=LINE('',#409,#410);
#342=VERTEX_POINT('',#411);
#343=CIRCLE('',#412,41.2500000000001);
#344=VERTEX_POINT('',#413);
#345=LINE('',#414,#415);
#346=VERTEX_POINT('',#416);
#347=CIRCLE('',#417,41.2500000000001);
#348=CIRCLE('',#418,41.2500000000001);
#349=FILL_AREA_STYLE_COLOUR('',#419);
#350=VERTEX_POINT('',#420);
#351=VERTEX_POINT('',#421);
#352=CIRCLE('',#422,9.0);
#353=VERTEX_POINT('',#423);
#354=CIRCLE('',#424,50.2500000000001);
#355=CIRCLE('',#425,9.0);
#356=CIRCLE('',#426,41.2500000000001);
#357=FILL_AREA_STYLE_COLOUR('',#427);
#358=VERTEX_POINT('',#428);
#359=VERTEX_POINT('',#429);
#360=LINE('',#430,#431);
#361=VERTEX_POINT('',#432);
#362=CIRCLE('',#433,69.0000000000001);
#363=VERTEX_POINT('',#434);
#364=LINE('',#435,#436);
#365=CIRCLE('',#437,69.0000000000001);
#366=FILL_AREA_STYLE_COLOUR('',#438);
#367=VERTEX_POINT('',#439);
#368=VERTEX_POINT('',#440);
#369=CIRCLE('',#441,5.0);
#370=VERTEX_POINT('',#442);
#371=CIRCLE('',#443,44.45);
#372=VERTEX_POINT('',#444);
#373=CIRCLE('',#445,44.45);
#374=VERTEX_POINT('',#446);
#375=CIRCLE('',#447,5.0);
#376=VERTEX_POINT('',#448);
#377=CIRCLE('',#449,49.45);
#378=CIRCLE('',#450,49.45);
#379=FILL_AREA_STYLE_COLOUR('',#451);
#380=VERTEX_POINT('',#452);
#381=LINE('',#453,#454);
#382=VERTEX_POINT('',#455);
#383=CIRCLE('',#456,44.45);
#384=VERTEX_POINT('',#457);
#385=LINE('',#458,#459);
#386=CIRCLE('',#460,44.45);
#387=FILL_AREA_STYLE_COLOUR('',#461);
#388=CIRCLE('',#462,44.45);
#389=CIRCLE('',#463,41.2500000000001);
#390=FILL_AREA_STYLE_COLOUR('',#464);
#391=CIRCLE('',#465,44.45);
#392=FILL_AREA_STYLE_COLOUR('',#466);
#393=CIRCLE('',#467,49.45);
#394=FILL_AREA_STYLE_COLOUR('',#468);
#395=CIRCLE('',#469,69.0000000000001);
#396=FILL_AREA_STYLE_COLOUR('',#470);
#397=CIRCLE('',#471,69.0000000000001);
#398=FILL_AREA_STYLE_COLOUR('',#472);
#399=VERTEX_POINT('',#473);
#400=CIRCLE('',#474,50.2500000000001);
#401=CIRCLE('',#475,50.2500000000001);
#402=FILL_AREA_STYLE_COLOUR('',#476);
#403=CIRCLE('',#477,41.2500000000001);
#404=FILL_AREA_STYLE_COLOUR('',#478);
#405=FILL_AREA_STYLE_COLOUR('',#479);
#406=COLOUR_RGB('',1.0,1.0,0.0);
#407=CARTESIAN_POINT('',(-41.2500000000001,-23.0,0.0));
#408=CARTESIAN_POINT('',(-41.2500000000001,-9.00000000000003,0.0));
#409=CARTESIAN_POINT('',(-41.2500000000001,-16.0,-5.05166804648284E-015));
#410=VECTOR('',#480,1.0);
#411=CARTESIAN_POINT('',(41.2500000000001,-23.0,5.05166804648284E-015));
#412=AXIS2_PLACEMENT_3D('',#481,#482,#483);
#413=CARTESIAN_POINT('',(41.2500000000001,-9.00000000000003,5.05166804648284E-015));
#414=CARTESIAN_POINT('',(41.2500000000001,-16.0,5.05166804648284E-015));
#415=VECTOR('',#484,1.0);
#416=CARTESIAN_POINT('',(5.05166804648284E-015,-9.00000000000003,-41.2500000000001));
#417=AXIS2_PLACEMENT_3D('',#485,#486,#487);
#418=AXIS2_PLACEMENT_3D('',#488,#489,#490);
#419=COLOUR_RGB('',1.0,1.0,0.0);
#420=CARTESIAN_POINT('',(-6.15385016571546E-015,-2.8421709430404E-014,50.2500000000001));
#421=CARTESIAN_POINT('',(-5.05166804648284E-015,-9.00000000000003,41.2500000000001));
#422=AXIS2_PLACEMENT_3D('',#491,#492,#493);
#423=CARTESIAN_POINT('',(6.15385016571546E-015,-2.8421709430404E-014,-50.2500000000001));
#424=AXIS2_PLACEMENT_3D('',#494,#495,#496);
#425=AXIS2_PLACEMENT_3D('',#497,#498,#499);
#426=AXIS2_PLACEMENT_3D('',#500,#501,#502);
#427=COLOUR_RGB('',1.0,1.0,0.0);
#428=CARTESIAN_POINT('',(-69.0000000000001,-4.00000000000003,0.0));
#429=CARTESIAN_POINT('',(-69.0000000000001,-2.8421709430404E-014,0.0));
#430=CARTESIAN_POINT('',(-69.0000000000001,-2.00000000000003,-8.45006291411675E-015));
#431=VECTOR('',#503,1.0);
#432=CARTESIAN_POINT('',(69.0000000000001,-4.00000000000003,8.45006291411675E-015));
#433=AXIS2_PLACEMENT_3D('',#504,#505,#506);
#434=CARTESIAN_POINT('',(69.0000000000001,-2.8421709430404E-014,8.45006291411675E-015));
#435=CARTESIAN_POINT('',(69.0000000000001,-2.00000000000003,8.45006291411675E-015));
#436=VECTOR('',#507,1.0);
#437=AXIS2_PLACEMENT_3D('',#508,#509,#510);
#438=COLOUR_RGB('',1.0,1.0,0.0);
#439=CARTESIAN_POINT('',(5.44355502220999E-015,-9.00000000000003,-44.45));
#440=CARTESIAN_POINT('',(6.05587842178367E-015,-4.00000000000003,-49.45));
#441=AXIS2_PLACEMENT_3D('',#511,#512,#513);
#442=CARTESIAN_POINT('',(-44.45,-9.00000000000003,0.0));
#443=AXIS2_PLACEMENT_3D('',#514,#515,#516);
#444=CARTESIAN_POINT('',(-5.44355502220999E-015,-9.00000000000003,44.45));
#445=AXIS2_PLACEMENT_3D('',#517,#518,#519);
#446=CARTESIAN_POINT('',(-6.05587842178367E-015,-4.00000000000003,49.45));
#447=AXIS2_PLACEMENT_3D('',#520,#521,#522);
#448=CARTESIAN_POINT('',(-49.45,-4.00000000000003,0.0));
#449=AXIS2_PLACEMENT_3D('',#523,#524,#525);
#450=AXIS2_PLACEMENT_3D('',#526,#527,#528);
#451=COLOUR_RGB('',1.0,1.0,0.0);
#452=CARTESIAN_POINT('',(-44.45,-23.0,0.0));
#453=CARTESIAN_POINT('',(-44.45,-16.0,-5.44355502220999E-015));
#454=VECTOR('',#529,1.0);
#455=CARTESIAN_POINT('',(44.45,-23.0,5.44355502220999E-015));
#456=AXIS2_PLACEMENT_3D('',#530,#531,#532);
#457=CARTESIAN_POINT('',(44.45,-9.00000000000003,5.44355502220999E-015));
#458=CARTESIAN_POINT('',(44.45,-16.0,5.44355502220999E-015));
#459=VECTOR('',#533,1.0);
#460=AXIS2_PLACEMENT_3D('',#534,#535,#536);
#461=COLOUR_RGB('',1.0,1.0,0.0);
#462=AXIS2_PLACEMENT_3D('',#537,#538,#539);
#463=AXIS2_PLACEMENT_3D('',#540,#541,#542);
#464=COLOUR_RGB('',1.0,1.0,0.0);
#465=AXIS2_PLACEMENT_3D('',#543,#544,#545);
#466=COLOUR_RGB('',1.0,1.0,0.0);
#467=AXIS2_PLACEMENT_3D('',#546,#547,#548);
#468=COLOUR_RGB('',1.0,1.0,0.0);
#469=AXIS2_PLACEMENT_3D('',#549,#550,#551);
#470=COLOUR_RGB('',1.0,1.0,0.0);
#471=AXIS2_PLACEMENT_3D('',#552,#553,#554);
#472=COLOUR_RGB('',1.0,1.0,0.0);
#473=CARTESIAN_POINT('',(-50.2500000000001,-2.8421709430404E-014,0.0));
#474=AXIS2_PLACEMENT_3D('',#555,#556,#557);
#475=AXIS2_PLACEMENT_3D('',#558,#559,#560);
#476=COLOUR_RGB('',1.0,1.0,0.0);
#477=AXIS2_PLACEMENT_3D('',#561,#562,#563);
#478=COLOUR_RGB('',1.0,1.0,0.0);
#479=COLOUR_RGB('',1.0,1.0,0.0);
#480=DIRECTION('',(0.0,1.0,0.0));
#481=CARTESIAN_POINT('',(0.0,-23.0,0.0));
#482=DIRECTION('',(0.0,1.0,0.0));
#483=DIRECTION('',(-1.0,0.0,0.0));
#484=DIRECTION('',(0.0,-1.0,0.0));
#485=CARTESIAN_POINT('',(0.0,-9.00000000000003,0.0));
#486=DIRECTION('',(0.0,1.0,0.0));
#487=DIRECTION('',(-1.0,0.0,0.0));
#488=CARTESIAN_POINT('',(0.0,-9.00000000000003,0.0));
#489=DIRECTION('',(0.0,1.0,0.0));
#490=DIRECTION('',(-1.0,0.0,0.0));
#491=CARTESIAN_POINT('',(-6.15385016571546E-015,-9.00000000000003,50.2500000000001));
#492=DIRECTION('',(-1.0,0.0,-1.22464679914735E-016));
#493=DIRECTION('',(-1.22464679914735E-016,-0.0,1.0));
#494=CARTESIAN_POINT('',(0.0,-2.8421709430404E-014,0.0));
#495=DIRECTION('',(0.0,1.0,0.0));
#496=DIRECTION('',(-1.0,0.0,0.0));
#497=CARTESIAN_POINT('',(6.15385016571546E-015,-9.00000000000003,-50.2500000000001));
#498=DIRECTION('',(-1.0,0.0,-1.22464679914735E-016));
#499=DIRECTION('',(1.22464679914735E-016,0.0,-1.0));
#500=CARTESIAN_POINT('',(0.0,-9.00000000000003,0.0));
#501=DIRECTION('',(0.0,1.0,0.0));
#502=DIRECTION('',(-1.0,0.0,0.0));
#503=DIRECTION('',(0.0,1.0,0.0));
#504=CARTESIAN_POINT('',(0.0,-4.00000000000003,0.0));
#505=DIRECTION('',(0.0,1.0,0.0));
#506=DIRECTION('',(-1.0,0.0,0.0));
#507=DIRECTION('',(-0.0,-1.0,-0.0));
#508=CARTESIAN_POINT('',(0.0,-2.8421709430404E-014,0.0));
#509=DIRECTION('',(0.0,1.0,0.0));
#510=DIRECTION('',(-1.0,0.0,0.0));
#511=CARTESIAN_POINT('',(6.05587842178367E-015,-9.00000000000003,-49.45));
#512=DIRECTION('',(-1.0,0.0,-1.22464679914735E-016));
#513=DIRECTION('',(1.22464679914735E-016,-0.0,-1.0));
#514=CARTESIAN_POINT('',(0.0,-9.00000000000003,0.0));
#515=DIRECTION('',(0.0,1.0,0.0));
#516=DIRECTION('',(-1.0,0.0,0.0));
#517=CARTESIAN_POINT('',(0.0,-9.00000000000003,0.0));
#518=DIRECTION('',(0.0,1.0,0.0));
#519=DIRECTION('',(-1.0,0.0,0.0));
#520=CARTESIAN_POINT('',(-6.05587842178367E-015,-9.00000000000003,49.45));
#521=DIRECTION('',(-1.0,0.0,-1.22464679914735E-016));
#522=DIRECTION('',(-1.22464679914735E-016,0.0,1.0));
#523=CARTESIAN_POINT('',(0.0,-4.00000000000003,0.0));
#524=DIRECTION('',(0.0,1.0,0.0));
#525=DIRECTION('',(-1.0,0.0,0.0));
#526=CARTESIAN_POINT('',(0.0,-4.00000000000003,0.0));
#527=DIRECTION('',(0.0,1.0,0.0));
#528=DIRECTION('',(-1.0,0.0,0.0));
#529=DIRECTION('',(0.0,1.0,0.0));
#530=CARTESIAN_POINT('',(0.0,-23.0,0.0));
#531=DIRECTION('',(0.0,1.0,0.0));
#532=DIRECTION('',(-1.0,0.0,0.0));
#533=DIRECTION('',(-0.0,-1.0,-0.0));
#534=CARTESIAN_POINT('',(0.0,-9.00000000000003,0.0));
#535=DIRECTION('',(0.0,1.0,0.0));
#536=DIRECTION('',(-1.0,0.0,0.0));
#537=CARTESIAN_POINT('',(0.0,-23.0,0.0));
#538=DIRECTION('',(0.0,1.0,0.0));
#539=DIRECTION('',(-1.0,0.0,0.0));
#540=CARTESIAN_POINT('',(0.0,-23.0,0.0));
#541=DIRECTION('',(0.0,1.0,0.0));
#542=DIRECTION('',(-1.0,0.0,0.0));
#543=CARTESIAN_POINT('',(0.0,-9.00000000000003,0.0));
#544=DIRECTION('',(0.0,1.0,0.0));
#545=DIRECTION('',(-1.0,0.0,0.0));
#546=CARTESIAN_POINT('',(0.0,-4.00000000000003,0.0));
#547=DIRECTION('',(0.0,1.0,0.0));
#548=DIRECTION('',(-1.0,0.0,0.0));
#549=CARTESIAN_POINT('',(0.0,-4.00000000000003,0.0));
#550=DIRECTION('',(0.0,1.0,0.0));
#551=DIRECTION('',(-1.0,0.0,0.0));
#552=CARTESIAN_POINT('',(0.0,-2.8421709430404E-014,0.0));
#553=DIRECTION('',(0.0,1.0,0.0));
#554=DIRECTION('',(-1.0,0.0,0.0));
#555=CARTESIAN_POINT('',(0.0,-2.8421709430404E-014,0.0));
#556=DIRECTION('',(0.0,1.0,0.0));
#557=DIRECTION('',(-1.0,0.0,0.0));
#558=CARTESIAN_POINT('',(0.0,-2.8421709430404E-014,0.0));
#559=DIRECTION('',(0.0,1.0,0.0));
#560=DIRECTION('',(-1.0,0.0,0.0));
#561=CARTESIAN_POINT('',(0.0,-9.00000000000003,0.0));
#562=DIRECTION('',(0.0,1.0,0.0));
#563=DIRECTION('',(-1.0,0.0,0.0));
ENDSEC;
END-ISO-10303-21;
