ISO-10303-21;
HEADER;
FILE_DESCRIPTION (( 'STEP AP203' ),
    '1' );
FILE_NAME ('11-0206-10_outokumpu.step',
    '2015-08-11T09:47:36',
    ( '' ),
    ( '' ),
    'SwSTEP 2.0',
    'SolidWorks 2008',
    '' );
FILE_SCHEMA (( 'CONFIG_CONTROL_DESIGN' ));
ENDSEC;

DATA;
#1 = AXIS2_PLACEMENT_3D ( 'NONE', #5, #2, #3 ) ;
#2 = DIRECTION ( 'NONE',  ( -0.0000000000000000000, -0.0000000000000000000, 1.000000000000000000 ) ) ;
#3 = DIRECTION ( 'NONE',  ( 1.000000000000000000, 0.0000000000000000000, 0.0000000000000000000 ) ) ;
#4 = CYLINDRICAL_SURFACE ( 'NONE', #1, 36.11299999999999200 ) ;
#5 = CARTESIAN_POINT ( 'NONE',  ( 0.0000000000000000000, 0.0000000000000000000, -4.336808689942017700E-016 ) ) ;
#6 = ORIENTED_EDGE ( 'NONE', *, *, #74, .F. ) ;
#7 = ADVANCED_FACE ( 'NONE', ( #164, #163 ), #166, .F. ) ;
#8 = ORIENTED_EDGE ( 'NONE', *, *, #22, .F. ) ;
#9 = ORIENTED_EDGE ( 'NONE', *, *, #98, .T. ) ;
#10 = ORIENTED_EDGE ( 'NONE', *, *, #95, .T. ) ;
#11 = ORIENTED_EDGE ( 'NONE', *, *, #40, .T. ) ;
#12 = ORIENTED_EDGE ( 'NONE', *, *, #40, .F. ) ;
#13 = ORIENTED_EDGE ( 'NONE', *, *, #31, .F. ) ;
#14 = ORIENTED_EDGE ( 'NONE', *, *, #22, .T. ) ;
#15 = ORIENTED_EDGE ( 'NONE', *, *, #80, .T. ) ;
#16 = ORIENTED_EDGE ( 'NONE', *, *, #59, .T. ) ;
#17 = ORIENTED_EDGE ( 'NONE', *, *, #69, .F. ) ;
#18 = EDGE_LOOP ( 'NONE', ( #17, #14, #15, #12 ) ) ;
#19 = EDGE_LOOP ( 'NONE', ( #21, #10 ) ) ;
#20 = EDGE_LOOP ( 'NONE', ( #41, #43, #26, #16 ) ) ;
#21 = ORIENTED_EDGE ( 'NONE', *, *, #23, .T. ) ;
#22 = EDGE_CURVE ( 'NONE', #28, #33, #139, .T. ) ;
#23 = EDGE_CURVE ( 'NONE', #85, #83, #162, .T. ) ;
#24 = ORIENTED_EDGE ( 'NONE', *, *, #68, .F. ) ;
#25 = ORIENTED_EDGE ( 'NONE', *, *, #65, .T. ) ;
#26 = ORIENTED_EDGE ( 'NONE', *, *, #76, .T. ) ;
#27 = ORIENTED_EDGE ( 'NONE', *, *, #69, .T. ) ;
#28 = VERTEX_POINT ( 'NONE', #158 ) ;
#29 = ORIENTED_EDGE ( 'NONE', *, *, #31, .T. ) ;
#30 = EDGE_LOOP ( 'NONE', ( #29, #9 ) ) ;
#31 = EDGE_CURVE ( 'NONE', #35, #37, #157, .T. ) ;
#32 = ADVANCED_FACE ( 'NONE', ( #152 ), #151, .F. ) ;
#33 = VERTEX_POINT ( 'NONE', #150 ) ;
#34 = ORIENTED_EDGE ( 'NONE', *, *, #76, .F. ) ;
#35 = VERTEX_POINT ( 'NONE', #145 ) ;
#36 = CARTESIAN_POINT ( 'NONE',  ( 0.0000000000000000000, 0.0000000000000000000, 0.0000000000000000000 ) ) ;
#37 = VERTEX_POINT ( 'NONE', #176 ) ;
#38 = DIRECTION ( 'NONE',  ( 1.000000000000000000, 0.0000000000000000000, 0.0000000000000000000 ) ) ;
#39 = DIRECTION ( 'NONE',  ( 0.0000000000000000000, 0.0000000000000000000, 1.000000000000000000 ) ) ;
#40 = EDGE_CURVE ( 'NONE', #70, #71, #175, .T. ) ;
#41 = ORIENTED_EDGE ( 'NONE', *, *, #86, .F. ) ;
#42 = CLOSED_SHELL ( 'NONE', ( #73, #94, #93, #99, #178, #62, #7, #32, #53, #46 ) ) ;
#43 = ORIENTED_EDGE ( 'NONE', *, *, #23, .F. ) ;
#44 = ORIENTED_EDGE ( 'NONE', *, *, #90, .T. ) ;
#45 = ORIENTED_EDGE ( 'NONE', *, *, #77, .F. ) ;
#46 = ADVANCED_FACE ( 'NONE', ( #170 ), #169, .T. ) ;
#47 = EDGE_LOOP ( 'NONE', ( #24, #13, #25, #48 ) ) ;
#48 = ORIENTED_EDGE ( 'NONE', *, *, #61, .T. ) ;
#49 = EDGE_CURVE ( 'NONE', #81, #67, #130, .T. ) ;
#50 = VERTEX_POINT ( 'NONE', #125 ) ;
#51 = ORIENTED_EDGE ( 'NONE', *, *, #66, .T. ) ;
#52 = ORIENTED_EDGE ( 'NONE', *, *, #68, .T. ) ;
#53 = ADVANCED_FACE ( 'NONE', ( #124 ), #122, .T. ) ;
#54 = ORIENTED_EDGE ( 'NONE', *, *, #65, .F. ) ;
#55 = EDGE_LOOP ( 'NONE', ( #60, #58 ) ) ;
#56 = ORIENTED_EDGE ( 'NONE', *, *, #61, .F. ) ;
#57 = EDGE_LOOP ( 'NONE', ( #6, #8 ) ) ;
#58 = ORIENTED_EDGE ( 'NONE', *, *, #49, .F. ) ;
#59 = EDGE_CURVE ( 'NONE', #67, #81, #118, .T. ) ;
#60 = ORIENTED_EDGE ( 'NONE', *, *, #59, .F. ) ;
#61 = EDGE_CURVE ( 'NONE', #63, #50, #113, .T. ) ;
#62 = ADVANCED_FACE ( 'NONE', ( #108, #107 ), #106, .F. ) ;
#63 = VERTEX_POINT ( 'NONE', #104 ) ;
#64 = EDGE_LOOP ( 'NONE', ( #75, #27, #96, #89 ) ) ;
#65 = EDGE_CURVE ( 'NONE', #35, #63, #189, .T. ) ;
#66 = EDGE_CURVE ( 'NONE', #50, #63, #221, .T. ) ;
#67 = VERTEX_POINT ( 'NONE', #188 ) ;
#68 = EDGE_CURVE ( 'NONE', #37, #50, #192, .T. ) ;
#69 = EDGE_CURVE ( 'NONE', #28, #70, #202, .T. ) ;
#70 = VERTEX_POINT ( 'NONE', #186 ) ;
#71 = VERTEX_POINT ( 'NONE', #185 ) ;
#72 = MANIFOLD_SOLID_BREP ( 'NONE', #42 ) ;
#73 = ADVANCED_FACE ( 'NONE', ( #184 ), #182, .T. ) ;
#74 = EDGE_CURVE ( 'NONE', #33, #28, #195, .T. ) ;
#75 = ORIENTED_EDGE ( 'NONE', *, *, #74, .T. ) ;
#76 = EDGE_CURVE ( 'NONE', #85, #67, #196, .T. ) ;
#77 = EDGE_CURVE ( 'NONE', #70, #63, #217, .T. ) ;
#78 = ORIENTED_EDGE ( 'NONE', *, *, #66, .F. ) ;
#79 = ORIENTED_EDGE ( 'NONE', *, *, #90, .F. ) ;
#80 = EDGE_CURVE ( 'NONE', #33, #71, #213, .T. ) ;
#81 = VERTEX_POINT ( 'NONE', #230 ) ;
#82 = ORIENTED_EDGE ( 'NONE', *, *, #95, .F. ) ;
#83 = VERTEX_POINT ( 'NONE', #229 ) ;
#84 = EDGE_LOOP ( 'NONE', ( #82, #91, #92, #34 ) ) ;
#85 = VERTEX_POINT ( 'NONE', #228 ) ;
#86 = EDGE_CURVE ( 'NONE', #83, #81, #211, .T. ) ;
#87 = ORIENTED_EDGE ( 'NONE', *, *, #98, .F. ) ;
#88 = EDGE_CURVE ( 'NONE', #71, #70, #207, .T. ) ;
#89 = ORIENTED_EDGE ( 'NONE', *, *, #80, .F. ) ;
#90 = EDGE_CURVE ( 'NONE', #71, #50, #243, .T. ) ;
#91 = ORIENTED_EDGE ( 'NONE', *, *, #86, .T. ) ;
#92 = ORIENTED_EDGE ( 'NONE', *, *, #49, .T. ) ;
#93 = ADVANCED_FACE ( 'NONE', ( #244 ), #252, .F. ) ;
#94 = ADVANCED_FACE ( 'NONE', ( #245 ), #250, .T. ) ;
#95 = EDGE_CURVE ( 'NONE', #83, #85, #238, .T. ) ;
#96 = ORIENTED_EDGE ( 'NONE', *, *, #88, .F. ) ;
#97 = EDGE_LOOP ( 'NONE', ( #87, #52, #51, #54 ) ) ;
#98 = EDGE_CURVE ( 'NONE', #37, #35, #330, .T. ) ;
#99 = ADVANCED_FACE ( 'NONE', ( #327 ), #4, .T. ) ;
#100 = ORIENTED_EDGE ( 'NONE', *, *, #77, .T. ) ;
#101 = DIRECTION ( 'NONE',  ( 1.000000000000000000, 0.0000000000000000000, 0.0000000000000000000 ) ) ;
#102 = DIRECTION ( 'NONE',  ( 0.0000000000000000000, -0.0000000000000000000, 1.000000000000000000 ) ) ;
#103 = AXIS2_PLACEMENT_3D ( 'NONE', #105, #102, #101 ) ;
#104 = CARTESIAN_POINT ( 'NONE',  ( -36.11300000000000000, 4.422420925558751400E-015, -1.261093748655226300 ) ) ;
#105 = CARTESIAN_POINT ( 'NONE',  ( 0.0000000000000000000, 36.11299999999999200, -55.00000000000000700 ) ) ;
#106 = PLANE ( 'NONE',  #103 ) ;
#107 = FACE_OUTER_BOUND ( 'NONE', #57, .T. ) ;
#108 = FACE_BOUND ( 'NONE', #55, .T. ) ;
#109 = DIRECTION ( 'NONE',  ( 1.000000000000000000, 0.0000000000000000000, 0.0000000000000000000 ) ) ;
#110 = DIRECTION ( 'NONE',  ( -0.0000000000000000000, -0.0000000000000000000, 1.000000000000000000 ) ) ;
#111 = CARTESIAN_POINT ( 'NONE',  ( 0.0000000000000000000, 0.0000000000000000000, -1.261093748655226300 ) ) ;
#112 = AXIS2_PLACEMENT_3D ( 'NONE', #111, #110, #109 ) ;
#113 = CIRCLE ( 'NONE', #112, 36.11300000000000000 ) ;
#114 = DIRECTION ( 'NONE',  ( 0.0000000000000000000, 1.000000000000000000, 2.014192715212547100E-016 ) ) ;
#115 = DIRECTION ( 'NONE',  ( -0.0000000000000000000, 1.499194448841508800E-016, -1.000000000000000000 ) ) ;
#116 = CARTESIAN_POINT ( 'NONE',  ( 0.0000000000000000000, 4.776122516674685000E-015, -55.00000000000000700 ) ) ;
#117 = AXIS2_PLACEMENT_3D ( 'NONE', #116, #115, #114 ) ;
#118 = CIRCLE ( 'NONE', #117, 34.45000000000001700 ) ;
#119 = DIRECTION ( 'NONE',  ( -1.000000000000000000, 0.0000000000000000000, 0.0000000000000000000 ) ) ;
#120 = DIRECTION ( 'NONE',  ( 0.0000000000000000000, 0.0000000000000000000, -1.000000000000000000 ) ) ;
#121 = AXIS2_PLACEMENT_3D ( 'NONE', #123, #120, #119 ) ;
#122 = CONICAL_SURFACE ( 'NONE', #121, 34.85190625134476500, 0.7853981633974509400 ) ;
#123 = CARTESIAN_POINT ( 'NONE',  ( 0.0000000000000000000, 0.0000000000000000000, -3.256934338464455600E-017 ) ) ;
#124 = FACE_OUTER_BOUND ( 'NONE', #47, .T. ) ;
#125 = CARTESIAN_POINT ( 'NONE',  ( 36.11300000000000000, 0.0000000000000000000, -1.261093748655226300 ) ) ;
#126 = DIRECTION ( 'NONE',  ( 0.0000000000000000000, 1.000000000000000000, 2.014192715212547100E-016 ) ) ;
#127 = DIRECTION ( 'NONE',  ( -0.0000000000000000000, 1.499194448841508800E-016, -1.000000000000000000 ) ) ;
#128 = CARTESIAN_POINT ( 'NONE',  ( 0.0000000000000000000, 4.776122516674685000E-015, -55.00000000000000700 ) ) ;
#129 = AXIS2_PLACEMENT_3D ( 'NONE', #128, #127, #126 ) ;
#130 = CIRCLE ( 'NONE', #129, 34.45000000000001700 ) ;
#131 = DIRECTION ( 'NONE',  ( 1.000000000000000000, 0.0000000000000000000, 0.0000000000000000000 ) ) ;
#132 = DIRECTION ( 'NONE',  ( -0.0000000000000000000, -0.0000000000000000000, 1.000000000000000000 ) ) ;
#133 = CARTESIAN_POINT ( 'NONE',  ( 0.0000000000000000000, 0.0000000000000000000, -53.73890625134448800 ) ) ;
#134 = AXIS2_PLACEMENT_3D ( 'NONE', #133, #132, #131 ) ;
#135 = DIRECTION ( 'NONE',  ( 1.000000000000000000, 0.0000000000000000000, 0.0000000000000000000 ) ) ;
#136 = DIRECTION ( 'NONE',  ( -0.0000000000000000000, -0.0000000000000000000, 1.000000000000000000 ) ) ;
#137 = CARTESIAN_POINT ( 'NONE',  ( 0.0000000000000000000, 0.0000000000000000000, -55.00000000000000700 ) ) ;
#138 = AXIS2_PLACEMENT_3D ( 'NONE', #137, #136, #135 ) ;
#139 = CIRCLE ( 'NONE', #138, 34.85190625134446000 ) ;
#140 = CARTESIAN_POINT ( 'NONE',  ( 0.0000000000000000000, -3.469446951953612600E-015, -6.938893903907228400E-015 ) ) ;
#141 = DIRECTION ( 'NONE',  ( -1.000000000000000000, 0.0000000000000000000, -0.0000000000000000000 ) ) ;
#142 = DIRECTION ( 'NONE',  ( 0.0000000000000000000, 0.0000000000000000000, -1.000000000000000000 ) ) ;
#143 = CARTESIAN_POINT ( 'NONE',  ( 0.0000000000000000000, 36.11300000000000000, -2.168404344971008900E-016 ) ) ;
#144 = AXIS2_PLACEMENT_3D ( 'NONE', #36, #39, #38 ) ;
#145 = CARTESIAN_POINT ( 'NONE',  ( -34.85190625134476500, 0.0000000000000000000, -3.256934338464455600E-017 ) ) ;
#146 = DIRECTION ( 'NONE',  ( 0.0000000000000000000, 1.000000000000000000, 2.014192715212547600E-016 ) ) ;
#147 = DIRECTION ( 'NONE',  ( -0.0000000000000000000, 1.499194448841508800E-016, -1.000000000000000000 ) ) ;
#148 = CARTESIAN_POINT ( 'NONE',  ( 0.0000000000000000000, 4.776122516674703900E-015, -55.00000000000013500 ) ) ;
#149 = AXIS2_PLACEMENT_3D ( 'NONE', #148, #147, #146 ) ;
#150 = CARTESIAN_POINT ( 'NONE',  ( 34.85190625134446000, 0.0000000000000000000, -55.00000000000000700 ) ) ;
#151 = CYLINDRICAL_SURFACE ( 'NONE', #149, 34.45000000000001000 ) ;
#152 = FACE_OUTER_BOUND ( 'NONE', #20, .T. ) ;
#153 = DIRECTION ( 'NONE',  ( 1.000000000000000000, 0.0000000000000000000, 0.0000000000000000000 ) ) ;
#154 = DIRECTION ( 'NONE',  ( -0.0000000000000000000, -0.0000000000000000000, 1.000000000000000000 ) ) ;
#155 = CARTESIAN_POINT ( 'NONE',  ( 0.0000000000000000000, 0.0000000000000000000, -3.256934338464455600E-017 ) ) ;
#156 = AXIS2_PLACEMENT_3D ( 'NONE', #155, #154, #153 ) ;
#157 = CIRCLE ( 'NONE', #156, 34.85190625134476500 ) ;
#158 = CARTESIAN_POINT ( 'NONE',  ( -34.85190625134446000, 4.345203754690289100E-015, -55.00000000000000700 ) ) ;
#159 = DIRECTION ( 'NONE',  ( 0.0000000000000000000, 1.000000000000000000, 1.499194448841508800E-016 ) ) ;
#160 = DIRECTION ( 'NONE',  ( -0.0000000000000000000, 1.499194448841508800E-016, -1.000000000000000000 ) ) ;
#161 = AXIS2_PLACEMENT_3D ( 'NONE', #140, #160, #159 ) ;
#162 = CIRCLE ( 'NONE', #161, 34.45000000000001000 ) ;
#163 = FACE_OUTER_BOUND ( 'NONE', #30, .T. ) ;
#164 = FACE_BOUND ( 'NONE', #19, .T. ) ;
#165 = AXIS2_PLACEMENT_3D ( 'NONE', #143, #142, #141 ) ;
#166 = PLANE ( 'NONE',  #165 ) ;
#167 = EDGE_LOOP ( 'NONE', ( #168, #100, #78, #79 ) ) ;
#168 = ORIENTED_EDGE ( 'NONE', *, *, #88, .T. ) ;
#169 = CONICAL_SURFACE ( 'NONE', #134, 36.11300000000000700, 0.7853981633974592700 ) ;
#170 = FACE_OUTER_BOUND ( 'NONE', #18, .T. ) ;
#171 = DIRECTION ( 'NONE',  ( 1.000000000000000000, 0.0000000000000000000, 0.0000000000000000000 ) ) ;
#172 = DIRECTION ( 'NONE',  ( -0.0000000000000000000, -0.0000000000000000000, 1.000000000000000000 ) ) ;
#173 = CARTESIAN_POINT ( 'NONE',  ( 0.0000000000000000000, 0.0000000000000000000, -53.73890625134448800 ) ) ;
#174 = AXIS2_PLACEMENT_3D ( 'NONE', #173, #172, #171 ) ;
#175 = CIRCLE ( 'NONE', #174, 36.11300000000000700 ) ;
#176 = CARTESIAN_POINT ( 'NONE',  ( 34.85190625134476500, 4.345203754690307200E-015, -3.256934338464455600E-017 ) ) ;
#177 = EDGE_LOOP ( 'NONE', ( #45, #11, #44, #56 ) ) ;
#178 = ADVANCED_FACE ( 'NONE', ( #344 ), #348, .T. ) ;
#179 = VECTOR ( 'NONE', #227, 1000.000000000000000 ) ;
#180 = DIRECTION ( 'NONE',  ( 0.7071067811865493500, 8.659274570719377600E-017, -0.7071067811865456900 ) ) ;
#181 = CARTESIAN_POINT ( 'NONE',  ( 0.0000000000000000000, 0.0000000000000000000, -53.73890625134448800 ) ) ;
#182 = CONICAL_SURFACE ( 'NONE', #198, 36.11300000000000700, 0.7853981633974592700 ) ;
#183 = DIRECTION ( 'NONE',  ( -0.0000000000000000000, -0.0000000000000000000, 1.000000000000000000 ) ) ;
#184 = FACE_OUTER_BOUND ( 'NONE', #64, .T. ) ;
#185 = CARTESIAN_POINT ( 'NONE',  ( 36.11300000000000700, 0.0000000000000000000, -53.73890625134448800 ) ) ;
#186 = CARTESIAN_POINT ( 'NONE',  ( -36.11300000000000700, 4.422420925558753000E-015, -53.73890625134448800 ) ) ;
#187 = CARTESIAN_POINT ( 'NONE',  ( 0.0000000000000000000, 0.0000000000000000000, -1.261093748655226300 ) ) ;
#188 = CARTESIAN_POINT ( 'NONE',  ( 0.0000000000000000000, 34.45000000000002400, -55.00000000000000000 ) ) ;
#189 = LINE ( 'NONE', #218, #179 ) ;
#190 = VECTOR ( 'NONE', #180, 1000.000000000000000 ) ;
#191 = CARTESIAN_POINT ( 'NONE',  ( 34.85190625134476500, 4.267986583821863000E-015, -3.256934338464455600E-017 ) ) ;
#192 = LINE ( 'NONE', #191, #190 ) ;
#193 = CARTESIAN_POINT ( 'NONE',  ( 0.0000000000000000000, 0.0000000000000000000, -55.00000000000000700 ) ) ;
#194 = AXIS2_PLACEMENT_3D ( 'NONE', #193, #226, #225 ) ;
#195 = CIRCLE ( 'NONE', #194, 34.85190625134446000 ) ;
#196 = LINE ( 'NONE', #224, #223 ) ;
#197 = DIRECTION ( 'NONE',  ( 1.000000000000000000, 0.0000000000000000000, 0.0000000000000000000 ) ) ;
#198 = AXIS2_PLACEMENT_3D ( 'NONE', #181, #183, #197 ) ;
#199 = DIRECTION ( 'NONE',  ( -0.7071067811865552300, 8.659274570719449100E-017, 0.7071067811865398000 ) ) ;
#200 = VECTOR ( 'NONE', #199, 1000.000000000000000 ) ;
#201 = CARTESIAN_POINT ( 'NONE',  ( -36.11300000000000700, 4.422420925558752200E-015, -53.73890625134448800 ) ) ;
#202 = LINE ( 'NONE', #201, #200 ) ;
#203 = DIRECTION ( 'NONE',  ( 1.000000000000000000, 0.0000000000000000000, 0.0000000000000000000 ) ) ;
#204 = DIRECTION ( 'NONE',  ( -0.0000000000000000000, -0.0000000000000000000, 1.000000000000000000 ) ) ;
#205 = CARTESIAN_POINT ( 'NONE',  ( 0.0000000000000000000, 0.0000000000000000000, -53.73890625134448800 ) ) ;
#206 = AXIS2_PLACEMENT_3D ( 'NONE', #205, #204, #203 ) ;
#207 = CIRCLE ( 'NONE', #206, 36.11300000000000700 ) ;
#208 = DIRECTION ( 'NONE',  ( -0.0000000000000000000, 1.499194448841508800E-016, -1.000000000000000000 ) ) ;
#209 = VECTOR ( 'NONE', #208, 1000.000000000000000 ) ;
#210 = CARTESIAN_POINT ( 'NONE',  ( 4.218768888918090600E-015, -34.45000000000000300, -55.00000000000014200 ) ) ;
#211 = LINE ( 'NONE', #210, #209 ) ;
#212 = DIRECTION ( 'NONE',  ( 1.000000000000000000, 0.0000000000000000000, 0.0000000000000000000 ) ) ;
#213 = LINE ( 'NONE', #233, #232 ) ;
#214 = DIRECTION ( 'NONE',  ( -0.0000000000000000000, -0.0000000000000000000, 1.000000000000000000 ) ) ;
#215 = VECTOR ( 'NONE', #214, 1000.000000000000000 ) ;
#216 = CARTESIAN_POINT ( 'NONE',  ( -36.11299999999999200, 4.422420925558750600E-015, -4.336808689942017700E-016 ) ) ;
#217 = LINE ( 'NONE', #216, #215 ) ;
#218 = CARTESIAN_POINT ( 'NONE',  ( -34.85190625134476500, 0.0000000000000000000, -3.256934338464455600E-017 ) ) ;
#219 = DIRECTION ( 'NONE',  ( -0.0000000000000000000, -0.0000000000000000000, 1.000000000000000000 ) ) ;
#220 = AXIS2_PLACEMENT_3D ( 'NONE', #187, #219, #212 ) ;
#221 = CIRCLE ( 'NONE', #220, 36.11300000000000000 ) ;
#222 = DIRECTION ( 'NONE',  ( -0.0000000000000000000, 1.499194448841508800E-016, -1.000000000000000000 ) ) ;
#223 = VECTOR ( 'NONE', #222, 1000.000000000000000 ) ;
#224 = CARTESIAN_POINT ( 'NONE',  ( 0.0000000000000000000, 34.45000000000001700, -55.00000000000012800 ) ) ;
#225 = DIRECTION ( 'NONE',  ( 1.000000000000000000, 0.0000000000000000000, 0.0000000000000000000 ) ) ;
#226 = DIRECTION ( 'NONE',  ( -0.0000000000000000000, -0.0000000000000000000, 1.000000000000000000 ) ) ;
#227 = DIRECTION ( 'NONE',  ( -0.7071067811865493500, 0.0000000000000000000, -0.7071067811865456900 ) ) ;
#228 = CARTESIAN_POINT ( 'NONE',  ( 0.0000000000000000000, 34.45000000000001000, -1.774169027648229500E-015 ) ) ;
#229 = CARTESIAN_POINT ( 'NONE',  ( 4.218768888918090600E-015, -34.45000000000001000, -1.210361878016622600E-014 ) ) ;
#230 = CARTESIAN_POINT ( 'NONE',  ( 4.218768888918090600E-015, -34.45000000000001000, -55.00000000000001400 ) ) ;
#231 = DIRECTION ( 'NONE',  ( 0.7071067811865552300, 0.0000000000000000000, 0.7071067811865398000 ) ) ;
#232 = VECTOR ( 'NONE', #231, 1000.000000000000000 ) ;
#233 = CARTESIAN_POINT ( 'NONE',  ( 36.11300000000000700, 0.0000000000000000000, -53.73890625134448800 ) ) ;
#234 = DIRECTION ( 'NONE',  ( 0.0000000000000000000, 1.000000000000000000, 1.499194448841508800E-016 ) ) ;
#235 = DIRECTION ( 'NONE',  ( -0.0000000000000000000, 1.499194448841508800E-016, -1.000000000000000000 ) ) ;
#236 = CARTESIAN_POINT ( 'NONE',  ( 0.0000000000000000000, -3.469446951953612600E-015, -6.938893903907228400E-015 ) ) ;
#237 = AXIS2_PLACEMENT_3D ( 'NONE', #236, #235, #234 ) ;
#238 = CIRCLE ( 'NONE', #237, 34.45000000000001000 ) ;
#239 = DIRECTION ( 'NONE',  ( -1.000000000000000000, 0.0000000000000000000, 0.0000000000000000000 ) ) ;
#240 = DIRECTION ( 'NONE',  ( 0.0000000000000000000, 0.0000000000000000000, -1.000000000000000000 ) ) ;
#241 = CARTESIAN_POINT ( 'NONE',  ( 0.0000000000000000000, 0.0000000000000000000, -3.256934338464455600E-017 ) ) ;
#242 = AXIS2_PLACEMENT_3D ( 'NONE', #241, #240, #239 ) ;
#243 = LINE ( 'NONE', #249, #248 ) ;
#244 = FACE_OUTER_BOUND ( 'NONE', #84, .T. ) ;
#245 = FACE_OUTER_BOUND ( 'NONE', #97, .T. ) ;
#246 = DIRECTION ( 'NONE',  ( 0.0000000000000000000, 1.000000000000000000, 2.014192715212547600E-016 ) ) ;
#247 = DIRECTION ( 'NONE',  ( -0.0000000000000000000, 1.499194448841508800E-016, -1.000000000000000000 ) ) ;
#248 = VECTOR ( 'NONE', #251, 1000.000000000000000 ) ;
#249 = CARTESIAN_POINT ( 'NONE',  ( 36.11299999999999200, 0.0000000000000000000, -4.336808689942017700E-016 ) ) ;
#250 = CONICAL_SURFACE ( 'NONE', #242, 34.85190625134476500, 0.7853981633974509400 ) ;
#251 = DIRECTION ( 'NONE',  ( -0.0000000000000000000, -0.0000000000000000000, 1.000000000000000000 ) ) ;
#252 = CYLINDRICAL_SURFACE ( 'NONE', #254, 34.45000000000001000 ) ;
#253 = CARTESIAN_POINT ( 'NONE',  ( 0.0000000000000000000, 4.776122516674703900E-015, -55.00000000000013500 ) ) ;
#254 = AXIS2_PLACEMENT_3D ( 'NONE', #253, #247, #246 ) ;
#255 = CC_DESIGN_PERSON_AND_ORGANIZATION_ASSIGNMENT ( #257, #256, ( #269 ) ) ;
#256 = PERSON_AND_ORGANIZATION_ROLE ( 'creator' ) ;
#257 = PERSON_AND_ORGANIZATION ( #335, #298 ) ;
#258 = CC_DESIGN_APPROVAL ( #266, ( #269 ) ) ;
#259 = APPROVAL_DATE_TIME ( #260, #266 ) ;
#260 = DATE_AND_TIME ( #261, #262 ) ;
#261 = CALENDAR_DATE ( 2015, 11, 8 ) ;
#262 = LOCAL_TIME ( 11, 47, 36.00000000000000000, #263 ) ;
#263 = COORDINATED_UNIVERSAL_TIME_OFFSET ( 1, 0, .AHEAD. ) ;
#264 = APPROVAL_PERSON_ORGANIZATION ( #268, #266, #265 ) ;
#265 = APPROVAL_ROLE ( '' ) ;
#266 = APPROVAL ( #267, 'UNSPECIFIED' ) ;
#267 = APPROVAL_STATUS ( 'not_yet_approved' ) ;
#268 = PERSON_AND_ORGANIZATION ( #335, #298 ) ;
#269 = PRODUCT_DEFINITION_FORMATION_WITH_SPECIFIED_SOURCE ( 'ANY', '', #333, .NOT_KNOWN. ) ;
#270 = CC_DESIGN_DATE_AND_TIME_ASSIGNMENT ( #272, #271, ( #290 ) ) ;
#271 = DATE_TIME_ROLE ( 'creation_date' ) ;
#272 = DATE_AND_TIME ( #273, #274 ) ;
#273 = CALENDAR_DATE ( 2015, 11, 8 ) ;
#274 = LOCAL_TIME ( 11, 47, 36.00000000000000000, #275 ) ;
#275 = COORDINATED_UNIVERSAL_TIME_OFFSET ( 1, 0, .AHEAD. ) ;
#276 = CC_DESIGN_PERSON_AND_ORGANIZATION_ASSIGNMENT ( #278, #277, ( #290 ) ) ;
#277 = PERSON_AND_ORGANIZATION_ROLE ( 'creator' ) ;
#278 = PERSON_AND_ORGANIZATION ( #335, #298 ) ;
#279 = CC_DESIGN_APPROVAL ( #287, ( #290 ) ) ;
#280 = APPROVAL_DATE_TIME ( #281, #287 ) ;
#281 = DATE_AND_TIME ( #282, #283 ) ;
#282 = CALENDAR_DATE ( 2015, 11, 8 ) ;
#283 = LOCAL_TIME ( 11, 47, 36.00000000000000000, #284 ) ;
#284 = COORDINATED_UNIVERSAL_TIME_OFFSET ( 1, 0, .AHEAD. ) ;
#285 = APPROVAL_PERSON_ORGANIZATION ( #289, #287, #286 ) ;
#286 = APPROVAL_ROLE ( '' ) ;
#287 = APPROVAL ( #288, 'UNSPECIFIED' ) ;
#288 = APPROVAL_STATUS ( 'not_yet_approved' ) ;
#289 = PERSON_AND_ORGANIZATION ( #335, #298 ) ;
#290 = PRODUCT_DEFINITION ( 'UNKNOWN', '', #269, #291 ) ;
#291 = DESIGN_CONTEXT ( 'detailed design', #293, 'design' ) ;
#292 = APPLICATION_PROTOCOL_DEFINITION ( 'international standard', 'config_control_design', 1994, #293 ) ;
#293 = APPLICATION_CONTEXT ( 'configuration controlled 3d designs of mechanical parts and assemblies' ) ;
#294 = SHAPE_DEFINITION_REPRESENTATION ( #299, #339 ) ;
#295 = CC_DESIGN_PERSON_AND_ORGANIZATION_ASSIGNMENT ( #297, #296, ( #333 ) ) ;
#296 = PERSON_AND_ORGANIZATION_ROLE ( 'design_owner' ) ;
#297 = PERSON_AND_ORGANIZATION ( #335, #298 ) ;
#298 = ORGANIZATION ( 'UNSPECIFIED', 'UNSPECIFIED', '' ) ;
#299 = PRODUCT_DEFINITION_SHAPE ( 'NONE', 'NONE',  #290 ) ;
#300 = PRODUCT_RELATED_PRODUCT_CATEGORY ( 'detail', '', ( #333 ) ) ;
#301 = CC_DESIGN_SECURITY_CLASSIFICATION ( #322, ( #269 ) ) ;
#302 = CC_DESIGN_APPROVAL ( #310, ( #322 ) ) ;
#303 = APPROVAL_DATE_TIME ( #304, #310 ) ;
#304 = DATE_AND_TIME ( #305, #306 ) ;
#305 = CALENDAR_DATE ( 2015, 11, 8 ) ;
#306 = LOCAL_TIME ( 11, 47, 36.00000000000000000, #307 ) ;
#307 = COORDINATED_UNIVERSAL_TIME_OFFSET ( 1, 0, .AHEAD. ) ;
#308 = APPROVAL_PERSON_ORGANIZATION ( #312, #310, #309 ) ;
#309 = APPROVAL_ROLE ( '' ) ;
#310 = APPROVAL ( #311, 'UNSPECIFIED' ) ;
#311 = APPROVAL_STATUS ( 'not_yet_approved' ) ;
#312 = PERSON_AND_ORGANIZATION ( #335, #298 ) ;
#313 = CC_DESIGN_DATE_AND_TIME_ASSIGNMENT ( #315, #314, ( #322 ) ) ;
#314 = DATE_TIME_ROLE ( 'classification_date' ) ;
#315 = DATE_AND_TIME ( #316, #317 ) ;
#316 = CALENDAR_DATE ( 2015, 11, 8 ) ;
#317 = LOCAL_TIME ( 11, 47, 36.00000000000000000, #318 ) ;
#318 = COORDINATED_UNIVERSAL_TIME_OFFSET ( 1, 0, .AHEAD. ) ;
#319 = CC_DESIGN_PERSON_AND_ORGANIZATION_ASSIGNMENT ( #321, #320, ( #322 ) ) ;
#320 = PERSON_AND_ORGANIZATION_ROLE ( 'classification_officer' ) ;
#321 = PERSON_AND_ORGANIZATION ( #335, #298 ) ;
#322 = SECURITY_CLASSIFICATION ( '', '', #323 ) ;
#323 = SECURITY_CLASSIFICATION_LEVEL ( 'unclassified' ) ;
#324 = CC_DESIGN_PERSON_AND_ORGANIZATION_ASSIGNMENT ( #326, #325, ( #269 ) ) ;
#325 = PERSON_AND_ORGANIZATION_ROLE ( 'design_supplier' ) ;
#326 = PERSON_AND_ORGANIZATION ( #335, #298 ) ;
#327 = FACE_OUTER_BOUND ( 'NONE', #167, .T. ) ;
#328 = CARTESIAN_POINT ( 'NONE',  ( 0.0000000000000000000, 0.0000000000000000000, -3.256934338464455600E-017 ) ) ;
#329 = AXIS2_PLACEMENT_3D ( 'NONE', #328, #331, #332 ) ;
#330 = CIRCLE ( 'NONE', #329, 34.85190625134476500 ) ;
#331 = DIRECTION ( 'NONE',  ( -0.0000000000000000000, -0.0000000000000000000, 1.000000000000000000 ) ) ;
#332 = DIRECTION ( 'NONE',  ( 1.000000000000000000, 0.0000000000000000000, 0.0000000000000000000 ) ) ;
#333 = PRODUCT ( '11-0206-10_outokumpu', '11-0206-10_outokumpu', '', ( #337 ) ) ;
#334 = APPLICATION_CONTEXT ( 'configuration controlled 3d designs of mechanical parts and assemblies' ) ;
#335 = PERSON ( 'UNSPECIFIED', 'UNSPECIFIED', 'UNSPECIFIED', ('UNSPECIFIED'), ('UNSPECIFIED'), ('UNSPECIFIED') ) ;
#336 = APPLICATION_PROTOCOL_DEFINITION ( 'international standard', 'config_control_design', 1994, #334 ) ;
#337 = MECHANICAL_CONTEXT ( 'NONE', #334, 'mechanical' ) ;
#338 =( GEOMETRIC_REPRESENTATION_CONTEXT ( 3 ) GLOBAL_UNCERTAINTY_ASSIGNED_CONTEXT ( ( #345 ) ) GLOBAL_UNIT_ASSIGNED_CONTEXT ( ( #341, #349, #346 ) ) REPRESENTATION_CONTEXT ( 'NONE', 'WORKASPACE' ) );
#339 = ADVANCED_BREP_SHAPE_REPRESENTATION ( '11-0206-10_outokumpu', ( #72, #144 ), #338 ) ;
#340 = DIRECTION ( 'NONE',  ( 1.000000000000000000, 0.0000000000000000000, 0.0000000000000000000 ) ) ;
#341 =( LENGTH_UNIT ( ) NAMED_UNIT ( * ) SI_UNIT ( .MILLI., .METRE. ) );
#342 = DIRECTION ( 'NONE',  ( -0.0000000000000000000, -0.0000000000000000000, 1.000000000000000000 ) ) ;
#343 = CARTESIAN_POINT ( 'NONE',  ( 0.0000000000000000000, 0.0000000000000000000, -4.336808689942017700E-016 ) ) ;
#344 = FACE_OUTER_BOUND ( 'NONE', #177, .T. ) ;
#345 = UNCERTAINTY_MEASURE_WITH_UNIT (LENGTH_MEASURE( 1.000000000000000100E-005 ), #341, 'distance_accuracy_value', 'NONE');
#346 =( NAMED_UNIT ( * ) SI_UNIT ( $, .STERADIAN. ) SOLID_ANGLE_UNIT ( ) );
#347 = AXIS2_PLACEMENT_3D ( 'NONE', #343, #342, #340 ) ;
#348 = CYLINDRICAL_SURFACE ( 'NONE', #347, 36.11299999999999200 ) ;
#349 =( NAMED_UNIT ( * ) PLANE_ANGLE_UNIT ( ) SI_UNIT ( $, .RADIAN. ) );
ENDSEC;
END-ISO-10303-21;
