ISO-10303-21;
HEADER;
FILE_DESCRIPTION (( 'STEP AP203' ),
    '1' );
FILE_NAME ('3D_GR1174_DN48.3x2_18380670.STEP',
    '2024-09-23T06:19:11',
    ( '' ),
    ( '' ),
    'SwSTEP 2.0',
    'SolidWorks 2024',
    '' );
FILE_SCHEMA (( 'CONFIG_CONTROL_DESIGN' ));
ENDSEC;

DATA;
#1 = CALENDAR_DATE ( 2024, 23, 9 ) ;
#2 = ORIENTED_EDGE ( 'NONE', *, *, #155, .F. ) ;
#3 = ORIENTED_EDGE ( 'NONE', *, *, #211, .F. ) ;
#4 = COORDINATED_UNIVERSAL_TIME_OFFSET ( 1, 0, .AHEAD. ) ;
#5 = AXIS2_PLACEMENT_3D ( 'NONE', #190, #22, #268 ) ;
#6 = FACE_OUTER_BOUND ( 'NONE', #332, .T. ) ;
#7 = APPROVAL_STATUS ( 'not_yet_approved' ) ;
#8 = CARTESIAN_POINT ( 'NONE',  ( 0.000000000000000000, 0.000000000000000000, 0.000000000000000000 ) ) ;
#9 = AXIS2_PLACEMENT_3D ( 'NONE', #173, #232, #124 ) ;
#10 = EDGE_CURVE ( 'NONE', #51, #218, #246, .T. ) ;
#11 = PLANE ( 'NONE',  #287 ) ;
#12 = PRODUCT_DEFINITION ( 'UNKNOWN', '', #248, #45 ) ;
#13 = CARTESIAN_POINT ( 'NONE',  ( 0.000000000000000000, 0.000000000000000000, 0.000000000000000000 ) ) ;
#14 = ORIENTED_EDGE ( 'NONE', *, *, #37, .T. ) ;
#15 = APPROVAL_PERSON_ORGANIZATION ( #62, #215, #33 ) ;
#16 = CARTESIAN_POINT ( 'NONE',  ( 8.000000000001088907, 2.651360320154021243E-15, -21.15000000000001634 ) ) ;
#17 = ORIENTED_EDGE ( 'NONE', *, *, #269, .T. ) ;
#18 = FACE_OUTER_BOUND ( 'NONE', #142, .T. ) ;
#19 = EDGE_CURVE ( 'NONE', #290, #251, #214, .T. ) ;
#20 = CYLINDRICAL_SURFACE ( 'NONE', #132, 22.15000000000001634 ) ;
#21 = VECTOR ( 'NONE', #108, 1000.000000000000000 ) ;
#22 = DIRECTION ( 'NONE',  ( 1.000000000000000000, 0.000000000000000000, 0.000000000000000000 ) ) ;
#23 = EDGE_LOOP ( 'NONE', ( #189, #42, #271, #144 ) ) ;
#24 = DIRECTION ( 'NONE',  ( -1.000000000000000000, -0.000000000000000000, -0.000000000000000000 ) ) ;
#25 = ORIENTED_EDGE ( 'NONE', *, *, #72, .F. ) ;
#26 = AXIS2_PLACEMENT_3D ( 'NONE', #8, #344, #119 ) ;
#27 = CARTESIAN_POINT ( 'NONE',  ( -1.000000000000002220, 2.712592660111389211E-15, -22.15000000000001634 ) ) ;
#28 = DIRECTION ( 'NONE',  ( -1.000000000000000000, -0.000000000000000000, -0.000000000000000000 ) ) ;
#29 = LOCAL_TIME ( 8, 19, 11.00000000000000000, #252 ) ;
#30 = CARTESIAN_POINT ( 'NONE',  ( -1.000000000000000888, 0.000000000000000000, 0.000000000000000000 ) ) ;
#31 = PERSON_AND_ORGANIZATION_ROLE ( 'design_supplier' ) ;
#32 = EDGE_LOOP ( 'NONE', ( #299, #245, #167, #162 ) ) ;
#33 = APPROVAL_ROLE ( '' ) ;
#34 = CARTESIAN_POINT ( 'NONE',  ( 8.000000000001088907, 0.000000000000000000, 21.15000000000001634 ) ) ;
#35 = DIRECTION ( 'NONE',  ( -1.000000000000000000, -0.000000000000000000, -0.000000000000000000 ) ) ;
#36 = APPLICATION_CONTEXT ( 'configuration controlled 3d designs of mechanical parts and assemblies' ) ;
#37 = EDGE_CURVE ( 'NONE', #326, #196, #216, .T. ) ;
#38 = AXIS2_PLACEMENT_3D ( 'NONE', #59, #256, #89 ) ;
#39 = AXIS2_PLACEMENT_3D ( 'NONE', #77, #300, #321 ) ;
#40 = DIRECTION ( 'NONE',  ( 0.000000000000000000, 0.000000000000000000, 1.000000000000000000 ) ) ;
#41 = DIRECTION ( 'NONE',  ( -1.000000000000000000, -0.000000000000000000, -0.000000000000000000 ) ) ;
#42 = ORIENTED_EDGE ( 'NONE', *, *, #19, .T. ) ;
#43 = DIRECTION ( 'NONE',  ( -1.000000000000000000, -0.000000000000000000, -0.000000000000000000 ) ) ;
#44 = CARTESIAN_POINT ( 'NONE',  ( -154.8395502972293230, 0.000000000000000000, 0.000000000000000000 ) ) ;
#45 = DESIGN_CONTEXT ( 'detailed design', #36, 'design' ) ;
#46 = EDGE_CURVE ( 'NONE', #218, #51, #109, .T. ) ;
#47 = DIRECTION ( 'NONE',  ( -1.000000000000000000, -0.000000000000000000, -0.000000000000000000 ) ) ;
#48 = ORIENTED_EDGE ( 'NONE', *, *, #269, .F. ) ;
#49 = LINE ( 'NONE', #185, #318 ) ;
#50 = EDGE_CURVE ( 'NONE', #297, #290, #229, .T. ) ;
#51 = VERTEX_POINT ( 'NONE', #289 ) ;
#52 = DIRECTION ( 'NONE',  ( -1.000000000000000000, -0.000000000000000000, -0.000000000000000000 ) ) ;
#53 = CARTESIAN_POINT ( 'NONE',  ( -154.8395502972293230, 2.712592660111389211E-15, -22.15000000000001634 ) ) ;
#54 = CIRCLE ( 'NONE', #291, 22.15000000000001634 ) ;
#55 = ORIENTED_EDGE ( 'NONE', *, *, #305, .T. ) ;
#56 = DATE_AND_TIME ( #60, #64 ) ;
#57 = DIRECTION ( 'NONE',  ( 0.000000000000000000, 0.000000000000000000, 1.000000000000000000 ) ) ;
#58 = DATE_AND_TIME ( #90, #112 ) ;
#59 = CARTESIAN_POINT ( 'NONE',  ( -1.000000000000002220, 0.000000000000000000, 22.15000000000001634 ) ) ;
#60 = CALENDAR_DATE ( 2024, 23, 9 ) ;
#61 = CARTESIAN_POINT ( 'NONE',  ( 8.000000000001088907, 0.000000000000000000, 0.000000000000000000 ) ) ;
#62 = PERSON_AND_ORGANIZATION ( #330, #235 ) ;
#63 = APPROVAL ( #7, 'UNSPECIFIED' ) ;
#64 = LOCAL_TIME ( 8, 19, 11.00000000000000000, #4 ) ;
#65 = CC_DESIGN_PERSON_AND_ORGANIZATION_ASSIGNMENT ( #286, #249, ( #184 ) ) ;
#66 = PLANE ( 'NONE',  #9 ) ;
#67 = FACE_OUTER_BOUND ( 'NONE', #329, .T. ) ;
#68 = CARTESIAN_POINT ( 'NONE',  ( -3.000000000000002665, 0.000000000000000000, 0.000000000000000000 ) ) ;
#69 = AXIS2_PLACEMENT_3D ( 'NONE', #96, #312, #125 ) ;
#70 = PRODUCT ( '3D_GR1174_DN48.3x2_18380670', '3D_GR1174_DN48.3x2_18380670', '', ( #331 ) ) ;
#71 = CARTESIAN_POINT ( 'NONE',  ( 8.000000000001088907, 2.590127980196653669E-15, -21.15000000000001634 ) ) ;
#72 = EDGE_CURVE ( 'NONE', #275, #134, #122, .T. ) ;
#73 = DIRECTION ( 'NONE',  ( 0.000000000000000000, -1.224646799147353454E-16, 1.000000000000000000 ) ) ;
#74 =( NAMED_UNIT ( * ) SI_UNIT ( $, .STERADIAN. ) SOLID_ANGLE_UNIT ( ) );
#75 = ORIENTED_EDGE ( 'NONE', *, *, #283, .F. ) ;
#76 = ADVANCED_FACE ( 'NONE', ( #204, #319 ), #66, .F. ) ;
#77 = CARTESIAN_POINT ( 'NONE',  ( -154.8395502972293230, 0.000000000000000000, 0.000000000000000000 ) ) ;
#78 = ORIENTED_EDGE ( 'NONE', *, *, #50, .F. ) ;
#79 = CARTESIAN_POINT ( 'NONE',  ( 8.000000000001088907, 0.000000000000000000, 0.000000000000000000 ) ) ;
#80 = ORIENTED_EDGE ( 'NONE', *, *, #316, .T. ) ;
#81 = COORDINATED_UNIVERSAL_TIME_OFFSET ( 1, 0, .AHEAD. ) ;
#82 = ORIENTED_EDGE ( 'NONE', *, *, #19, .F. ) ;
#83 = CIRCLE ( 'NONE', #26, 24.15000000000001990 ) ;
#84 = DATE_AND_TIME ( #255, #29 ) ;
#85 = ADVANCED_FACE ( 'NONE', ( #67 ), #11, .F. ) ;
#86 = ORIENTED_EDGE ( 'NONE', *, *, #46, .F. ) ;
#87 = CIRCLE ( 'NONE', #178, 22.15000000000001634 ) ;
#88 = CALENDAR_DATE ( 2024, 23, 9 ) ;
#89 = DIRECTION ( 'NONE',  ( 0.000000000000000000, 0.000000000000000000, -1.000000000000000000 ) ) ;
#90 = CALENDAR_DATE ( 2024, 23, 9 ) ;
#91 = DIRECTION ( 'NONE',  ( -1.000000000000000000, -0.000000000000000000, -0.000000000000000000 ) ) ;
#92 = ADVANCED_FACE ( 'NONE', ( #95 ), #168, .T. ) ;
#93 = DIRECTION ( 'NONE',  ( 1.000000000000000000, 0.000000000000000000, 0.000000000000000000 ) ) ;
#94 = AXIS2_PLACEMENT_3D ( 'NONE', #30, #250, #57 ) ;
#95 = FACE_OUTER_BOUND ( 'NONE', #221, .T. ) ;
#96 = CARTESIAN_POINT ( 'NONE',  ( 7.000000000001116440, 0.000000000000000000, 0.000000000000000000 ) ) ;
#97 = AXIS2_PLACEMENT_3D ( 'NONE', #79, #322, #348 ) ;
#98 = DIRECTION ( 'NONE',  ( 0.000000000000000000, 0.000000000000000000, 1.000000000000000000 ) ) ;
#99 = MANIFOLD_SOLID_BREP ( 'Rotation1', #314 ) ;
#100 = EDGE_CURVE ( 'NONE', #164, #113, #102, .T. ) ;
#101 = CARTESIAN_POINT ( 'NONE',  ( -1.000000000000002220, 0.000000000000000000, 0.000000000000000000 ) ) ;
#102 = CIRCLE ( 'NONE', #137, 21.15000000000001634 ) ;
#103 = FACE_OUTER_BOUND ( 'NONE', #277, .T. ) ;
#104 = DIRECTION ( 'NONE',  ( -1.000000000000000000, -0.000000000000000000, -0.000000000000000000 ) ) ;
#105 = PRODUCT_RELATED_PRODUCT_CATEGORY ( 'detail', '', ( #70 ) ) ;
#106 = DIRECTION ( 'NONE',  ( -0.000000000000000000, 1.000000000000000000, 1.224646799147353207E-16 ) ) ;
#107 = ORIENTED_EDGE ( 'NONE', *, *, #283, .T. ) ;
#108 = DIRECTION ( 'NONE',  ( -1.000000000000000000, -0.000000000000000000, -0.000000000000000000 ) ) ;
#109 = CIRCLE ( 'NONE', #274, 24.15000000000001990 ) ;
#110 = EDGE_LOOP ( 'NONE', ( #346, #224 ) ) ;
#111 = DIRECTION ( 'NONE',  ( 0.000000000000000000, 0.000000000000000000, 1.000000000000000000 ) ) ;
#112 = LOCAL_TIME ( 8, 19, 11.00000000000000000, #307 ) ;
#113 = VERTEX_POINT ( 'NONE', #282 ) ;
#114 = ORIENTED_EDGE ( 'NONE', *, *, #120, .F. ) ;
#115 = CARTESIAN_POINT ( 'NONE',  ( 0.000000000000000000, 0.000000000000000000, 0.000000000000000000 ) ) ;
#116 = VERTEX_POINT ( 'NONE', #202 ) ;
#117 = AXIS2_PLACEMENT_3D ( 'NONE', #101, #207, #133 ) ;
#118 = APPROVAL_STATUS ( 'not_yet_approved' ) ;
#119 = DIRECTION ( 'NONE',  ( 0.000000000000000000, 0.000000000000000000, 1.000000000000000000 ) ) ;
#120 = EDGE_CURVE ( 'NONE', #251, #116, #338, .T. ) ;
#121 = PERSON_AND_ORGANIZATION ( #330, #235 ) ;
#122 = CIRCLE ( 'NONE', #130, 22.15000000000001634 ) ;
#123 = CARTESIAN_POINT ( 'NONE',  ( 8.000000000001088907, 0.000000000000000000, 0.000000000000000000 ) ) ;
#124 = DIRECTION ( 'NONE',  ( -0.000000000000000000, 0.000000000000000000, 1.000000000000000000 ) ) ;
#125 = DIRECTION ( 'NONE',  ( 0.000000000000000000, 0.000000000000000000, 1.000000000000000000 ) ) ;
#126 = AXIS2_PLACEMENT_3D ( 'NONE', #115, #111, #93 ) ;
#127 = EDGE_CURVE ( 'NONE', #196, #326, #83, .T. ) ;
#128 = DIRECTION ( 'NONE',  ( -1.000000000000000000, -0.000000000000000000, -0.000000000000000000 ) ) ;
#129 = CARTESIAN_POINT ( 'NONE',  ( 7.000000000001116440, 2.712592660111389211E-15, -22.15000000000001634 ) ) ;
#130 = AXIS2_PLACEMENT_3D ( 'NONE', #68, #35, #175 ) ;
#131 =( LENGTH_UNIT ( ) NAMED_UNIT ( * ) SI_UNIT ( .MILLI., .METRE. ) );
#132 = AXIS2_PLACEMENT_3D ( 'NONE', #236, #238, #213 ) ;
#133 = DIRECTION ( 'NONE',  ( 0.000000000000000000, 0.000000000000000000, 1.000000000000000000 ) ) ;
#134 = VERTEX_POINT ( 'NONE', #310 ) ;
#135 = DIRECTION ( 'NONE',  ( 0.000000000000000000, 0.000000000000000000, 1.000000000000000000 ) ) ;
#136 = ORIENTED_EDGE ( 'NONE', *, *, #151, .T. ) ;
#137 = AXIS2_PLACEMENT_3D ( 'NONE', #61, #234, #40 ) ;
#138 = ORIENTED_EDGE ( 'NONE', *, *, #155, .T. ) ;
#139 = ADVANCED_FACE ( 'NONE', ( #6 ), #260, .T. ) ;
#140 = PERSON_AND_ORGANIZATION_ROLE ( 'creator' ) ;
#141 = CC_DESIGN_APPROVAL ( #63, ( #248 ) ) ;
#142 = EDGE_LOOP ( 'NONE', ( #280, #136 ) ) ;
#143 = APPROVAL_DATE_TIME ( #302, #165 ) ;
#144 = ORIENTED_EDGE ( 'NONE', *, *, #328, .F. ) ;
#145 = APPROVAL_DATE_TIME ( #84, #215 ) ;
#146 = EDGE_CURVE ( 'NONE', #116, #251, #304, .T. ) ;
#147 = DIRECTION ( 'NONE',  ( -0.7071067811865376918, 0.000000000000000000, 0.7071067811865574537 ) ) ;
#148 = APPLICATION_PROTOCOL_DEFINITION ( 'international standard', 'config_control_design', 1994, #36 ) ;
#149 = DIRECTION ( 'NONE',  ( -1.000000000000000000, -0.000000000000000000, -0.000000000000000000 ) ) ;
#150 = VECTOR ( 'NONE', #149, 1000.000000000000000 ) ;
#151 = EDGE_CURVE ( 'NONE', #134, #275, #54, .T. ) ;
#152 = CIRCLE ( 'NONE', #333, 2.000000000000001776 ) ;
#153 = DIRECTION ( 'NONE',  ( 0.000000000000000000, 0.000000000000000000, 1.000000000000000000 ) ) ;
#154 = DIRECTION ( 'NONE',  ( 0.000000000000000000, 0.000000000000000000, 1.000000000000000000 ) ) ;
#155 = EDGE_CURVE ( 'NONE', #326, #218, #179, .T. ) ;
#156 = CARTESIAN_POINT ( 'NONE',  ( -3.000000000000002665, 0.000000000000000000, 0.000000000000000000 ) ) ;
#157 = CC_DESIGN_APPROVAL ( #165, ( #184 ) ) ;
#158 = FACE_OUTER_BOUND ( 'NONE', #301, .T. ) ;
#159 = CARTESIAN_POINT ( 'NONE',  ( 7.000000000001116440, 0.000000000000000000, 0.000000000000000000 ) ) ;
#160 = DIRECTION ( 'NONE',  ( -0.7071067811865376918, 8.659560562355054885E-17, -0.7071067811865574537 ) ) ;
#161 = CIRCLE ( 'NONE', #197, 21.15000000000001634 ) ;
#162 = ORIENTED_EDGE ( 'NONE', *, *, #316, .F. ) ;
#163 = FACE_OUTER_BOUND ( 'NONE', #324, .T. ) ;
#164 = VERTEX_POINT ( 'NONE', #16 ) ;
#165 = APPROVAL ( #118, 'UNSPECIFIED' ) ;
#166 = EDGE_CURVE ( 'NONE', #51, #275, #347, .T. ) ;
#167 = ORIENTED_EDGE ( 'NONE', *, *, #177, .T. ) ;
#168 = TOROIDAL_SURFACE ( 'NONE', #258, 22.15000000000001634, 2.000000000000000888 ) ;
#169 = ORIENTED_EDGE ( 'NONE', *, *, #166, .F. ) ;
#170 = PERSON_AND_ORGANIZATION ( #330, #235 ) ;
#171 = ORIENTED_EDGE ( 'NONE', *, *, #166, .T. ) ;
#172 = APPROVAL_STATUS ( 'not_yet_approved' ) ;
#173 = CARTESIAN_POINT ( 'NONE',  ( -2.473786534277615756E-15, 22.15000000000001634, 0.000000000000000000 ) ) ;
#174 = PERSON_AND_ORGANIZATION ( #330, #235 ) ;
#175 = DIRECTION ( 'NONE',  ( 0.000000000000000000, 0.000000000000000000, 1.000000000000000000 ) ) ;
#176 = PERSON_AND_ORGANIZATION_ROLE ( 'creator' ) ;
#177 = EDGE_CURVE ( 'NONE', #113, #297, #288, .T. ) ;
#178 = AXIS2_PLACEMENT_3D ( 'NONE', #159, #24, #135 ) ;
#179 = LINE ( 'NONE', #334, #150 ) ;
#180 = CARTESIAN_POINT ( 'NONE',  ( 8.000000000000554223, 1.734723475976807094E-15, 0.000000000000000000 ) ) ;
#181 = DIRECTION ( 'NONE',  ( 0.000000000000000000, 0.000000000000000000, 1.000000000000000000 ) ) ;
#182 = AXIS2_PLACEMENT_3D ( 'NONE', #284, #292, #153 ) ;
#183 = CARTESIAN_POINT ( 'NONE',  ( -154.8395502972293230, 0.000000000000000000, 22.15000000000001634 ) ) ;
#184 = SECURITY_CLASSIFICATION ( '', '', #327 ) ;
#185 = CARTESIAN_POINT ( 'NONE',  ( -154.8395502972293230, 0.000000000000000000, 24.15000000000001990 ) ) ;
#186 = CYLINDRICAL_SURFACE ( 'NONE', #39, 24.15000000000001990 ) ;
#187 = EDGE_LOOP ( 'NONE', ( #194, #308 ) ) ;
#188 = CARTESIAN_POINT ( 'NONE',  ( 8.000000000001088907, 0.000000000000000000, 0.000000000000000000 ) ) ;
#189 = ORIENTED_EDGE ( 'NONE', *, *, #50, .T. ) ;
#190 = CARTESIAN_POINT ( 'NONE',  ( -3.000000000000000888, 22.15000000000001634, 0.000000000000000000 ) ) ;
#191 = ADVANCED_FACE ( 'NONE', ( #253 ), #225, .T. ) ;
#192 = ORIENTED_EDGE ( 'NONE', *, *, #211, .T. ) ;
#193 = DATE_AND_TIME ( #1, #231 ) ;
#194 = ORIENTED_EDGE ( 'NONE', *, *, #127, .F. ) ;
#195 = AXIS2_PLACEMENT_3D ( 'NONE', #261, #317, #337 ) ;
#196 = VERTEX_POINT ( 'NONE', #266 ) ;
#197 = AXIS2_PLACEMENT_3D ( 'NONE', #188, #47, #272 ) ;
#198 = SHAPE_DEFINITION_REPRESENTATION ( #209, #201 ) ;
#199 = CARTESIAN_POINT ( 'NONE',  ( -1.000000000000000888, 0.000000000000000000, 0.000000000000000000 ) ) ;
#200 = PERSON_AND_ORGANIZATION ( #330, #235 ) ;
#201 = ADVANCED_BREP_SHAPE_REPRESENTATION ( '3D_GR1174_DN48.3x2_18380670', ( #99, #126 ), #285 ) ;
#202 = CARTESIAN_POINT ( 'NONE',  ( 0.000000000000000000, 0.000000000000000000, 22.15000000000001634 ) ) ;
#203 = ADVANCED_FACE ( 'NONE', ( #210 ), #20, .T. ) ;
#204 = FACE_OUTER_BOUND ( 'NONE', #187, .T. ) ;
#205 = CARTESIAN_POINT ( 'NONE',  ( -1.000000000000002220, 0.000000000000000000, 0.000000000000000000 ) ) ;
#206 = EDGE_LOOP ( 'NONE', ( #107, #55, #78, #354 ) ) ;
#207 = DIRECTION ( 'NONE',  ( -1.000000000000000000, -0.000000000000000000, -0.000000000000000000 ) ) ;
#208 = AXIS2_PLACEMENT_3D ( 'NONE', #13, #41, #154 ) ;
#209 = PRODUCT_DEFINITION_SHAPE ( 'NONE', 'NONE',  #12 ) ;
#210 = FACE_OUTER_BOUND ( 'NONE', #23, .T. ) ;
#211 = EDGE_CURVE ( 'NONE', #196, #51, #49, .T. ) ;
#212 =( NAMED_UNIT ( * ) PLANE_ANGLE_UNIT ( ) SI_UNIT ( $, .RADIAN. ) );
#213 = DIRECTION ( 'NONE',  ( 0.000000000000000000, 0.000000000000000000, 1.000000000000000000 ) ) ;
#214 = LINE ( 'NONE', #53, #262 ) ;
#215 = APPROVAL ( #172, 'UNSPECIFIED' ) ;
#216 = CIRCLE ( 'NONE', #294, 24.15000000000001990 ) ;
#217 = PLANE ( 'NONE',  #5 ) ;
#218 = VERTEX_POINT ( 'NONE', #325 ) ;
#219 = CC_DESIGN_APPROVAL ( #215, ( #12 ) ) ;
#220 = APPROVAL_DATE_TIME ( #58, #63 ) ;
#221 = EDGE_LOOP ( 'NONE', ( #48, #357, #171, #273 ) ) ;
#222 = ORIENTED_EDGE ( 'NONE', *, *, #10, .F. ) ;
#223 = DATE_TIME_ROLE ( 'creation_date' ) ;
#224 = ORIENTED_EDGE ( 'NONE', *, *, #120, .T. ) ;
#225 = CONICAL_SURFACE ( 'NONE', #270, 21.15000000000001634, 0.7853981633974621568 ) ;
#226 = APPROVAL_ROLE ( '' ) ;
#227 = DIRECTION ( 'NONE',  ( 0.000000000000000000, 0.000000000000000000, 1.000000000000000000 ) ) ;
#228 = APPLICATION_CONTEXT ( 'configuration controlled 3d designs of mechanical parts and assemblies' ) ;
#229 = CIRCLE ( 'NONE', #69, 22.15000000000001634 ) ;
#230 = ADVANCED_FACE ( 'NONE', ( #241 ), #350, .T. ) ;
#231 = LOCAL_TIME ( 8, 19, 11.00000000000000000, #81 ) ;
#232 = DIRECTION ( 'NONE',  ( -1.000000000000000000, 0.000000000000000000, -0.000000000000000000 ) ) ;
#233 = DIRECTION ( 'NONE',  ( -0.000000000000000000, 0.000000000000000000, 1.000000000000000000 ) ) ;
#234 = DIRECTION ( 'NONE',  ( -1.000000000000000000, -0.000000000000000000, -0.000000000000000000 ) ) ;
#235 = ORGANIZATION ( 'UNSPECIFIED', 'UNSPECIFIED', '' ) ;
#236 = CARTESIAN_POINT ( 'NONE',  ( -154.8395502972293230, 0.000000000000000000, 0.000000000000000000 ) ) ;
#237 = CC_DESIGN_PERSON_AND_ORGANIZATION_ASSIGNMENT ( #279, #31, ( #248 ) ) ;
#238 = DIRECTION ( 'NONE',  ( -1.000000000000000000, -0.000000000000000000, -0.000000000000000000 ) ) ;
#239 = VECTOR ( 'NONE', #147, 999.9999999999998863 ) ;
#240 = VECTOR ( 'NONE', #160, 999.9999999999998863 ) ;
#241 = FACE_OUTER_BOUND ( 'NONE', #32, .T. ) ;
#242 = CC_DESIGN_PERSON_AND_ORGANIZATION_ASSIGNMENT ( #200, #313, ( #70 ) ) ;
#243 = ORIENTED_EDGE ( 'NONE', *, *, #127, .T. ) ;
#244 = DIRECTION ( 'NONE',  ( 0.000000000000000000, 0.000000000000000000, 1.000000000000000000 ) ) ;
#245 = ORIENTED_EDGE ( 'NONE', *, *, #100, .T. ) ;
#246 = CIRCLE ( 'NONE', #94, 24.15000000000001990 ) ;
#247 = CARTESIAN_POINT ( 'NONE',  ( 0.000000000000000000, 0.000000000000000000, 0.000000000000000000 ) ) ;
#248 = PRODUCT_DEFINITION_FORMATION_WITH_SPECIFIED_SOURCE ( 'ANY', '', #70, .NOT_KNOWN. ) ;
#249 = PERSON_AND_ORGANIZATION_ROLE ( 'classification_officer' ) ;
#250 = DIRECTION ( 'NONE',  ( -1.000000000000000000, -0.000000000000000000, -0.000000000000000000 ) ) ;
#251 = VERTEX_POINT ( 'NONE', #351 ) ;
#252 = COORDINATED_UNIVERSAL_TIME_OFFSET ( 1, 0, .AHEAD. ) ;
#253 = FACE_OUTER_BOUND ( 'NONE', #206, .T. ) ;
#254 = TOROIDAL_SURFACE ( 'NONE', #117, 22.15000000000001634, 2.000000000000000888 ) ;
#255 = CALENDAR_DATE ( 2024, 23, 9 ) ;
#256 = DIRECTION ( 'NONE',  ( 0.000000000000000000, -1.000000000000000000, 0.000000000000000000 ) ) ;
#257 = ADVANCED_FACE ( 'NONE', ( #103 ), #254, .T. ) ;
#258 = AXIS2_PLACEMENT_3D ( 'NONE', #205, #342, #227 ) ;
#259 = AXIS2_PLACEMENT_3D ( 'NONE', #44, #52, #267 ) ;
#260 = CYLINDRICAL_SURFACE ( 'NONE', #195, 24.15000000000001990 ) ;
#261 = CARTESIAN_POINT ( 'NONE',  ( -154.8395502972293230, 0.000000000000000000, 0.000000000000000000 ) ) ;
#262 = VECTOR ( 'NONE', #28, 1000.000000000000000 ) ;
#263 = ORIENTED_EDGE ( 'NONE', *, *, #328, .T. ) ;
#264 = DIRECTION ( 'NONE',  ( 0.000000000000000000, 0.000000000000000000, 1.000000000000000000 ) ) ;
#265 = APPROVAL_PERSON_ORGANIZATION ( #170, #63, #311 ) ;
#266 = CARTESIAN_POINT ( 'NONE',  ( 0.000000000000000000, 0.000000000000000000, 24.15000000000001990 ) ) ;
#267 = DIRECTION ( 'NONE',  ( 0.000000000000000000, 0.000000000000000000, 1.000000000000000000 ) ) ;
#268 = DIRECTION ( 'NONE',  ( 0.000000000000000000, 0.000000000000000000, -1.000000000000000000 ) ) ;
#269 = EDGE_CURVE ( 'NONE', #218, #134, #152, .T. ) ;
#270 = AXIS2_PLACEMENT_3D ( 'NONE', #123, #91, #244 ) ;
#271 = ORIENTED_EDGE ( 'NONE', *, *, #146, .F. ) ;
#272 = DIRECTION ( 'NONE',  ( 0.000000000000000000, 0.000000000000000000, 1.000000000000000000 ) ) ;
#273 = ORIENTED_EDGE ( 'NONE', *, *, #151, .F. ) ;
#274 = AXIS2_PLACEMENT_3D ( 'NONE', #199, #128, #181 ) ;
#275 = VERTEX_POINT ( 'NONE', #323 ) ;
#276 = APPLICATION_PROTOCOL_DEFINITION ( 'international standard', 'config_control_design', 1994, #228 ) ;
#277 = EDGE_LOOP ( 'NONE', ( #352, #17, #25, #169 ) ) ;
#278 = ADVANCED_FACE ( 'NONE', ( #163 ), #186, .T. ) ;
#279 = PERSON_AND_ORGANIZATION ( #330, #235 ) ;
#280 = ORIENTED_EDGE ( 'NONE', *, *, #72, .T. ) ;
#281 = PERSON_AND_ORGANIZATION ( #330, #235 ) ;
#282 = CARTESIAN_POINT ( 'NONE',  ( 8.000000000001088907, 0.000000000000000000, 21.15000000000001634 ) ) ;
#283 = EDGE_CURVE ( 'NONE', #113, #164, #161, .T. ) ;
#284 = CARTESIAN_POINT ( 'NONE',  ( 0.000000000000000000, 0.000000000000000000, 0.000000000000000000 ) ) ;
#285 =( GEOMETRIC_REPRESENTATION_CONTEXT ( 3 ) GLOBAL_UNCERTAINTY_ASSIGNED_CONTEXT ( ( #349 ) ) GLOBAL_UNIT_ASSIGNED_CONTEXT ( ( #131, #212, #74 ) ) REPRESENTATION_CONTEXT ( 'NONE', 'WORKASPACE' ) );
#286 = PERSON_AND_ORGANIZATION ( #330, #235 ) ;
#287 = AXIS2_PLACEMENT_3D ( 'NONE', #180, #320, #233 ) ;
#288 = LINE ( 'NONE', #34, #239 ) ;
#289 = CARTESIAN_POINT ( 'NONE',  ( -1.000000000000000888, 0.000000000000000000, 24.15000000000001990 ) ) ;
#290 = VERTEX_POINT ( 'NONE', #129 ) ;
#291 = AXIS2_PLACEMENT_3D ( 'NONE', #156, #43, #264 ) ;
#292 = DIRECTION ( 'NONE',  ( -1.000000000000000000, -0.000000000000000000, -0.000000000000000000 ) ) ;
#293 = CC_DESIGN_PERSON_AND_ORGANIZATION_ASSIGNMENT ( #174, #140, ( #12 ) ) ;
#294 = AXIS2_PLACEMENT_3D ( 'NONE', #247, #341, #98 ) ;
#295 = CYLINDRICAL_SURFACE ( 'NONE', #259, 22.15000000000001634 ) ;
#296 = LINE ( 'NONE', #71, #240 ) ;
#297 = VERTEX_POINT ( 'NONE', #298 ) ;
#298 = CARTESIAN_POINT ( 'NONE',  ( 7.000000000001116440, 0.000000000000000000, 22.15000000000001634 ) ) ;
#299 = ORIENTED_EDGE ( 'NONE', *, *, #305, .F. ) ;
#300 = DIRECTION ( 'NONE',  ( -1.000000000000000000, -0.000000000000000000, -0.000000000000000000 ) ) ;
#301 = EDGE_LOOP ( 'NONE', ( #82, #80, #263, #114 ) ) ;
#302 = DATE_AND_TIME ( #88, #315 ) ;
#303 = CC_DESIGN_DATE_AND_TIME_ASSIGNMENT ( #193, #309, ( #184 ) ) ;
#304 = CIRCLE ( 'NONE', #182, 22.15000000000001634 ) ;
#305 = EDGE_CURVE ( 'NONE', #164, #290, #296, .T. ) ;
#306 = ORIENTED_EDGE ( 'NONE', *, *, #100, .F. ) ;
#307 = COORDINATED_UNIVERSAL_TIME_OFFSET ( 1, 0, .AHEAD. ) ;
#308 = ORIENTED_EDGE ( 'NONE', *, *, #37, .F. ) ;
#309 = DATE_TIME_ROLE ( 'classification_date' ) ;
#310 = CARTESIAN_POINT ( 'NONE',  ( -3.000000000000002665, 2.835057340026124754E-15, -22.15000000000001634 ) ) ;
#311 = APPROVAL_ROLE ( '' ) ;
#312 = DIRECTION ( 'NONE',  ( -1.000000000000000000, -0.000000000000000000, -0.000000000000000000 ) ) ;
#313 = PERSON_AND_ORGANIZATION_ROLE ( 'design_owner' ) ;
#314 = CLOSED_SHELL ( 'NONE', ( #257, #278, #203, #191, #85, #230, #340, #76, #139, #92, #335 ) ) ;
#315 = LOCAL_TIME ( 8, 19, 11.00000000000000000, #336 ) ;
#316 = EDGE_CURVE ( 'NONE', #290, #297, #87, .T. ) ;
#317 = DIRECTION ( 'NONE',  ( -1.000000000000000000, -0.000000000000000000, -0.000000000000000000 ) ) ;
#318 = VECTOR ( 'NONE', #104, 1000.000000000000000 ) ;
#319 = FACE_BOUND ( 'NONE', #110, .T. ) ;
#320 = DIRECTION ( 'NONE',  ( -1.000000000000000000, 0.000000000000000000, -0.000000000000000000 ) ) ;
#321 = DIRECTION ( 'NONE',  ( 0.000000000000000000, 0.000000000000000000, 1.000000000000000000 ) ) ;
#322 = DIRECTION ( 'NONE',  ( -1.000000000000000000, -0.000000000000000000, -0.000000000000000000 ) ) ;
#323 = CARTESIAN_POINT ( 'NONE',  ( -3.000000000000002665, 0.000000000000000000, 22.15000000000001634 ) ) ;
#324 = EDGE_LOOP ( 'NONE', ( #243, #138, #222, #3 ) ) ;
#325 = CARTESIAN_POINT ( 'NONE',  ( -1.000000000000000888, 2.957522019940860297E-15, -24.15000000000001990 ) ) ;
#326 = VERTEX_POINT ( 'NONE', #345 ) ;
#327 = SECURITY_CLASSIFICATION_LEVEL ( 'unclassified' ) ;
#328 = EDGE_CURVE ( 'NONE', #297, #116, #353, .T. ) ;
#329 = EDGE_LOOP ( 'NONE', ( #75, #306 ) ) ;
#330 = PERSON ( 'UNSPECIFIED', 'UNSPECIFIED', 'UNSPECIFIED', ('UNSPECIFIED'), ('UNSPECIFIED'), ('UNSPECIFIED') ) ;
#331 = MECHANICAL_CONTEXT ( 'NONE', #228, 'mechanical' ) ;
#332 = EDGE_LOOP ( 'NONE', ( #2, #14, #192, #86 ) ) ;
#333 = AXIS2_PLACEMENT_3D ( 'NONE', #27, #106, #73 ) ;
#334 = CARTESIAN_POINT ( 'NONE',  ( -154.8395502972293230, 2.957522019940860297E-15, -24.15000000000001990 ) ) ;
#335 = ADVANCED_FACE ( 'NONE', ( #18 ), #217, .F. ) ;
#336 = COORDINATED_UNIVERSAL_TIME_OFFSET ( 1, 0, .AHEAD. ) ;
#337 = DIRECTION ( 'NONE',  ( 0.000000000000000000, 0.000000000000000000, 1.000000000000000000 ) ) ;
#338 = CIRCLE ( 'NONE', #208, 22.15000000000001634 ) ;
#339 = APPROVAL_PERSON_ORGANIZATION ( #281, #165, #226 ) ;
#340 = ADVANCED_FACE ( 'NONE', ( #158 ), #295, .T. ) ;
#341 = DIRECTION ( 'NONE',  ( -1.000000000000000000, -0.000000000000000000, -0.000000000000000000 ) ) ;
#342 = DIRECTION ( 'NONE',  ( -1.000000000000000000, -0.000000000000000000, -0.000000000000000000 ) ) ;
#343 = CC_DESIGN_DATE_AND_TIME_ASSIGNMENT ( #56, #223, ( #12 ) ) ;
#344 = DIRECTION ( 'NONE',  ( -1.000000000000000000, -0.000000000000000000, -0.000000000000000000 ) ) ;
#345 = CARTESIAN_POINT ( 'NONE',  ( 0.000000000000000000, 2.957522019940860297E-15, -24.15000000000001990 ) ) ;
#346 = ORIENTED_EDGE ( 'NONE', *, *, #146, .T. ) ;
#347 = CIRCLE ( 'NONE', #38, 2.000000000000001776 ) ;
#348 = DIRECTION ( 'NONE',  ( 0.000000000000000000, 0.000000000000000000, 1.000000000000000000 ) ) ;
#349 = UNCERTAINTY_MEASURE_WITH_UNIT (LENGTH_MEASURE( 1.000000000000000082E-05 ), #131, 'distance_accuracy_value', 'NONE');
#350 = CONICAL_SURFACE ( 'NONE', #97, 21.15000000000001634, 0.7853981633974621568 ) ;
#351 = CARTESIAN_POINT ( 'NONE',  ( 0.000000000000000000, 2.712592660111389211E-15, -22.15000000000001634 ) ) ;
#352 = ORIENTED_EDGE ( 'NONE', *, *, #10, .T. ) ;
#353 = LINE ( 'NONE', #183, #21 ) ;
#354 = ORIENTED_EDGE ( 'NONE', *, *, #177, .F. ) ;
#355 = CC_DESIGN_PERSON_AND_ORGANIZATION_ASSIGNMENT ( #121, #176, ( #248 ) ) ;
#356 = CC_DESIGN_SECURITY_CLASSIFICATION ( #184, ( #248 ) ) ;
#357 = ORIENTED_EDGE ( 'NONE', *, *, #46, .T. ) ;
ENDSEC;
END-ISO-10303-21;
