ISO-10303-21;
HEADER;
FILE_DESCRIPTION (( 'STEP AP203' ),
    '1' );
FILE_NAME ('12-0201-13_outokumpu.step',
    '2015-08-12T08:15:46',
    ( '' ),
    ( '' ),
    'SwSTEP 2.0',
    'SolidWorks 2008',
    '' );
FILE_SCHEMA (( 'CONFIG_CONTROL_DESIGN' ));
ENDSEC;

DATA;
#1 = DIRECTION ( 'NONE',  ( 0.0000000000000000000, 1.000000000000000000, 0.0000000000000000000 ) ) ;
#2 =( NAMED_UNIT ( * ) SI_UNIT ( $, .STERADIAN. ) SOLID_ANGLE_UNIT ( ) );
#3 = UNCERTAINTY_MEASURE_WITH_UNIT (LENGTH_MEASURE( 1.000000000000000100E-005 ), #330, 'distance_accuracy_value', 'NONE');
#4 =( GEOMETRIC_REPRESENTATION_CONTEXT ( 3 ) GLOBAL_UNCERTAINTY_ASSIGNED_CONTEXT ( ( #3 ) ) GLOBAL_UNIT_ASSIGNED_CONTEXT ( ( #330, #328, #2 ) ) REPRESENTATION_CONTEXT ( 'NONE', 'WORKASPACE' ) );
#5 = ADVANCED_BREP_SHAPE_REPRESENTATION ( '12-0201-13_outokumpu', ( #18, #144 ), #4 ) ;
#6 = ADVANCED_FACE ( 'NONE', ( #70 ), #36, .F. ) ;
#7 = EDGE_LOOP ( 'NONE', ( #8, #9, #86, #79 ) ) ;
#8 = ORIENTED_EDGE ( 'NONE', *, *, #135, .F. ) ;
#9 = ORIENTED_EDGE ( 'NONE', *, *, #77, .F. ) ;
#10 = ORIENTED_EDGE ( 'NONE', *, *, #11, .F. ) ;
#11 = EDGE_CURVE ( 'NONE', #64, #111, #31, .T. ) ;
#12 = ADVANCED_FACE ( 'NONE', ( #32, #26 ), #25, .F. ) ;
#13 = ORIENTED_EDGE ( 'NONE', *, *, #89, .F. ) ;
#14 = ORIENTED_EDGE ( 'NONE', *, *, #15, .T. ) ;
#15 = EDGE_CURVE ( 'NONE', #54, #53, #317, .T. ) ;
#16 = ORIENTED_EDGE ( 'NONE', *, *, #106, .T. ) ;
#17 = EDGE_LOOP ( 'NONE', ( #13, #90 ) ) ;
#18 = MANIFOLD_SOLID_BREP ( 'NONE', #73 ) ;
#19 = DIRECTION ( 'NONE',  ( 1.000000000000000000, 0.0000000000000000000, 0.0000000000000000000 ) ) ;
#20 = DIRECTION ( 'NONE',  ( 0.0000000000000000000, -0.0000000000000000000, 1.000000000000000000 ) ) ;
#21 = CARTESIAN_POINT ( 'NONE',  ( 0.0000000000000000000, 24.14999999999999900, -38.00000000000000700 ) ) ;
#22 = AXIS2_PLACEMENT_3D ( 'NONE', #21, #20, #19 ) ;
#23 = DIRECTION ( 'NONE',  ( 1.000000000000000000, 0.0000000000000000000, 0.0000000000000000000 ) ) ;
#24 = DIRECTION ( 'NONE',  ( 0.0000000000000000000, 0.0000000000000000000, 1.000000000000000000 ) ) ;
#25 = PLANE ( 'NONE',  #22 ) ;
#26 = FACE_OUTER_BOUND ( 'NONE', #91, .T. ) ;
#27 = DIRECTION ( 'NONE',  ( 1.000000000000000000, 0.0000000000000000000, 0.0000000000000000000 ) ) ;
#28 = DIRECTION ( 'NONE',  ( -0.0000000000000000000, -0.0000000000000000000, 1.000000000000000000 ) ) ;
#29 = CARTESIAN_POINT ( 'NONE',  ( 0.0000000000000000000, 0.0000000000000000000, 0.0000000000000000000 ) ) ;
#30 = AXIS2_PLACEMENT_3D ( 'NONE', #29, #28, #27 ) ;
#31 = CIRCLE ( 'NONE', #30, 24.14999999999999900 ) ;
#32 = FACE_BOUND ( 'NONE', #17, .T. ) ;
#33 = DIRECTION ( 'NONE',  ( 0.0000000000000000000, 1.000000000000000000, 0.0000000000000000000 ) ) ;
#34 = DIRECTION ( 'NONE',  ( -0.0000000000000000000, 1.331970471275045500E-016, -1.000000000000000000 ) ) ;
#35 = AXIS2_PLACEMENT_3D ( 'NONE', #37, #34, #33 ) ;
#36 = CYLINDRICAL_SURFACE ( 'NONE', #35, 19.65000000000000200 ) ;
#37 = CARTESIAN_POINT ( 'NONE',  ( 0.0000000000000000000, 1.592040838891568000E-015, -38.00000000000007800 ) ) ;
#38 = ADVANCED_FACE ( 'NONE', ( #231 ), #201, .T. ) ;
#39 = VERTEX_POINT ( 'NONE', #203 ) ;
#40 = VERTEX_POINT ( 'NONE', #202 ) ;
#41 = ORIENTED_EDGE ( 'NONE', *, *, #89, .T. ) ;
#42 = ADVANCED_FACE ( 'NONE', ( #293, #292 ), #291, .F. ) ;
#43 = EDGE_LOOP ( 'NONE', ( #44, #66 ) ) ;
#44 = ORIENTED_EDGE ( 'NONE', *, *, #45, .F. ) ;
#45 = EDGE_CURVE ( 'NONE', #131, #134, #266, .T. ) ;
#46 = ORIENTED_EDGE ( 'NONE', *, *, #47, .F. ) ;
#47 = EDGE_CURVE ( 'NONE', #59, #39, #261, .T. ) ;
#48 = ORIENTED_EDGE ( 'NONE', *, *, #61, .T. ) ;
#49 = EDGE_LOOP ( 'NONE', ( #50, #52 ) ) ;
#50 = ORIENTED_EDGE ( 'NONE', *, *, #51, .T. ) ;
#51 = EDGE_CURVE ( 'NONE', #118, #117, #262, .T. ) ;
#52 = ORIENTED_EDGE ( 'NONE', *, *, #116, .T. ) ;
#53 = VERTEX_POINT ( 'NONE', #228 ) ;
#54 = VERTEX_POINT ( 'NONE', #227 ) ;
#55 = ORIENTED_EDGE ( 'NONE', *, *, #63, .T. ) ;
#56 = EDGE_CURVE ( 'NONE', #40, #59, #323, .T. ) ;
#57 = ADVANCED_FACE ( 'NONE', ( #265 ), #171, .T. ) ;
#58 = ORIENTED_EDGE ( 'NONE', *, *, #63, .F. ) ;
#59 = VERTEX_POINT ( 'NONE', #270 ) ;
#60 = EDGE_LOOP ( 'NONE', ( #48, #55, #109, #105 ) ) ;
#61 = EDGE_CURVE ( 'NONE', #53, #54, #209, .T. ) ;
#62 = VERTEX_POINT ( 'NONE', #204 ) ;
#63 = EDGE_CURVE ( 'NONE', #54, #64, #315, .T. ) ;
#64 = VERTEX_POINT ( 'NONE', #311 ) ;
#65 = ORIENTED_EDGE ( 'NONE', *, *, #108, .T. ) ;
#66 = ORIENTED_EDGE ( 'NONE', *, *, #129, .F. ) ;
#67 = EDGE_LOOP ( 'NONE', ( #68, #69 ) ) ;
#68 = ORIENTED_EDGE ( 'NONE', *, *, #102, .T. ) ;
#69 = ORIENTED_EDGE ( 'NONE', *, *, #56, .T. ) ;
#70 = FACE_OUTER_BOUND ( 'NONE', #7, .T. ) ;
#71 = ORIENTED_EDGE ( 'NONE', *, *, #145, .T. ) ;
#72 = ORIENTED_EDGE ( 'NONE', *, *, #75, .T. ) ;
#73 = CLOSED_SHELL ( 'NONE', ( #113, #142, #128, #38, #57, #12, #94, #98, #42, #6, #78, #82 ) ) ;
#74 = ORIENTED_EDGE ( 'NONE', *, *, #75, .F. ) ;
#75 = EDGE_CURVE ( 'NONE', #124, #121, #290, .T. ) ;
#76 = EDGE_LOOP ( 'NONE', ( #74, #84 ) ) ;
#77 = EDGE_CURVE ( 'NONE', #139, #138, #191, .T. ) ;
#78 = ADVANCED_FACE ( 'NONE', ( #186, #185 ), #184, .F. ) ;
#79 = ORIENTED_EDGE ( 'NONE', *, *, #45, .T. ) ;
#80 = ORIENTED_EDGE ( 'NONE', *, *, #77, .T. ) ;
#81 = ORIENTED_EDGE ( 'NONE', *, *, #137, .T. ) ;
#82 = ADVANCED_FACE ( 'NONE', ( #197 ), #193, .F. ) ;
#83 = EDGE_LOOP ( 'NONE', ( #87, #88, #71, #72 ) ) ;
#84 = ORIENTED_EDGE ( 'NONE', *, *, #123, .F. ) ;
#85 = EDGE_LOOP ( 'NONE', ( #80, #81 ) ) ;
#86 = ORIENTED_EDGE ( 'NONE', *, *, #133, .T. ) ;
#87 = ORIENTED_EDGE ( 'NONE', *, *, #120, .F. ) ;
#88 = ORIENTED_EDGE ( 'NONE', *, *, #51, .F. ) ;
#89 = EDGE_CURVE ( 'NONE', #39, #62, #172, .T. ) ;
#90 = ORIENTED_EDGE ( 'NONE', *, *, #104, .F. ) ;
#91 = EDGE_LOOP ( 'NONE', ( #92, #93 ) ) ;
#92 = ORIENTED_EDGE ( 'NONE', *, *, #61, .F. ) ;
#93 = ORIENTED_EDGE ( 'NONE', *, *, #15, .F. ) ;
#94 = ADVANCED_FACE ( 'NONE', ( #180, #179 ), #178, .F. ) ;
#95 = EDGE_LOOP ( 'NONE', ( #96, #97 ) ) ;
#96 = ORIENTED_EDGE ( 'NONE', *, *, #110, .T. ) ;
#97 = ORIENTED_EDGE ( 'NONE', *, *, #11, .T. ) ;
#98 = ADVANCED_FACE ( 'NONE', ( #245 ), #241, .F. ) ;
#99 = EDGE_LOOP ( 'NONE', ( #100, #101, #103, #41 ) ) ;
#100 = ORIENTED_EDGE ( 'NONE', *, *, #108, .F. ) ;
#101 = ORIENTED_EDGE ( 'NONE', *, *, #102, .F. ) ;
#102 = EDGE_CURVE ( 'NONE', #59, #40, #240, .T. ) ;
#103 = ORIENTED_EDGE ( 'NONE', *, *, #47, .T. ) ;
#104 = EDGE_CURVE ( 'NONE', #62, #39, #283, .T. ) ;
#105 = ORIENTED_EDGE ( 'NONE', *, *, #106, .F. ) ;
#106 = EDGE_CURVE ( 'NONE', #53, #111, #279, .T. ) ;
#107 = EDGE_LOOP ( 'NONE', ( #58, #14, #16, #10 ) ) ;
#108 = EDGE_CURVE ( 'NONE', #40, #62, #275, .T. ) ;
#109 = ORIENTED_EDGE ( 'NONE', *, *, #110, .F. ) ;
#110 = EDGE_CURVE ( 'NONE', #111, #64, #310, .T. ) ;
#111 = VERTEX_POINT ( 'NONE', #305 ) ;
#112 = ORIENTED_EDGE ( 'NONE', *, *, #104, .T. ) ;
#113 = ADVANCED_FACE ( 'NONE', ( #304 ), #302, .F. ) ;
#114 = EDGE_LOOP ( 'NONE', ( #115, #119, #122, #125 ) ) ;
#115 = ORIENTED_EDGE ( 'NONE', *, *, #116, .F. ) ;
#116 = EDGE_CURVE ( 'NONE', #117, #118, #298, .T. ) ;
#117 = VERTEX_POINT ( 'NONE', #253 ) ;
#118 = VERTEX_POINT ( 'NONE', #252 ) ;
#119 = ORIENTED_EDGE ( 'NONE', *, *, #120, .T. ) ;
#120 = EDGE_CURVE ( 'NONE', #117, #121, #251, .T. ) ;
#121 = VERTEX_POINT ( 'NONE', #247 ) ;
#122 = ORIENTED_EDGE ( 'NONE', *, *, #123, .T. ) ;
#123 = EDGE_CURVE ( 'NONE', #121, #124, #246, .T. ) ;
#124 = VERTEX_POINT ( 'NONE', #214 ) ;
#125 = ORIENTED_EDGE ( 'NONE', *, *, #145, .F. ) ;
#126 = EDGE_LOOP ( 'NONE', ( #127, #65, #112, #46 ) ) ;
#127 = ORIENTED_EDGE ( 'NONE', *, *, #56, .F. ) ;
#128 = ADVANCED_FACE ( 'NONE', ( #213 ), #210, .F. ) ;
#129 = EDGE_CURVE ( 'NONE', #134, #131, #211, .T. ) ;
#130 = ORIENTED_EDGE ( 'NONE', *, *, #129, .T. ) ;
#131 = VERTEX_POINT ( 'NONE', #219 ) ;
#132 = ORIENTED_EDGE ( 'NONE', *, *, #133, .F. ) ;
#133 = EDGE_CURVE ( 'NONE', #139, #131, #168, .T. ) ;
#134 = VERTEX_POINT ( 'NONE', #164 ) ;
#135 = EDGE_CURVE ( 'NONE', #138, #134, #163, .T. ) ;
#136 = ORIENTED_EDGE ( 'NONE', *, *, #135, .T. ) ;
#137 = EDGE_CURVE ( 'NONE', #138, #139, #159, .T. ) ;
#138 = VERTEX_POINT ( 'NONE', #154 ) ;
#139 = VERTEX_POINT ( 'NONE', #153 ) ;
#140 = ORIENTED_EDGE ( 'NONE', *, *, #137, .F. ) ;
#141 = EDGE_LOOP ( 'NONE', ( #140, #136, #130, #132 ) ) ;
#142 = ADVANCED_FACE ( 'NONE', ( #152 ), #150, .F. ) ;
#143 = CARTESIAN_POINT ( 'NONE',  ( 0.0000000000000000000, 0.0000000000000000000, 0.0000000000000000000 ) ) ;
#144 = AXIS2_PLACEMENT_3D ( 'NONE', #143, #24, #23 ) ;
#145 = EDGE_CURVE ( 'NONE', #118, #124, #332, .T. ) ;
#146 = AXIS2_PLACEMENT_3D ( 'NONE', #316, #318, #271 ) ;
#147 = CARTESIAN_POINT ( 'NONE',  ( 0.0000000000000000000, 0.0000000000000000000, -38.00000000000000700 ) ) ;
#148 = DIRECTION ( 'NONE',  ( -0.0000000000000000000, 1.331970471275045500E-016, -1.000000000000000000 ) ) ;
#149 = AXIS2_PLACEMENT_3D ( 'NONE', #151, #148, #1 ) ;
#150 = CYLINDRICAL_SURFACE ( 'NONE', #149, 19.65000000000000200 ) ;
#151 = CARTESIAN_POINT ( 'NONE',  ( 0.0000000000000000000, 1.592040838891568000E-015, -38.00000000000007800 ) ) ;
#152 = FACE_OUTER_BOUND ( 'NONE', #141, .T. ) ;
#153 = CARTESIAN_POINT ( 'NONE',  ( 0.0000000000000000000, 19.64999999999999900, -12.69999999999999900 ) ) ;
#154 = CARTESIAN_POINT ( 'NONE',  ( 2.406351485260971600E-015, -19.65000000000000600, -12.70000000000000600 ) ) ;
#155 = DIRECTION ( 'NONE',  ( 0.0000000000000000000, 1.000000000000000000, 1.765621858500566700E-016 ) ) ;
#156 = DIRECTION ( 'NONE',  ( -0.0000000000000000000, 1.331970471275045500E-016, -1.000000000000000000 ) ) ;
#157 = CARTESIAN_POINT ( 'NONE',  ( 0.0000000000000000000, -1.777844453434306800E-015, -12.70000000000000300 ) ) ;
#158 = AXIS2_PLACEMENT_3D ( 'NONE', #157, #156, #155 ) ;
#159 = CIRCLE ( 'NONE', #158, 19.65000000000000200 ) ;
#160 = DIRECTION ( 'NONE',  ( -0.0000000000000000000, 1.331970471275045500E-016, -1.000000000000000000 ) ) ;
#161 = VECTOR ( 'NONE', #160, 1000.000000000000000 ) ;
#162 = CARTESIAN_POINT ( 'NONE',  ( 2.406351485260971200E-015, -19.65000000000000200, -38.00000000000007800 ) ) ;
#163 = LINE ( 'NONE', #162, #161 ) ;
#164 = CARTESIAN_POINT ( 'NONE',  ( 2.406351485260970800E-015, -19.64999999999999900, -25.30000000000000800 ) ) ;
#165 = DIRECTION ( 'NONE',  ( -0.0000000000000000000, 1.331970471275045500E-016, -1.000000000000000000 ) ) ;
#166 = VECTOR ( 'NONE', #165, 1000.000000000000000 ) ;
#167 = CARTESIAN_POINT ( 'NONE',  ( 0.0000000000000000000, 19.65000000000000200, -38.00000000000007800 ) ) ;
#168 = LINE ( 'NONE', #167, #166 ) ;
#169 = CARTESIAN_POINT ( 'NONE',  ( 0.0000000000000000000, 0.0000000000000000000, -4.336808689942017700E-016 ) ) ;
#170 = AXIS2_PLACEMENT_3D ( 'NONE', #169, #269, #268 ) ;
#171 = CYLINDRICAL_SURFACE ( 'NONE', #170, 24.14999999999999900 ) ;
#172 = CIRCLE ( 'NONE', #183, 21.35000000000000100 ) ;
#173 = CARTESIAN_POINT ( 'NONE',  ( 0.0000000000000000000, 1.592040838891558100E-015, -38.00000000000000000 ) ) ;
#174 = DIRECTION ( 'NONE',  ( 0.0000000000000000000, 1.000000000000000000, 0.0000000000000000000 ) ) ;
#175 = DIRECTION ( 'NONE',  ( -0.0000000000000000000, 1.331970471275045500E-016, -1.000000000000000000 ) ) ;
#176 = CARTESIAN_POINT ( 'NONE',  ( 0.0000000000000000000, 1.592040838891568000E-015, -38.00000000000007800 ) ) ;
#177 = CARTESIAN_POINT ( 'NONE',  ( 0.0000000000000000000, 24.14999999999999900, -2.168404344971008900E-016 ) ) ;
#178 = PLANE ( 'NONE',  #244 ) ;
#179 = FACE_OUTER_BOUND ( 'NONE', #95, .T. ) ;
#180 = FACE_BOUND ( 'NONE', #49, .T. ) ;
#181 = DIRECTION ( 'NONE',  ( 0.0000000000000000000, 1.000000000000000000, 0.0000000000000000000 ) ) ;
#182 = DIRECTION ( 'NONE',  ( -0.0000000000000000000, 1.331970471275045500E-016, -1.000000000000000000 ) ) ;
#183 = AXIS2_PLACEMENT_3D ( 'NONE', #173, #182, #181 ) ;
#184 = PLANE ( 'NONE',  #198 ) ;
#185 = FACE_BOUND ( 'NONE', #85, .T. ) ;
#186 = FACE_OUTER_BOUND ( 'NONE', #76, .T. ) ;
#187 = DIRECTION ( 'NONE',  ( 0.0000000000000000000, 1.000000000000000000, 1.765621858500566700E-016 ) ) ;
#188 = DIRECTION ( 'NONE',  ( -0.0000000000000000000, 1.331970471275045500E-016, -1.000000000000000000 ) ) ;
#189 = CARTESIAN_POINT ( 'NONE',  ( 0.0000000000000000000, -1.777844453434306800E-015, -12.70000000000000300 ) ) ;
#190 = AXIS2_PLACEMENT_3D ( 'NONE', #189, #188, #187 ) ;
#191 = CIRCLE ( 'NONE', #190, 19.65000000000000200 ) ;
#192 = AXIS2_PLACEMENT_3D ( 'NONE', #176, #175, #174 ) ;
#193 = CYLINDRICAL_SURFACE ( 'NONE', #192, 21.35000000000000100 ) ;
#194 = DIRECTION ( 'NONE',  ( 0.0000000000000000000, 1.000000000000000000, 1.331970471275045500E-016 ) ) ;
#195 = DIRECTION ( 'NONE',  ( -0.0000000000000000000, 1.331970471275045500E-016, -1.000000000000000000 ) ) ;
#196 = CARTESIAN_POINT ( 'NONE',  ( 0.0000000000000000000, 19.64999999999999900, -12.69999999999999900 ) ) ;
#197 = FACE_OUTER_BOUND ( 'NONE', #83, .T. ) ;
#198 = AXIS2_PLACEMENT_3D ( 'NONE', #196, #195, #194 ) ;
#199 = CARTESIAN_POINT ( 'NONE',  ( 0.0000000000000000000, 21.34999999999999800, -38.00000000000007800 ) ) ;
#200 = DIRECTION ( 'NONE',  ( -0.0000000000000000000, -0.0000000000000000000, 1.000000000000000000 ) ) ;
#201 = CYLINDRICAL_SURFACE ( 'NONE', #146, 24.14999999999999900 ) ;
#202 = CARTESIAN_POINT ( 'NONE',  ( 2.614534565410775100E-015, -21.34999999999999400, -25.30000000000000800 ) ) ;
#203 = CARTESIAN_POINT ( 'NONE',  ( 0.0000000000000000000, 21.35000000000000100, -38.00000000000000000 ) ) ;
#204 = CARTESIAN_POINT ( 'NONE',  ( 2.614534565410775900E-015, -21.35000000000000100, -38.00000000000000000 ) ) ;
#205 = DIRECTION ( 'NONE',  ( 1.000000000000000000, 0.0000000000000000000, 0.0000000000000000000 ) ) ;
#206 = DIRECTION ( 'NONE',  ( -0.0000000000000000000, -0.0000000000000000000, 1.000000000000000000 ) ) ;
#207 = CARTESIAN_POINT ( 'NONE',  ( 0.0000000000000000000, 0.0000000000000000000, -38.00000000000000700 ) ) ;
#208 = AXIS2_PLACEMENT_3D ( 'NONE', #207, #206, #205 ) ;
#209 = CIRCLE ( 'NONE', #208, 24.14999999999999900 ) ;
#210 = CYLINDRICAL_SURFACE ( 'NONE', #212, 21.34999999999999800 ) ;
#211 = CIRCLE ( 'NONE', #223, 19.64999999999999900 ) ;
#212 = AXIS2_PLACEMENT_3D ( 'NONE', #226, #225, #224 ) ;
#213 = FACE_OUTER_BOUND ( 'NONE', #126, .T. ) ;
#214 = CARTESIAN_POINT ( 'NONE',  ( 0.0000000000000000000, 21.34999999999999400, -12.69999999999999900 ) ) ;
#215 = DIRECTION ( 'NONE',  ( 0.0000000000000000000, 1.000000000000000000, 1.625033701149233900E-016 ) ) ;
#216 = DIRECTION ( 'NONE',  ( -0.0000000000000000000, 1.331970471275045500E-016, -1.000000000000000000 ) ) ;
#217 = CARTESIAN_POINT ( 'NONE',  ( 0.0000000000000000000, -1.777844453434306800E-015, -12.70000000000000300 ) ) ;
#218 = AXIS2_PLACEMENT_3D ( 'NONE', #217, #216, #215 ) ;
#219 = CARTESIAN_POINT ( 'NONE',  ( 0.0000000000000000000, 19.64999999999999900, -25.30000000000000100 ) ) ;
#220 = DIRECTION ( 'NONE',  ( 0.0000000000000000000, 1.000000000000000000, 1.765621858500567200E-016 ) ) ;
#221 = DIRECTION ( 'NONE',  ( -0.0000000000000000000, 1.331970471275045500E-016, -1.000000000000000000 ) ) ;
#222 = CARTESIAN_POINT ( 'NONE',  ( 0.0000000000000000000, -9.956165962774940100E-017, -25.30000000000000400 ) ) ;
#223 = AXIS2_PLACEMENT_3D ( 'NONE', #222, #221, #220 ) ;
#224 = DIRECTION ( 'NONE',  ( 0.0000000000000000000, 1.000000000000000000, 0.0000000000000000000 ) ) ;
#225 = DIRECTION ( 'NONE',  ( -0.0000000000000000000, 1.331970471275045500E-016, -1.000000000000000000 ) ) ;
#226 = CARTESIAN_POINT ( 'NONE',  ( 0.0000000000000000000, 1.592040838891568000E-015, -38.00000000000007800 ) ) ;
#227 = CARTESIAN_POINT ( 'NONE',  ( -24.14999999999999900, 2.957424344481040600E-015, -38.00000000000000700 ) ) ;
#228 = CARTESIAN_POINT ( 'NONE',  ( 24.14999999999999900, 0.0000000000000000000, -38.00000000000000700 ) ) ;
#229 = DIRECTION ( 'NONE',  ( 0.0000000000000000000, 1.000000000000000000, 1.331970471275045500E-016 ) ) ;
#230 = DIRECTION ( 'NONE',  ( -0.0000000000000000000, 1.331970471275045500E-016, -1.000000000000000000 ) ) ;
#231 = FACE_OUTER_BOUND ( 'NONE', #60, .T. ) ;
#232 = DIRECTION ( 'NONE',  ( 1.000000000000000000, 0.0000000000000000000, 0.0000000000000000000 ) ) ;
#233 = CARTESIAN_POINT ( 'NONE',  ( 0.0000000000000000000, -9.956165962774940100E-017, -25.30000000000000400 ) ) ;
#234 = AXIS2_PLACEMENT_3D ( 'NONE', #233, #285, #284 ) ;
#235 = CARTESIAN_POINT ( 'NONE',  ( 0.0000000000000000000, 1.592040838891558100E-015, -38.00000000000000000 ) ) ;
#236 = DIRECTION ( 'NONE',  ( 0.0000000000000000000, 1.000000000000000000, 0.0000000000000000000 ) ) ;
#237 = DIRECTION ( 'NONE',  ( -0.0000000000000000000, 1.331970471275045500E-016, -1.000000000000000000 ) ) ;
#238 = CARTESIAN_POINT ( 'NONE',  ( 0.0000000000000000000, 1.592040838891568000E-015, -38.00000000000007800 ) ) ;
#239 = AXIS2_PLACEMENT_3D ( 'NONE', #238, #237, #236 ) ;
#240 = CIRCLE ( 'NONE', #234, 21.34999999999999400 ) ;
#241 = CYLINDRICAL_SURFACE ( 'NONE', #239, 21.34999999999999800 ) ;
#242 = DIRECTION ( 'NONE',  ( -1.000000000000000000, 0.0000000000000000000, -0.0000000000000000000 ) ) ;
#243 = DIRECTION ( 'NONE',  ( 0.0000000000000000000, 0.0000000000000000000, -1.000000000000000000 ) ) ;
#244 = AXIS2_PLACEMENT_3D ( 'NONE', #177, #243, #242 ) ;
#245 = FACE_OUTER_BOUND ( 'NONE', #99, .T. ) ;
#246 = CIRCLE ( 'NONE', #218, 21.34999999999999800 ) ;
#247 = CARTESIAN_POINT ( 'NONE',  ( 2.614534565410775500E-015, -21.35000000000000100, -12.70000000000000600 ) ) ;
#248 = DIRECTION ( 'NONE',  ( -0.0000000000000000000, 1.331970471275045500E-016, -1.000000000000000000 ) ) ;
#249 = VECTOR ( 'NONE', #248, 1000.000000000000000 ) ;
#250 = CARTESIAN_POINT ( 'NONE',  ( 2.614534565410775500E-015, -21.35000000000000100, -38.00000000000007800 ) ) ;
#251 = LINE ( 'NONE', #250, #249 ) ;
#252 = CARTESIAN_POINT ( 'NONE',  ( 0.0000000000000000000, 21.35000000000000100, 2.843756956172222900E-015 ) ) ;
#253 = CARTESIAN_POINT ( 'NONE',  ( 2.614534565410776300E-015, -21.35000000000000900, -2.843756956172223300E-015 ) ) ;
#254 = DIRECTION ( 'NONE',  ( 0.0000000000000000000, 1.000000000000000000, 1.331970471275045500E-016 ) ) ;
#255 = DIRECTION ( 'NONE',  ( -0.0000000000000000000, 1.331970471275045500E-016, -1.000000000000000000 ) ) ;
#256 = AXIS2_PLACEMENT_3D ( 'NONE', #295, #294, #267 ) ;
#257 = DIRECTION ( 'NONE',  ( 0.0000000000000000000, 1.000000000000000000, 1.765621858500567200E-016 ) ) ;
#258 = DIRECTION ( 'NONE',  ( -0.0000000000000000000, 1.331970471275045500E-016, -1.000000000000000000 ) ) ;
#259 = CARTESIAN_POINT ( 'NONE',  ( 0.0000000000000000000, -9.956165962774940100E-017, -25.30000000000000400 ) ) ;
#260 = AXIS2_PLACEMENT_3D ( 'NONE', #259, #258, #257 ) ;
#261 = LINE ( 'NONE', #199, #264 ) ;
#262 = CIRCLE ( 'NONE', #326, 21.35000000000000500 ) ;
#263 = DIRECTION ( 'NONE',  ( -0.0000000000000000000, 1.331970471275045500E-016, -1.000000000000000000 ) ) ;
#264 = VECTOR ( 'NONE', #263, 1000.000000000000000 ) ;
#265 = FACE_OUTER_BOUND ( 'NONE', #107, .T. ) ;
#266 = CIRCLE ( 'NONE', #260, 19.64999999999999900 ) ;
#267 = DIRECTION ( 'NONE',  ( 0.0000000000000000000, -1.000000000000000000, -1.331970471275045500E-016 ) ) ;
#268 = DIRECTION ( 'NONE',  ( 1.000000000000000000, 0.0000000000000000000, 0.0000000000000000000 ) ) ;
#269 = DIRECTION ( 'NONE',  ( -0.0000000000000000000, -0.0000000000000000000, 1.000000000000000000 ) ) ;
#270 = CARTESIAN_POINT ( 'NONE',  ( 0.0000000000000000000, 21.34999999999999400, -25.30000000000000100 ) ) ;
#271 = DIRECTION ( 'NONE',  ( 1.000000000000000000, 0.0000000000000000000, 0.0000000000000000000 ) ) ;
#272 = DIRECTION ( 'NONE',  ( -0.0000000000000000000, 1.331970471275045500E-016, -1.000000000000000000 ) ) ;
#273 = VECTOR ( 'NONE', #272, 1000.000000000000000 ) ;
#274 = CARTESIAN_POINT ( 'NONE',  ( 2.614534565410775100E-015, -21.34999999999999800, -38.00000000000007800 ) ) ;
#275 = LINE ( 'NONE', #274, #273 ) ;
#276 = DIRECTION ( 'NONE',  ( -0.0000000000000000000, -0.0000000000000000000, 1.000000000000000000 ) ) ;
#277 = VECTOR ( 'NONE', #276, 1000.000000000000000 ) ;
#278 = CARTESIAN_POINT ( 'NONE',  ( 24.14999999999999900, 0.0000000000000000000, -4.336808689942017700E-016 ) ) ;
#279 = LINE ( 'NONE', #278, #277 ) ;
#280 = DIRECTION ( 'NONE',  ( 0.0000000000000000000, 1.000000000000000000, 0.0000000000000000000 ) ) ;
#281 = DIRECTION ( 'NONE',  ( -0.0000000000000000000, 1.331970471275045500E-016, -1.000000000000000000 ) ) ;
#282 = AXIS2_PLACEMENT_3D ( 'NONE', #235, #281, #280 ) ;
#283 = CIRCLE ( 'NONE', #282, 21.35000000000000100 ) ;
#284 = DIRECTION ( 'NONE',  ( 0.0000000000000000000, 1.000000000000000000, 1.625033701149234100E-016 ) ) ;
#285 = DIRECTION ( 'NONE',  ( -0.0000000000000000000, 1.331970471275045500E-016, -1.000000000000000000 ) ) ;
#286 = DIRECTION ( 'NONE',  ( 0.0000000000000000000, 1.000000000000000000, 1.625033701149233900E-016 ) ) ;
#287 = DIRECTION ( 'NONE',  ( -0.0000000000000000000, 1.331970471275045500E-016, -1.000000000000000000 ) ) ;
#288 = CARTESIAN_POINT ( 'NONE',  ( 0.0000000000000000000, -1.777844453434306800E-015, -12.70000000000000300 ) ) ;
#289 = AXIS2_PLACEMENT_3D ( 'NONE', #288, #287, #286 ) ;
#290 = CIRCLE ( 'NONE', #289, 21.34999999999999800 ) ;
#291 = PLANE ( 'NONE',  #256 ) ;
#292 = FACE_OUTER_BOUND ( 'NONE', #67, .T. ) ;
#293 = FACE_BOUND ( 'NONE', #43, .T. ) ;
#294 = DIRECTION ( 'NONE',  ( 0.0000000000000000000, -1.331970471275045500E-016, 1.000000000000000000 ) ) ;
#295 = CARTESIAN_POINT ( 'NONE',  ( 0.0000000000000000000, 19.64999999999999900, -25.30000000000000100 ) ) ;
#296 = CARTESIAN_POINT ( 'NONE',  ( 0.0000000000000000000, -3.469446951953615000E-015, 0.0000000000000000000 ) ) ;
#297 = AXIS2_PLACEMENT_3D ( 'NONE', #296, #255, #254 ) ;
#298 = CIRCLE ( 'NONE', #297, 21.35000000000000500 ) ;
#299 = DIRECTION ( 'NONE',  ( 0.0000000000000000000, 1.000000000000000000, 0.0000000000000000000 ) ) ;
#300 = DIRECTION ( 'NONE',  ( -0.0000000000000000000, 1.331970471275045500E-016, -1.000000000000000000 ) ) ;
#301 = AXIS2_PLACEMENT_3D ( 'NONE', #303, #300, #299 ) ;
#302 = CYLINDRICAL_SURFACE ( 'NONE', #301, 21.35000000000000100 ) ;
#303 = CARTESIAN_POINT ( 'NONE',  ( 0.0000000000000000000, 1.592040838891568000E-015, -38.00000000000007800 ) ) ;
#304 = FACE_OUTER_BOUND ( 'NONE', #114, .T. ) ;
#305 = CARTESIAN_POINT ( 'NONE',  ( 24.14999999999999900, 0.0000000000000000000, 0.0000000000000000000 ) ) ;
#306 = DIRECTION ( 'NONE',  ( 1.000000000000000000, 0.0000000000000000000, 0.0000000000000000000 ) ) ;
#307 = DIRECTION ( 'NONE',  ( -0.0000000000000000000, -0.0000000000000000000, 1.000000000000000000 ) ) ;
#308 = CARTESIAN_POINT ( 'NONE',  ( 0.0000000000000000000, 0.0000000000000000000, 0.0000000000000000000 ) ) ;
#309 = AXIS2_PLACEMENT_3D ( 'NONE', #308, #307, #306 ) ;
#310 = CIRCLE ( 'NONE', #309, 24.14999999999999900 ) ;
#311 = CARTESIAN_POINT ( 'NONE',  ( -24.14999999999999900, 2.957424344481040600E-015, 0.0000000000000000000 ) ) ;
#312 = DIRECTION ( 'NONE',  ( -0.0000000000000000000, -0.0000000000000000000, 1.000000000000000000 ) ) ;
#313 = VECTOR ( 'NONE', #312, 1000.000000000000000 ) ;
#314 = CARTESIAN_POINT ( 'NONE',  ( -24.14999999999999900, 2.957424344481040600E-015, -4.336808689942017700E-016 ) ) ;
#315 = LINE ( 'NONE', #314, #313 ) ;
#316 = CARTESIAN_POINT ( 'NONE',  ( 0.0000000000000000000, 0.0000000000000000000, -4.336808689942017700E-016 ) ) ;
#317 = CIRCLE ( 'NONE', #324, 24.14999999999999900 ) ;
#318 = DIRECTION ( 'NONE',  ( -0.0000000000000000000, -0.0000000000000000000, 1.000000000000000000 ) ) ;
#319 = DIRECTION ( 'NONE',  ( 0.0000000000000000000, 1.000000000000000000, 1.625033701149234100E-016 ) ) ;
#320 = DIRECTION ( 'NONE',  ( -0.0000000000000000000, 1.331970471275045500E-016, -1.000000000000000000 ) ) ;
#321 = CARTESIAN_POINT ( 'NONE',  ( 0.0000000000000000000, -9.956165962774940100E-017, -25.30000000000000400 ) ) ;
#322 = AXIS2_PLACEMENT_3D ( 'NONE', #321, #320, #319 ) ;
#323 = CIRCLE ( 'NONE', #322, 21.34999999999999400 ) ;
#324 = AXIS2_PLACEMENT_3D ( 'NONE', #147, #200, #232 ) ;
#325 = CARTESIAN_POINT ( 'NONE',  ( 0.0000000000000000000, -3.469446951953615000E-015, 0.0000000000000000000 ) ) ;
#326 = AXIS2_PLACEMENT_3D ( 'NONE', #325, #230, #229 ) ;
#327 = VECTOR ( 'NONE', #331, 1000.000000000000000 ) ;
#328 =( NAMED_UNIT ( * ) PLANE_ANGLE_UNIT ( ) SI_UNIT ( $, .RADIAN. ) );
#329 = CARTESIAN_POINT ( 'NONE',  ( 0.0000000000000000000, 21.35000000000000100, -38.00000000000007800 ) ) ;
#330 =( LENGTH_UNIT ( ) NAMED_UNIT ( * ) SI_UNIT ( .MILLI., .METRE. ) );
#331 = DIRECTION ( 'NONE',  ( -0.0000000000000000000, 1.331970471275045500E-016, -1.000000000000000000 ) ) ;
#332 = LINE ( 'NONE', #329, #327 ) ;
#333 = LOCAL_TIME ( 10, 15, 46.00000000000000000, #334 ) ;
#334 = COORDINATED_UNIVERSAL_TIME_OFFSET ( 1, 0, .AHEAD. ) ;
#335 = CC_DESIGN_PERSON_AND_ORGANIZATION_ASSIGNMENT ( #337, #336, ( #338 ) ) ;
#336 = PERSON_AND_ORGANIZATION_ROLE ( 'classification_officer' ) ;
#337 = PERSON_AND_ORGANIZATION ( #407, #358 ) ;
#338 = SECURITY_CLASSIFICATION ( '', '', #339 ) ;
#339 = SECURITY_CLASSIFICATION_LEVEL ( 'unclassified' ) ;
#340 = CC_DESIGN_PERSON_AND_ORGANIZATION_ASSIGNMENT ( #342, #341, ( #403 ) ) ;
#341 = PERSON_AND_ORGANIZATION_ROLE ( 'creator' ) ;
#342 = PERSON_AND_ORGANIZATION ( #407, #358 ) ;
#343 = CC_DESIGN_APPROVAL ( #374, ( #403 ) ) ;
#344 = APPROVAL_DATE_TIME ( #368, #374 ) ;
#345 = APPLICATION_PROTOCOL_DEFINITION ( 'international standard', 'config_control_design', 1994, #376 ) ;
#346 = APPROVAL_DATE_TIME ( #347, #353 ) ;
#347 = DATE_AND_TIME ( #348, #349 ) ;
#348 = CALENDAR_DATE ( 2015, 12, 8 ) ;
#349 = LOCAL_TIME ( 10, 15, 46.00000000000000000, #350 ) ;
#350 = COORDINATED_UNIVERSAL_TIME_OFFSET ( 1, 0, .AHEAD. ) ;
#351 = APPROVAL_PERSON_ORGANIZATION ( #355, #353, #352 ) ;
#352 = APPROVAL_ROLE ( '' ) ;
#353 = APPROVAL ( #354, 'UNSPECIFIED' ) ;
#354 = APPROVAL_STATUS ( 'not_yet_approved' ) ;
#355 = PERSON_AND_ORGANIZATION ( #407, #358 ) ;
#356 = CC_DESIGN_PERSON_AND_ORGANIZATION_ASSIGNMENT ( #367, #357, ( #408 ) ) ;
#357 = PERSON_AND_ORGANIZATION_ROLE ( 'design_owner' ) ;
#358 = ORGANIZATION ( 'UNSPECIFIED', 'UNSPECIFIED', '' ) ;
#359 = PRODUCT_DEFINITION_SHAPE ( 'NONE', 'NONE',  #403 ) ;
#360 = PRODUCT_RELATED_PRODUCT_CATEGORY ( 'detail', '', ( #408 ) ) ;
#361 = CC_DESIGN_SECURITY_CLASSIFICATION ( #338, ( #388 ) ) ;
#362 = CC_DESIGN_APPROVAL ( #381, ( #338 ) ) ;
#363 = APPROVAL_DATE_TIME ( #364, #381 ) ;
#364 = DATE_AND_TIME ( #365, #377 ) ;
#365 = CALENDAR_DATE ( 2015, 12, 8 ) ;
#366 = SHAPE_DEFINITION_REPRESENTATION ( #359, #5 ) ;
#367 = PERSON_AND_ORGANIZATION ( #407, #358 ) ;
#368 = DATE_AND_TIME ( #369, #370 ) ;
#369 = CALENDAR_DATE ( 2015, 12, 8 ) ;
#370 = LOCAL_TIME ( 10, 15, 46.00000000000000000, #371 ) ;
#371 = COORDINATED_UNIVERSAL_TIME_OFFSET ( 1, 0, .AHEAD. ) ;
#372 = APPROVAL_PERSON_ORGANIZATION ( #402, #374, #373 ) ;
#373 = APPROVAL_ROLE ( '' ) ;
#374 = APPROVAL ( #375, 'UNSPECIFIED' ) ;
#375 = APPROVAL_STATUS ( 'not_yet_approved' ) ;
#376 = APPLICATION_CONTEXT ( 'configuration controlled 3d designs of mechanical parts and assemblies' ) ;
#377 = LOCAL_TIME ( 10, 15, 46.00000000000000000, #378 ) ;
#378 = COORDINATED_UNIVERSAL_TIME_OFFSET ( 1, 0, .AHEAD. ) ;
#379 = APPROVAL_PERSON_ORGANIZATION ( #383, #381, #380 ) ;
#380 = APPROVAL_ROLE ( '' ) ;
#381 = APPROVAL ( #382, 'UNSPECIFIED' ) ;
#382 = APPROVAL_STATUS ( 'not_yet_approved' ) ;
#383 = PERSON_AND_ORGANIZATION ( #407, #358 ) ;
#384 = CC_DESIGN_DATE_AND_TIME_ASSIGNMENT ( #386, #385, ( #338 ) ) ;
#385 = DATE_TIME_ROLE ( 'classification_date' ) ;
#386 = DATE_AND_TIME ( #387, #333 ) ;
#387 = CALENDAR_DATE ( 2015, 12, 8 ) ;
#388 = PRODUCT_DEFINITION_FORMATION_WITH_SPECIFIED_SOURCE ( 'ANY', '', #408, .NOT_KNOWN. ) ;
#389 = CC_DESIGN_DATE_AND_TIME_ASSIGNMENT ( #391, #390, ( #403 ) ) ;
#390 = DATE_TIME_ROLE ( 'creation_date' ) ;
#391 = DATE_AND_TIME ( #392, #393 ) ;
#392 = CALENDAR_DATE ( 2015, 12, 8 ) ;
#393 = LOCAL_TIME ( 10, 15, 46.00000000000000000, #394 ) ;
#394 = COORDINATED_UNIVERSAL_TIME_OFFSET ( 1, 0, .AHEAD. ) ;
#395 = CC_DESIGN_PERSON_AND_ORGANIZATION_ASSIGNMENT ( #397, #396, ( #388 ) ) ;
#396 = PERSON_AND_ORGANIZATION_ROLE ( 'design_supplier' ) ;
#397 = PERSON_AND_ORGANIZATION ( #407, #358 ) ;
#398 = CC_DESIGN_PERSON_AND_ORGANIZATION_ASSIGNMENT ( #400, #399, ( #388 ) ) ;
#399 = PERSON_AND_ORGANIZATION_ROLE ( 'creator' ) ;
#400 = PERSON_AND_ORGANIZATION ( #407, #358 ) ;
#401 = CC_DESIGN_APPROVAL ( #353, ( #388 ) ) ;
#402 = PERSON_AND_ORGANIZATION ( #407, #358 ) ;
#403 = PRODUCT_DEFINITION ( 'UNKNOWN', '', #388, #404 ) ;
#404 = DESIGN_CONTEXT ( 'detailed design', #406, 'design' ) ;
#405 = APPLICATION_PROTOCOL_DEFINITION ( 'international standard', 'config_control_design', 1994, #406 ) ;
#406 = APPLICATION_CONTEXT ( 'configuration controlled 3d designs of mechanical parts and assemblies' ) ;
#407 = PERSON ( 'UNSPECIFIED', 'UNSPECIFIED', 'UNSPECIFIED', ('UNSPECIFIED'), ('UNSPECIFIED'), ('UNSPECIFIED') ) ;
#408 = PRODUCT ( '12-0201-13_outokumpu', '12-0201-13_outokumpu', '', ( #409 ) ) ;
#409 = MECHANICAL_CONTEXT ( 'NONE', #376, 'mechanical' ) ;
ENDSEC;
END-ISO-10303-21;
