ISO-10303-21;
HEADER;
/* Generated by software containing ST-Developer
 * from STEP Tools, Inc. (www.steptools.com) 
 */

FILE_DESCRIPTION(
/* description */ (''),
/* implementation_level */ '2;1');

FILE_NAME(
/* name */ 
'C:\\Users\\cad\\Desktop\\Zeichnungen neu von Ralph\\3D_Kupplung_R134-
SE\\3D_R134-SE-17.2-17.2_171011205.stp',
/* time_stamp */ '2021-06-24T10:31:45+02:00',
/* author */ ('cad'),
/* organization */ (''),
/* preprocessor_version */ 'ST-DEVELOPER v18.1',
/* originating_system */ 'Autodesk Inventor 2022',
/* authorisation */ '');

FILE_SCHEMA (('AUTOMOTIVE_DESIGN { 1 0 10303 214 3 1 1 }'));
ENDSEC;

DATA;
#10=MECHANICAL_DESIGN_GEOMETRIC_PRESENTATION_REPRESENTATION('',(#13),#610);
#11=SHAPE_REPRESENTATION_RELATIONSHIP('SRR','None',#617,#12);
#12=ADVANCED_BREP_SHAPE_REPRESENTATION('',(#14),#609);
#13=STYLED_ITEM('',(#626),#14);
#14=MANIFOLD_SOLID_BREP('Volumenk\X\F6rper1',#321);
#15=TOROIDAL_SURFACE('',#376,11.4,0.4);
#16=TOROIDAL_SURFACE('',#378,11.7090093457251,0.4);
#17=TOROIDAL_SURFACE('',#385,10.2806875021114,0.2);
#18=TOROIDAL_SURFACE('',#387,9.6,1.);
#19=FACE_BOUND('',#56,.T.);
#20=FACE_BOUND('',#60,.T.);
#21=FACE_BOUND('',#63,.T.);
#22=FACE_BOUND('',#67,.T.);
#23=FACE_BOUND('',#70,.T.);
#24=PLANE('',#348);
#25=PLANE('',#357);
#26=PLANE('',#361);
#27=PLANE('',#370);
#28=PLANE('',#374);
#29=CYLINDRICAL_SURFACE('',#345,7.);
#30=CYLINDRICAL_SURFACE('',#354,12.5);
#31=CYLINDRICAL_SURFACE('',#367,11.);
#32=CYLINDRICAL_SURFACE('',#391,8.6);
#33=FACE_OUTER_BOUND('',#53,.T.);
#34=FACE_OUTER_BOUND('',#54,.T.);
#35=FACE_OUTER_BOUND('',#55,.T.);
#36=FACE_OUTER_BOUND('',#57,.T.);
#37=FACE_OUTER_BOUND('',#58,.T.);
#38=FACE_OUTER_BOUND('',#59,.T.);
#39=FACE_OUTER_BOUND('',#61,.T.);
#40=FACE_OUTER_BOUND('',#62,.T.);
#41=FACE_OUTER_BOUND('',#64,.T.);
#42=FACE_OUTER_BOUND('',#65,.T.);
#43=FACE_OUTER_BOUND('',#66,.T.);
#44=FACE_OUTER_BOUND('',#68,.T.);
#45=FACE_OUTER_BOUND('',#69,.T.);
#46=FACE_OUTER_BOUND('',#71,.T.);
#47=FACE_OUTER_BOUND('',#72,.T.);
#48=FACE_OUTER_BOUND('',#73,.T.);
#49=FACE_OUTER_BOUND('',#74,.T.);
#50=FACE_OUTER_BOUND('',#75,.T.);
#51=FACE_OUTER_BOUND('',#76,.T.);
#52=FACE_OUTER_BOUND('',#77,.T.);
#53=EDGE_LOOP('',(#206,#207,#208,#209,#210));
#54=EDGE_LOOP('',(#211,#212,#213,#214,#215,#216));
#55=EDGE_LOOP('',(#217));
#56=EDGE_LOOP('',(#218));
#57=EDGE_LOOP('',(#219,#220,#221,#222,#223));
#58=EDGE_LOOP('',(#224,#225,#226,#227,#228,#229));
#59=EDGE_LOOP('',(#230));
#60=EDGE_LOOP('',(#231));
#61=EDGE_LOOP('',(#232,#233,#234,#235,#236));
#62=EDGE_LOOP('',(#237));
#63=EDGE_LOOP('',(#238));
#64=EDGE_LOOP('',(#239,#240,#241,#242,#243));
#65=EDGE_LOOP('',(#244,#245,#246,#247,#248,#249));
#66=EDGE_LOOP('',(#250));
#67=EDGE_LOOP('',(#251));
#68=EDGE_LOOP('',(#252,#253,#254,#255,#256));
#69=EDGE_LOOP('',(#257));
#70=EDGE_LOOP('',(#258));
#71=EDGE_LOOP('',(#259,#260,#261,#262,#263));
#72=EDGE_LOOP('',(#264,#265,#266,#267,#268));
#73=EDGE_LOOP('',(#269,#270,#271,#272,#273,#274));
#74=EDGE_LOOP('',(#275,#276,#277,#278,#279));
#75=EDGE_LOOP('',(#280,#281,#282,#283,#284));
#76=EDGE_LOOP('',(#285,#286,#287,#288,#289));
#77=EDGE_LOOP('',(#290,#291,#292,#293));
#78=LINE('',#520,#89);
#79=LINE('',#524,#90);
#80=LINE('',#535,#91);
#81=LINE('',#541,#92);
#82=LINE('',#550,#93);
#83=LINE('',#561,#94);
#84=LINE('',#567,#95);
#85=LINE('',#575,#96);
#86=LINE('',#591,#97);
#87=LINE('',#603,#98);
#88=LINE('',#606,#99);
#89=VECTOR('',#402,7.15);
#90=VECTOR('',#407,7.);
#91=VECTOR('',#420,12.35);
#92=VECTOR('',#427,12.5);
#93=VECTOR('',#438,12.35);
#94=VECTOR('',#451,10.85);
#95=VECTOR('',#458,11.);
#96=VECTOR('',#469,7.15);
#97=VECTOR('',#490,10.9101921749739);
#98=VECTOR('',#507,8.6);
#99=VECTOR('',#512,8.2);
#100=CIRCLE('',#342,7.);
#101=CIRCLE('',#343,7.);
#102=CIRCLE('',#344,7.3);
#103=CIRCLE('',#346,7.);
#104=CIRCLE('',#347,7.);
#105=CIRCLE('',#349,10.2806875021114);
#106=CIRCLE('',#351,12.2);
#107=CIRCLE('',#352,12.5);
#108=CIRCLE('',#353,12.5);
#109=CIRCLE('',#355,12.5);
#110=CIRCLE('',#356,12.5);
#111=CIRCLE('',#358,11.7090093457251);
#112=CIRCLE('',#360,12.2);
#113=CIRCLE('',#362,11.4);
#114=CIRCLE('',#364,11.);
#115=CIRCLE('',#365,11.);
#116=CIRCLE('',#366,10.7);
#117=CIRCLE('',#368,11.);
#118=CIRCLE('',#369,11.);
#119=CIRCLE('',#371,9.6);
#120=CIRCLE('',#373,7.3);
#121=CIRCLE('',#375,7.8);
#122=CIRCLE('',#377,0.4);
#123=CIRCLE('',#379,0.4);
#124=CIRCLE('',#380,11.3144951051102);
#125=CIRCLE('',#381,11.3144951051102);
#126=CIRCLE('',#383,10.4779446224188);
#127=CIRCLE('',#384,10.4779446224188);
#128=CIRCLE('',#386,0.2);
#129=CIRCLE('',#388,8.6);
#130=CIRCLE('',#389,1.);
#131=CIRCLE('',#390,8.6);
#132=CIRCLE('',#392,8.6);
#133=VERTEX_POINT('',#515);
#134=VERTEX_POINT('',#516);
#135=VERTEX_POINT('',#519);
#136=VERTEX_POINT('',#523);
#137=VERTEX_POINT('',#525);
#138=VERTEX_POINT('',#529);
#139=VERTEX_POINT('',#532);
#140=VERTEX_POINT('',#534);
#141=VERTEX_POINT('',#536);
#142=VERTEX_POINT('',#540);
#143=VERTEX_POINT('',#542);
#144=VERTEX_POINT('',#546);
#145=VERTEX_POINT('',#549);
#146=VERTEX_POINT('',#553);
#147=VERTEX_POINT('',#556);
#148=VERTEX_POINT('',#557);
#149=VERTEX_POINT('',#560);
#150=VERTEX_POINT('',#564);
#151=VERTEX_POINT('',#565);
#152=VERTEX_POINT('',#570);
#153=VERTEX_POINT('',#573);
#154=VERTEX_POINT('',#577);
#155=VERTEX_POINT('',#582);
#156=VERTEX_POINT('',#584);
#157=VERTEX_POINT('',#588);
#158=VERTEX_POINT('',#589);
#159=VERTEX_POINT('',#596);
#160=VERTEX_POINT('',#597);
#161=VERTEX_POINT('',#602);
#162=EDGE_CURVE('',#133,#134,#100,.T.);
#163=EDGE_CURVE('',#134,#133,#101,.T.);
#164=EDGE_CURVE('',#133,#135,#78,.T.);
#165=EDGE_CURVE('',#135,#135,#102,.T.);
#166=EDGE_CURVE('',#134,#136,#79,.T.);
#167=EDGE_CURVE('',#137,#136,#103,.T.);
#168=EDGE_CURVE('',#136,#137,#104,.T.);
#169=EDGE_CURVE('',#138,#138,#105,.T.);
#170=EDGE_CURVE('',#139,#139,#106,.T.);
#171=EDGE_CURVE('',#139,#140,#80,.T.);
#172=EDGE_CURVE('',#140,#141,#107,.T.);
#173=EDGE_CURVE('',#141,#140,#108,.T.);
#174=EDGE_CURVE('',#141,#142,#81,.T.);
#175=EDGE_CURVE('',#143,#142,#109,.T.);
#176=EDGE_CURVE('',#142,#143,#110,.T.);
#177=EDGE_CURVE('',#144,#144,#111,.T.);
#178=EDGE_CURVE('',#143,#145,#82,.T.);
#179=EDGE_CURVE('',#145,#145,#112,.T.);
#180=EDGE_CURVE('',#146,#146,#113,.T.);
#181=EDGE_CURVE('',#147,#148,#114,.T.);
#182=EDGE_CURVE('',#148,#147,#115,.T.);
#183=EDGE_CURVE('',#147,#149,#83,.T.);
#184=EDGE_CURVE('',#149,#149,#116,.T.);
#185=EDGE_CURVE('',#150,#151,#117,.T.);
#186=EDGE_CURVE('',#150,#148,#84,.T.);
#187=EDGE_CURVE('',#151,#150,#118,.T.);
#188=EDGE_CURVE('',#152,#152,#119,.T.);
#189=EDGE_CURVE('',#153,#153,#120,.T.);
#190=EDGE_CURVE('',#153,#137,#85,.T.);
#191=EDGE_CURVE('',#154,#154,#121,.T.);
#192=EDGE_CURVE('',#151,#146,#122,.T.);
#193=EDGE_CURVE('',#144,#155,#123,.T.);
#194=EDGE_CURVE('',#155,#156,#124,.T.);
#195=EDGE_CURVE('',#156,#155,#125,.T.);
#196=EDGE_CURVE('',#157,#158,#126,.T.);
#197=EDGE_CURVE('',#157,#156,#86,.T.);
#198=EDGE_CURVE('',#158,#157,#127,.T.);
#199=EDGE_CURVE('',#138,#158,#128,.T.);
#200=EDGE_CURVE('',#159,#160,#129,.T.);
#201=EDGE_CURVE('',#160,#152,#130,.T.);
#202=EDGE_CURVE('',#160,#159,#131,.T.);
#203=EDGE_CURVE('',#159,#161,#87,.T.);
#204=EDGE_CURVE('',#161,#161,#132,.T.);
#205=EDGE_CURVE('',#161,#154,#88,.T.);
#206=ORIENTED_EDGE('',*,*,#162,.T.);
#207=ORIENTED_EDGE('',*,*,#163,.T.);
#208=ORIENTED_EDGE('',*,*,#164,.T.);
#209=ORIENTED_EDGE('',*,*,#165,.T.);
#210=ORIENTED_EDGE('',*,*,#164,.F.);
#211=ORIENTED_EDGE('',*,*,#162,.F.);
#212=ORIENTED_EDGE('',*,*,#163,.F.);
#213=ORIENTED_EDGE('',*,*,#166,.T.);
#214=ORIENTED_EDGE('',*,*,#167,.F.);
#215=ORIENTED_EDGE('',*,*,#168,.F.);
#216=ORIENTED_EDGE('',*,*,#166,.F.);
#217=ORIENTED_EDGE('',*,*,#169,.F.);
#218=ORIENTED_EDGE('',*,*,#165,.F.);
#219=ORIENTED_EDGE('',*,*,#170,.T.);
#220=ORIENTED_EDGE('',*,*,#171,.T.);
#221=ORIENTED_EDGE('',*,*,#172,.T.);
#222=ORIENTED_EDGE('',*,*,#173,.T.);
#223=ORIENTED_EDGE('',*,*,#171,.F.);
#224=ORIENTED_EDGE('',*,*,#172,.F.);
#225=ORIENTED_EDGE('',*,*,#173,.F.);
#226=ORIENTED_EDGE('',*,*,#174,.T.);
#227=ORIENTED_EDGE('',*,*,#175,.F.);
#228=ORIENTED_EDGE('',*,*,#176,.F.);
#229=ORIENTED_EDGE('',*,*,#174,.F.);
#230=ORIENTED_EDGE('',*,*,#170,.F.);
#231=ORIENTED_EDGE('',*,*,#177,.F.);
#232=ORIENTED_EDGE('',*,*,#175,.T.);
#233=ORIENTED_EDGE('',*,*,#176,.T.);
#234=ORIENTED_EDGE('',*,*,#178,.T.);
#235=ORIENTED_EDGE('',*,*,#179,.T.);
#236=ORIENTED_EDGE('',*,*,#178,.F.);
#237=ORIENTED_EDGE('',*,*,#179,.F.);
#238=ORIENTED_EDGE('',*,*,#180,.F.);
#239=ORIENTED_EDGE('',*,*,#181,.T.);
#240=ORIENTED_EDGE('',*,*,#182,.T.);
#241=ORIENTED_EDGE('',*,*,#183,.T.);
#242=ORIENTED_EDGE('',*,*,#184,.T.);
#243=ORIENTED_EDGE('',*,*,#183,.F.);
#244=ORIENTED_EDGE('',*,*,#185,.F.);
#245=ORIENTED_EDGE('',*,*,#186,.T.);
#246=ORIENTED_EDGE('',*,*,#181,.F.);
#247=ORIENTED_EDGE('',*,*,#182,.F.);
#248=ORIENTED_EDGE('',*,*,#186,.F.);
#249=ORIENTED_EDGE('',*,*,#187,.F.);
#250=ORIENTED_EDGE('',*,*,#184,.F.);
#251=ORIENTED_EDGE('',*,*,#188,.F.);
#252=ORIENTED_EDGE('',*,*,#189,.T.);
#253=ORIENTED_EDGE('',*,*,#190,.T.);
#254=ORIENTED_EDGE('',*,*,#167,.T.);
#255=ORIENTED_EDGE('',*,*,#168,.T.);
#256=ORIENTED_EDGE('',*,*,#190,.F.);
#257=ORIENTED_EDGE('',*,*,#191,.F.);
#258=ORIENTED_EDGE('',*,*,#189,.F.);
#259=ORIENTED_EDGE('',*,*,#185,.T.);
#260=ORIENTED_EDGE('',*,*,#192,.T.);
#261=ORIENTED_EDGE('',*,*,#180,.T.);
#262=ORIENTED_EDGE('',*,*,#192,.F.);
#263=ORIENTED_EDGE('',*,*,#187,.T.);
#264=ORIENTED_EDGE('',*,*,#177,.T.);
#265=ORIENTED_EDGE('',*,*,#193,.T.);
#266=ORIENTED_EDGE('',*,*,#194,.T.);
#267=ORIENTED_EDGE('',*,*,#195,.T.);
#268=ORIENTED_EDGE('',*,*,#193,.F.);
#269=ORIENTED_EDGE('',*,*,#196,.F.);
#270=ORIENTED_EDGE('',*,*,#197,.T.);
#271=ORIENTED_EDGE('',*,*,#194,.F.);
#272=ORIENTED_EDGE('',*,*,#195,.F.);
#273=ORIENTED_EDGE('',*,*,#197,.F.);
#274=ORIENTED_EDGE('',*,*,#198,.F.);
#275=ORIENTED_EDGE('',*,*,#169,.T.);
#276=ORIENTED_EDGE('',*,*,#199,.T.);
#277=ORIENTED_EDGE('',*,*,#198,.T.);
#278=ORIENTED_EDGE('',*,*,#196,.T.);
#279=ORIENTED_EDGE('',*,*,#199,.F.);
#280=ORIENTED_EDGE('',*,*,#200,.T.);
#281=ORIENTED_EDGE('',*,*,#201,.T.);
#282=ORIENTED_EDGE('',*,*,#188,.T.);
#283=ORIENTED_EDGE('',*,*,#201,.F.);
#284=ORIENTED_EDGE('',*,*,#202,.T.);
#285=ORIENTED_EDGE('',*,*,#200,.F.);
#286=ORIENTED_EDGE('',*,*,#203,.T.);
#287=ORIENTED_EDGE('',*,*,#204,.T.);
#288=ORIENTED_EDGE('',*,*,#203,.F.);
#289=ORIENTED_EDGE('',*,*,#202,.F.);
#290=ORIENTED_EDGE('',*,*,#204,.F.);
#291=ORIENTED_EDGE('',*,*,#205,.T.);
#292=ORIENTED_EDGE('',*,*,#191,.T.);
#293=ORIENTED_EDGE('',*,*,#205,.F.);
#294=CONICAL_SURFACE('',#341,7.15,0.78539816339745);
#295=CONICAL_SURFACE('',#350,12.35,0.785398163397448);
#296=CONICAL_SURFACE('',#359,12.35,0.785398163397448);
#297=CONICAL_SURFACE('',#363,10.85,0.785398163397452);
#298=CONICAL_SURFACE('',#372,7.15,0.785398163397452);
#299=CONICAL_SURFACE('',#382,10.9101921749739,0.165806278939462);
#300=CONICAL_SURFACE('',#393,8.2,1.0471975511966);
#301=ADVANCED_FACE('',(#33),#294,.F.);
#302=ADVANCED_FACE('',(#34),#29,.F.);
#303=ADVANCED_FACE('',(#35,#19),#24,.T.);
#304=ADVANCED_FACE('',(#36),#295,.T.);
#305=ADVANCED_FACE('',(#37),#30,.T.);
#306=ADVANCED_FACE('',(#38,#20),#25,.T.);
#307=ADVANCED_FACE('',(#39),#296,.T.);
#308=ADVANCED_FACE('',(#40,#21),#26,.T.);
#309=ADVANCED_FACE('',(#41),#297,.T.);
#310=ADVANCED_FACE('',(#42),#31,.T.);
#311=ADVANCED_FACE('',(#43,#22),#27,.T.);
#312=ADVANCED_FACE('',(#44),#298,.F.);
#313=ADVANCED_FACE('',(#45,#23),#28,.T.);
#314=ADVANCED_FACE('',(#46),#15,.F.);
#315=ADVANCED_FACE('',(#47),#16,.F.);
#316=ADVANCED_FACE('',(#48),#299,.T.);
#317=ADVANCED_FACE('',(#49),#17,.T.);
#318=ADVANCED_FACE('',(#50),#18,.F.);
#319=ADVANCED_FACE('',(#51),#32,.T.);
#320=ADVANCED_FACE('',(#52),#300,.T.);
#321=CLOSED_SHELL('',(#301,#302,#303,#304,#305,#306,#307,#308,#309,#310,
#311,#312,#313,#314,#315,#316,#317,#318,#319,#320));
#322=DERIVED_UNIT_ELEMENT(#324,1.);
#323=DERIVED_UNIT_ELEMENT(#612,-3.);
#324=(
MASS_UNIT()
NAMED_UNIT(*)
SI_UNIT($,.GRAM.)
);
#325=DERIVED_UNIT((#322,#323));
#326=MEASURE_REPRESENTATION_ITEM('density measure',
POSITIVE_RATIO_MEASURE(1.),#325);
#327=PROPERTY_DEFINITION_REPRESENTATION(#332,#329);
#328=PROPERTY_DEFINITION_REPRESENTATION(#333,#330);
#329=REPRESENTATION('material name',(#331),#609);
#330=REPRESENTATION('density',(#326),#609);
#331=DESCRIPTIVE_REPRESENTATION_ITEM('Generisch','Generisch');
#332=PROPERTY_DEFINITION('material property','material name',#619);
#333=PROPERTY_DEFINITION('material property','density of part',#619);
#334=DATE_TIME_ROLE('creation_date');
#335=APPLIED_DATE_AND_TIME_ASSIGNMENT(#336,#334,(#619));
#336=DATE_AND_TIME(#337,#338);
#337=CALENDAR_DATE(2021,16,6);
#338=LOCAL_TIME(0,0,0.,#339);
#339=COORDINATED_UNIVERSAL_TIME_OFFSET(0,0,.BEHIND.);
#340=AXIS2_PLACEMENT_3D('placement',#513,#394,#395);
#341=AXIS2_PLACEMENT_3D('',#514,#396,#397);
#342=AXIS2_PLACEMENT_3D('',#517,#398,#399);
#343=AXIS2_PLACEMENT_3D('',#518,#400,#401);
#344=AXIS2_PLACEMENT_3D('',#521,#403,#404);
#345=AXIS2_PLACEMENT_3D('',#522,#405,#406);
#346=AXIS2_PLACEMENT_3D('',#526,#408,#409);
#347=AXIS2_PLACEMENT_3D('',#527,#410,#411);
#348=AXIS2_PLACEMENT_3D('',#528,#412,#413);
#349=AXIS2_PLACEMENT_3D('',#530,#414,#415);
#350=AXIS2_PLACEMENT_3D('',#531,#416,#417);
#351=AXIS2_PLACEMENT_3D('',#533,#418,#419);
#352=AXIS2_PLACEMENT_3D('',#537,#421,#422);
#353=AXIS2_PLACEMENT_3D('',#538,#423,#424);
#354=AXIS2_PLACEMENT_3D('',#539,#425,#426);
#355=AXIS2_PLACEMENT_3D('',#543,#428,#429);
#356=AXIS2_PLACEMENT_3D('',#544,#430,#431);
#357=AXIS2_PLACEMENT_3D('',#545,#432,#433);
#358=AXIS2_PLACEMENT_3D('',#547,#434,#435);
#359=AXIS2_PLACEMENT_3D('',#548,#436,#437);
#360=AXIS2_PLACEMENT_3D('',#551,#439,#440);
#361=AXIS2_PLACEMENT_3D('',#552,#441,#442);
#362=AXIS2_PLACEMENT_3D('',#554,#443,#444);
#363=AXIS2_PLACEMENT_3D('',#555,#445,#446);
#364=AXIS2_PLACEMENT_3D('',#558,#447,#448);
#365=AXIS2_PLACEMENT_3D('',#559,#449,#450);
#366=AXIS2_PLACEMENT_3D('',#562,#452,#453);
#367=AXIS2_PLACEMENT_3D('',#563,#454,#455);
#368=AXIS2_PLACEMENT_3D('',#566,#456,#457);
#369=AXIS2_PLACEMENT_3D('',#568,#459,#460);
#370=AXIS2_PLACEMENT_3D('',#569,#461,#462);
#371=AXIS2_PLACEMENT_3D('',#571,#463,#464);
#372=AXIS2_PLACEMENT_3D('',#572,#465,#466);
#373=AXIS2_PLACEMENT_3D('',#574,#467,#468);
#374=AXIS2_PLACEMENT_3D('',#576,#470,#471);
#375=AXIS2_PLACEMENT_3D('',#578,#472,#473);
#376=AXIS2_PLACEMENT_3D('',#579,#474,#475);
#377=AXIS2_PLACEMENT_3D('',#580,#476,#477);
#378=AXIS2_PLACEMENT_3D('',#581,#478,#479);
#379=AXIS2_PLACEMENT_3D('',#583,#480,#481);
#380=AXIS2_PLACEMENT_3D('',#585,#482,#483);
#381=AXIS2_PLACEMENT_3D('',#586,#484,#485);
#382=AXIS2_PLACEMENT_3D('',#587,#486,#487);
#383=AXIS2_PLACEMENT_3D('',#590,#488,#489);
#384=AXIS2_PLACEMENT_3D('',#592,#491,#492);
#385=AXIS2_PLACEMENT_3D('',#593,#493,#494);
#386=AXIS2_PLACEMENT_3D('',#594,#495,#496);
#387=AXIS2_PLACEMENT_3D('',#595,#497,#498);
#388=AXIS2_PLACEMENT_3D('',#598,#499,#500);
#389=AXIS2_PLACEMENT_3D('',#599,#501,#502);
#390=AXIS2_PLACEMENT_3D('',#600,#503,#504);
#391=AXIS2_PLACEMENT_3D('',#601,#505,#506);
#392=AXIS2_PLACEMENT_3D('',#604,#508,#509);
#393=AXIS2_PLACEMENT_3D('',#605,#510,#511);
#394=DIRECTION('axis',(0.,0.,1.));
#395=DIRECTION('refdir',(1.,0.,0.));
#396=DIRECTION('center_axis',(1.,0.,0.));
#397=DIRECTION('ref_axis',(0.,-1.,0.));
#398=DIRECTION('center_axis',(-1.,0.,0.));
#399=DIRECTION('ref_axis',(0.,-1.,0.));
#400=DIRECTION('center_axis',(-1.,0.,0.));
#401=DIRECTION('ref_axis',(0.,-1.,0.));
#402=DIRECTION('',(0.707106781186546,0.707106781186549,-8.65956056235495E-17));
#403=DIRECTION('center_axis',(1.,0.,0.));
#404=DIRECTION('ref_axis',(0.,-1.,0.));
#405=DIRECTION('center_axis',(1.,0.,0.));
#406=DIRECTION('ref_axis',(0.,1.,0.));
#407=DIRECTION('',(-1.,0.,0.));
#408=DIRECTION('center_axis',(1.,0.,0.));
#409=DIRECTION('ref_axis',(0.,-1.,0.));
#410=DIRECTION('center_axis',(1.,0.,0.));
#411=DIRECTION('ref_axis',(0.,-1.,0.));
#412=DIRECTION('center_axis',(1.,0.,0.));
#413=DIRECTION('ref_axis',(0.,0.,-1.));
#414=DIRECTION('center_axis',(-1.,0.,0.));
#415=DIRECTION('ref_axis',(0.,-1.,1.83697019872103E-16));
#416=DIRECTION('center_axis',(-1.,0.,0.));
#417=DIRECTION('ref_axis',(0.,-1.,0.));
#418=DIRECTION('center_axis',(-1.,0.,0.));
#419=DIRECTION('ref_axis',(0.,-1.,0.));
#420=DIRECTION('',(-0.707106781186548,0.707106781186548,8.65956056235493E-17));
#421=DIRECTION('center_axis',(1.,0.,0.));
#422=DIRECTION('ref_axis',(0.,-1.,0.));
#423=DIRECTION('center_axis',(1.,0.,0.));
#424=DIRECTION('ref_axis',(0.,-1.,0.));
#425=DIRECTION('center_axis',(1.,0.,0.));
#426=DIRECTION('ref_axis',(0.,1.,0.));
#427=DIRECTION('',(-1.,0.,0.));
#428=DIRECTION('center_axis',(-1.,0.,0.));
#429=DIRECTION('ref_axis',(0.,-1.,0.));
#430=DIRECTION('center_axis',(-1.,0.,0.));
#431=DIRECTION('ref_axis',(0.,-1.,0.));
#432=DIRECTION('center_axis',(1.,0.,0.));
#433=DIRECTION('ref_axis',(0.,0.,-1.));
#434=DIRECTION('center_axis',(1.,0.,0.));
#435=DIRECTION('ref_axis',(0.,-1.,1.83697019872103E-16));
#436=DIRECTION('center_axis',(1.,0.,0.));
#437=DIRECTION('ref_axis',(0.,-1.,0.));
#438=DIRECTION('',(-0.707106781186548,-0.707106781186548,-8.65956056235493E-17));
#439=DIRECTION('center_axis',(1.,0.,0.));
#440=DIRECTION('ref_axis',(0.,-1.,0.));
#441=DIRECTION('center_axis',(-1.,0.,0.));
#442=DIRECTION('ref_axis',(0.,0.,1.));
#443=DIRECTION('center_axis',(-1.,0.,0.));
#444=DIRECTION('ref_axis',(0.,-1.,1.83697019872103E-16));
#445=DIRECTION('center_axis',(1.,0.,0.));
#446=DIRECTION('ref_axis',(0.,-1.,0.));
#447=DIRECTION('center_axis',(-1.,0.,0.));
#448=DIRECTION('ref_axis',(0.,-1.,0.));
#449=DIRECTION('center_axis',(-1.,0.,0.));
#450=DIRECTION('ref_axis',(0.,-1.,0.));
#451=DIRECTION('',(-0.707106781186545,-0.70710678118655,-8.65956056235497E-17));
#452=DIRECTION('center_axis',(1.,0.,0.));
#453=DIRECTION('ref_axis',(0.,-1.,0.));
#454=DIRECTION('center_axis',(1.,0.,0.));
#455=DIRECTION('ref_axis',(0.,1.,0.));
#456=DIRECTION('center_axis',(1.,0.,0.));
#457=DIRECTION('ref_axis',(0.,-1.,1.83697019872103E-16));
#458=DIRECTION('',(-1.,0.,0.));
#459=DIRECTION('center_axis',(1.,0.,0.));
#460=DIRECTION('ref_axis',(0.,-1.,1.83697019872103E-16));
#461=DIRECTION('center_axis',(-1.,0.,0.));
#462=DIRECTION('ref_axis',(0.,0.,1.));
#463=DIRECTION('center_axis',(-1.,0.,0.));
#464=DIRECTION('ref_axis',(0.,-1.,1.83697019872103E-16));
#465=DIRECTION('center_axis',(-1.,0.,0.));
#466=DIRECTION('ref_axis',(0.,-1.,0.));
#467=DIRECTION('center_axis',(-1.,0.,0.));
#468=DIRECTION('ref_axis',(0.,-1.,0.));
#469=DIRECTION('',(0.707106781186545,-0.70710678118655,8.65956056235496E-17));
#470=DIRECTION('center_axis',(-1.,0.,0.));
#471=DIRECTION('ref_axis',(0.,0.,1.));
#472=DIRECTION('center_axis',(1.,0.,0.));
#473=DIRECTION('ref_axis',(0.,0.,-1.));
#474=DIRECTION('center_axis',(1.,0.,0.));
#475=DIRECTION('ref_axis',(0.,0.,-1.));
#476=DIRECTION('center_axis',(0.,-1.,-1.22464679914735E-16));
#477=DIRECTION('ref_axis',(0.,-1.22464679914735E-16,1.));
#478=DIRECTION('center_axis',(1.,0.,0.));
#479=DIRECTION('ref_axis',(0.,0.,-1.));
#480=DIRECTION('center_axis',(0.,-1.,-1.22464679914735E-16));
#481=DIRECTION('ref_axis',(0.,-1.22464679914735E-16,1.));
#482=DIRECTION('center_axis',(-1.,0.,0.));
#483=DIRECTION('ref_axis',(0.,-1.,3.06161699786838E-17));
#484=DIRECTION('center_axis',(-1.,0.,0.));
#485=DIRECTION('ref_axis',(0.,-1.,3.06161699786838E-17));
#486=DIRECTION('center_axis',(-1.,0.,0.));
#487=DIRECTION('ref_axis',(0.,1.,0.));
#488=DIRECTION('center_axis',(1.,0.,0.));
#489=DIRECTION('ref_axis',(0.,-1.,3.06161699786838E-17));
#490=DIRECTION('',(-0.986285601537231,-0.165047605860678,-2.02125022224213E-17));
#491=DIRECTION('center_axis',(1.,0.,0.));
#492=DIRECTION('ref_axis',(0.,-1.,3.06161699786838E-17));
#493=DIRECTION('center_axis',(1.,0.,0.));
#494=DIRECTION('ref_axis',(0.,0.,-1.));
#495=DIRECTION('center_axis',(0.,-1.,-1.22464679914735E-16));
#496=DIRECTION('ref_axis',(0.,-1.22464679914735E-16,1.));
#497=DIRECTION('center_axis',(1.,0.,0.));
#498=DIRECTION('ref_axis',(0.,0.,-1.));
#499=DIRECTION('center_axis',(1.,0.,0.));
#500=DIRECTION('ref_axis',(0.,-1.,1.83697019872103E-16));
#501=DIRECTION('center_axis',(0.,-1.,-1.22464679914735E-16));
#502=DIRECTION('ref_axis',(0.,-1.22464679914735E-16,1.));
#503=DIRECTION('center_axis',(1.,0.,0.));
#504=DIRECTION('ref_axis',(0.,-1.,1.83697019872103E-16));
#505=DIRECTION('center_axis',(1.,0.,0.));
#506=DIRECTION('ref_axis',(0.,1.,0.));
#507=DIRECTION('',(-1.,0.,0.));
#508=DIRECTION('center_axis',(1.,0.,0.));
#509=DIRECTION('ref_axis',(0.,0.,-1.));
#510=DIRECTION('center_axis',(1.,0.,0.));
#511=DIRECTION('ref_axis',(0.,1.,0.));
#512=DIRECTION('',(-0.499999999999997,0.866025403784441,1.06057523872491E-16));
#513=CARTESIAN_POINT('',(0.,0.,0.));
#514=CARTESIAN_POINT('Origin',(-0.15,0.,0.));
#515=CARTESIAN_POINT('',(-0.3,7.,-8.57252759403147E-16));
#516=CARTESIAN_POINT('',(-0.3,-7.,-8.57252759403147E-16));
#517=CARTESIAN_POINT('Origin',(-0.3,0.,0.));
#518=CARTESIAN_POINT('Origin',(-0.3,0.,0.));
#519=CARTESIAN_POINT('',(0.,7.3,8.93992163377568E-16));
#520=CARTESIAN_POINT('',(-0.15,7.15,-8.75622461390358E-16));
#521=CARTESIAN_POINT('Origin',(0.,0.,0.));
#522=CARTESIAN_POINT('Origin',(-10.5,0.,0.));
#523=CARTESIAN_POINT('',(-20.7,-7.,-8.57252759403147E-16));
#524=CARTESIAN_POINT('',(-10.5,-7.,-8.57252759403147E-16));
#525=CARTESIAN_POINT('',(-20.7,7.,8.57252759403147E-16));
#526=CARTESIAN_POINT('Origin',(-20.7,0.,0.));
#527=CARTESIAN_POINT('Origin',(-20.7,0.,0.));
#528=CARTESIAN_POINT('Origin',(-1.47911419728938E-32,7.,0.));
#529=CARTESIAN_POINT('',(0.,-1.25902110424949E-15,10.2806875021114));
#530=CARTESIAN_POINT('Origin',(0.,0.,0.));
#531=CARTESIAN_POINT('Origin',(-5.65,0.,0.));
#532=CARTESIAN_POINT('',(-5.5,12.2,-1.49406909495977E-15));
#533=CARTESIAN_POINT('Origin',(-5.5,0.,0.));
#534=CARTESIAN_POINT('',(-5.8,12.5,1.53080849893419E-15));
#535=CARTESIAN_POINT('',(-5.65,12.35,1.51243879694698E-15));
#536=CARTESIAN_POINT('',(-5.8,-12.5,-1.53080849893419E-15));
#537=CARTESIAN_POINT('Origin',(-5.8,0.,0.));
#538=CARTESIAN_POINT('Origin',(-5.8,0.,0.));
#539=CARTESIAN_POINT('Origin',(-6.75,0.,0.));
#540=CARTESIAN_POINT('',(-7.7,-12.5,-1.53080849893419E-15));
#541=CARTESIAN_POINT('',(-6.75,-12.5,-1.53080849893419E-15));
#542=CARTESIAN_POINT('',(-7.7,12.5,-1.53080849893419E-15));
#543=CARTESIAN_POINT('Origin',(-7.7,0.,0.));
#544=CARTESIAN_POINT('Origin',(-7.7,0.,0.));
#545=CARTESIAN_POINT('Origin',(-5.5,11.3703843499478,0.));
#546=CARTESIAN_POINT('',(-5.5,-1.43394008164287E-15,11.7090093457251));
#547=CARTESIAN_POINT('Origin',(-5.5,0.,0.));
#548=CARTESIAN_POINT('Origin',(-7.85,0.,0.));
#549=CARTESIAN_POINT('',(-8.,12.2,1.49406909495977E-15));
#550=CARTESIAN_POINT('',(-7.85,12.35,1.51243879694698E-15));
#551=CARTESIAN_POINT('Origin',(-8.,0.,0.));
#552=CARTESIAN_POINT('Origin',(-8.,12.5,0.));
#553=CARTESIAN_POINT('',(-8.,-1.39609735102798E-15,11.4));
#554=CARTESIAN_POINT('Origin',(-8.,0.,0.));
#555=CARTESIAN_POINT('Origin',(-11.85,0.,0.));
#556=CARTESIAN_POINT('',(-11.7,11.,-1.34711147906209E-15));
#557=CARTESIAN_POINT('',(-11.7,-11.,-1.34711147906209E-15));
#558=CARTESIAN_POINT('Origin',(-11.7,0.,0.));
#559=CARTESIAN_POINT('Origin',(-11.7,0.,0.));
#560=CARTESIAN_POINT('',(-12.,10.7,1.31037207508767E-15));
#561=CARTESIAN_POINT('',(-11.85,10.85,1.32874177707488E-15));
#562=CARTESIAN_POINT('Origin',(-12.,0.,0.));
#563=CARTESIAN_POINT('Origin',(-10.,0.,0.));
#564=CARTESIAN_POINT('',(-8.4,-11.,-1.34711147906209E-15));
#565=CARTESIAN_POINT('',(-8.4,-1.34711147906209E-15,11.));
#566=CARTESIAN_POINT('Origin',(-8.4,0.,0.));
#567=CARTESIAN_POINT('',(-10.,-11.,-1.34711147906209E-15));
#568=CARTESIAN_POINT('Origin',(-8.4,0.,0.));
#569=CARTESIAN_POINT('Origin',(-12.,11.,0.));
#570=CARTESIAN_POINT('',(-12.,-1.17566092718146E-15,9.6));
#571=CARTESIAN_POINT('Origin',(-12.,0.,0.));
#572=CARTESIAN_POINT('Origin',(-20.85,0.,0.));
#573=CARTESIAN_POINT('',(-21.,7.3,-8.93992163377568E-16));
#574=CARTESIAN_POINT('Origin',(-21.,0.,0.));
#575=CARTESIAN_POINT('',(-20.85,7.15,-8.75622461390357E-16));
#576=CARTESIAN_POINT('Origin',(-21.,7.8,0.));
#577=CARTESIAN_POINT('',(-21.,-7.8,-9.55224503334935E-16));
#578=CARTESIAN_POINT('Origin',(-21.,0.,0.));
#579=CARTESIAN_POINT('Origin',(-8.4,0.,0.));
#580=CARTESIAN_POINT('Origin',(-8.4,-1.39609735102798E-15,11.4));
#581=CARTESIAN_POINT('Origin',(-5.1,0.,0.));
#582=CARTESIAN_POINT('',(-5.16601904234427,-1.38562602144416E-15,11.3144951051102));
#583=CARTESIAN_POINT('Origin',(-5.1,-1.43394008164287E-15,11.7090093457251));
#584=CARTESIAN_POINT('',(-5.16601904234427,-11.3144951051102,-1.38562602144416E-15));
#585=CARTESIAN_POINT('Origin',(-5.16601904234427,0.,-1.7320325268052E-15));
#586=CARTESIAN_POINT('Origin',(-5.16601904234427,0.,-1.7320325268052E-15));
#587=CARTESIAN_POINT('Origin',(-2.75,0.,0.));
#588=CARTESIAN_POINT('',(-0.166990478827864,-10.4779446224188,-1.28317813434884E-15));
#589=CARTESIAN_POINT('',(-0.166990478827865,-1.28317813434884E-15,10.4779446224188));
#590=CARTESIAN_POINT('Origin',(-0.166990478827865,0.,-1.60397266793605E-15));
#591=CARTESIAN_POINT('',(-2.75,-10.9101921749739,-1.33611319251643E-15));
#592=CARTESIAN_POINT('Origin',(-0.166990478827865,0.,-1.60397266793605E-15));
#593=CARTESIAN_POINT('Origin',(-0.2,0.,0.));
#594=CARTESIAN_POINT('Origin',(-0.2,-1.25902110424949E-15,10.2806875021114));
#595=CARTESIAN_POINT('Origin',(-13.,0.,0.));
#596=CARTESIAN_POINT('',(-13.,-8.6,-1.05319624726672E-15));
#597=CARTESIAN_POINT('',(-13.,-1.05319624726672E-15,8.6));
#598=CARTESIAN_POINT('Origin',(-13.,0.,0.));
#599=CARTESIAN_POINT('Origin',(-13.,-1.17566092718146E-15,9.6));
#600=CARTESIAN_POINT('Origin',(-13.,0.,0.));
#601=CARTESIAN_POINT('Origin',(-16.2690598923242,0.,0.));
#602=CARTESIAN_POINT('',(-20.5381197846483,-8.6,-1.05319624726672E-15));
#603=CARTESIAN_POINT('',(-16.2690598923242,-8.6,-1.05319624726672E-15));
#604=CARTESIAN_POINT('Origin',(-20.5381197846483,0.,0.));
#605=CARTESIAN_POINT('Origin',(-20.7690598923242,0.,0.));
#606=CARTESIAN_POINT('',(-20.7690598923242,-8.2,-1.00421037530083E-15));
#607=UNCERTAINTY_MEASURE_WITH_UNIT(LENGTH_MEASURE(0.01),#611,
'DISTANCE_ACCURACY_VALUE',
'Maximum model space distance between geometric entities at asserted c
onnectivities');
#608=UNCERTAINTY_MEASURE_WITH_UNIT(LENGTH_MEASURE(0.01),#611,
'DISTANCE_ACCURACY_VALUE',
'Maximum model space distance between geometric entities at asserted c
onnectivities');
#609=(
GEOMETRIC_REPRESENTATION_CONTEXT(3)
GLOBAL_UNCERTAINTY_ASSIGNED_CONTEXT((#607))
GLOBAL_UNIT_ASSIGNED_CONTEXT((#611,#613,#614))
REPRESENTATION_CONTEXT('','3D')
);
#610=(
GEOMETRIC_REPRESENTATION_CONTEXT(3)
GLOBAL_UNCERTAINTY_ASSIGNED_CONTEXT((#608))
GLOBAL_UNIT_ASSIGNED_CONTEXT((#611,#613,#614))
REPRESENTATION_CONTEXT('','3D')
);
#611=(
LENGTH_UNIT()
NAMED_UNIT(*)
SI_UNIT(.MILLI.,.METRE.)
);
#612=(
LENGTH_UNIT()
NAMED_UNIT(*)
SI_UNIT(.CENTI.,.METRE.)
);
#613=(
NAMED_UNIT(*)
PLANE_ANGLE_UNIT()
SI_UNIT($,.RADIAN.)
);
#614=(
NAMED_UNIT(*)
SI_UNIT($,.STERADIAN.)
SOLID_ANGLE_UNIT()
);
#615=SHAPE_DEFINITION_REPRESENTATION(#616,#617);
#616=PRODUCT_DEFINITION_SHAPE('',$,#619);
#617=SHAPE_REPRESENTATION('',(#340),#609);
#618=PRODUCT_DEFINITION_CONTEXT('part definition',#623,'design');
#619=PRODUCT_DEFINITION('3D_R134-SE-17.2-17.2_171011205',
'3D_R134-SE-17.2-17.2_171011205',#620,#618);
#620=PRODUCT_DEFINITION_FORMATION('',$,#625);
#621=PRODUCT_RELATED_PRODUCT_CATEGORY('3D_R134-SE-17.2-17.2_171011205',
'3D_R134-SE-17.2-17.2_171011205',(#625));
#622=APPLICATION_PROTOCOL_DEFINITION('international standard',
'automotive_design',2009,#623);
#623=APPLICATION_CONTEXT(
'Core Data for Automotive Mechanical Design Process');
#624=PRODUCT_CONTEXT('part definition',#623,'mechanical');
#625=PRODUCT('3D_R134-SE-17.2-17.2_171011205',
'3D_R134-SE-17.2-17.2_171011205',$,(#624));
#626=PRESENTATION_STYLE_ASSIGNMENT((#627));
#627=SURFACE_STYLE_USAGE(.BOTH.,#630);
#628=SURFACE_STYLE_RENDERING_WITH_PROPERTIES($,#634,(#629));
#629=SURFACE_STYLE_TRANSPARENT(0.);
#630=SURFACE_SIDE_STYLE('',(#631,#628));
#631=SURFACE_STYLE_FILL_AREA(#632);
#632=FILL_AREA_STYLE('',(#633));
#633=FILL_AREA_STYLE_COLOUR('',#634);
#634=COLOUR_RGB('',0.749019607843137,0.749019607843137,0.749019607843137);
ENDSEC;
END-ISO-10303-21;
