ISO-10303-21;
HEADER;
FILE_DESCRIPTION (( 'STEP AP203' ),
    '1' );
FILE_NAME ('OT214-200-204x2_OSTP.step',
    '2021-02-10T12:35:34',
    ( '' ),
    ( '' ),
    'SwSTEP 2.0',
    'SolidWorks 2014',
    '' );
FILE_SCHEMA (( 'CONFIG_CONTROL_DESIGN' ));
ENDSEC;

DATA;
#1 = PRODUCT_DEFINITION_SHAPE ( 'NONE', 'NONE',  #133 ) ;
#2 = APPROVAL_STATUS ( 'not_yet_approved' ) ;
#3 = EDGE_CURVE ( 'NONE', #42, #15, #168, .T. ) ;
#4 =( NAMED_UNIT ( * ) PLANE_ANGLE_UNIT ( ) SI_UNIT ( $, .RADIAN. ) );
#5 = FACE_OUTER_BOUND ( 'NONE', #14, .T. ) ;
#6 = MANIFOLD_SOLID_BREP ( 'cut-body', #147 ) ;
#7 = COORDINATED_UNIVERSAL_TIME_OFFSET ( 1, 0, .AHEAD. ) ;
#8 = AXIS2_PLACEMENT_3D ( 'NONE', #234, #76, #93 ) ;
#9 = EDGE_LOOP ( 'NONE', ( #148, #199, #216, #250 ) ) ;
#10 = ORIENTED_EDGE ( 'NONE', *, *, #60, .T. ) ;
#11 = AXIS2_PLACEMENT_3D ( 'NONE', #159, #197, #96 ) ;
#12 = AXIS2_PLACEMENT_3D ( 'NONE', #252, #245, #233 ) ;
#13 = PERSON_AND_ORGANIZATION ( #239, #63 ) ;
#14 = EDGE_LOOP ( 'NONE', ( #164, #84 ) ) ;
#15 = VERTEX_POINT ( 'NONE', #50 ) ;
#16 = DIRECTION ( 'NONE',  ( 0.0000000000000000000, 1.000000000000000000, 0.0000000000000000000 ) ) ;
#17 = EDGE_CURVE ( 'NONE', #45, #42, #211, .T. ) ;
#18 = CARTESIAN_POINT ( 'NONE',  ( 300.0000000000000000, 0.0000000000000000000, 0.0000000000000000000 ) ) ;
#19 = ORIENTED_EDGE ( 'NONE', *, *, #40, .F. ) ;
#20 = CARTESIAN_POINT ( 'NONE',  ( 300.0000000000000000, 199.9999999999999700, -1.224646799147353400E-014 ) ) ;
#21 = DIRECTION ( 'NONE',  ( 1.000000000000000000, 0.0000000000000000000, 0.0000000000000000000 ) ) ;
#22 = CALENDAR_DATE ( 2021, 10, 2 ) ;
#23 = AXIS2_PLACEMENT_3D ( 'NONE', #156, #34, #157 ) ;
#24 = PERSON_AND_ORGANIZATION_ROLE ( 'creator' ) ;
#25 = TOROIDAL_SURFACE ( 'NONE', #111, 300.0000000000000000, 102.0000000000000000 ) ;
#26 = ORIENTED_EDGE ( 'NONE', *, *, #17, .T. ) ;
#27 = AXIS2_PLACEMENT_3D ( 'NONE', #74, #54, #141 ) ;
#28 = EDGE_LOOP ( 'NONE', ( #177, #10, #203, #206 ) ) ;
#29 = PERSON_AND_ORGANIZATION ( #239, #63 ) ;
#30 = APPROVAL_PERSON_ORGANIZATION ( #92, #138, #104 ) ;
#31 = CARTESIAN_POINT ( 'NONE',  ( 102.0000000000000100, 0.0000000000000000000, -1.249139735130300400E-014 ) ) ;
#32 = ORIENTED_EDGE ( 'NONE', *, *, #60, .F. ) ;
#33 = DIRECTION ( 'NONE',  ( 1.000000000000000000, 0.0000000000000000000, 0.0000000000000000000 ) ) ;
#34 = DIRECTION ( 'NONE',  ( 0.0000000000000000000, 0.0000000000000000000, 1.000000000000000000 ) ) ;
#35 =( GEOMETRIC_REPRESENTATION_CONTEXT ( 3 ) GLOBAL_UNCERTAINTY_ASSIGNED_CONTEXT ( ( #67 ) ) GLOBAL_UNIT_ASSIGNED_CONTEXT ( ( #237, #4, #79 ) ) REPRESENTATION_CONTEXT ( 'NONE', 'WORKASPACE' ) );
#36 = AXIS2_PLACEMENT_3D ( 'NONE', #179, #77, #246 ) ;
#37 = VERTEX_POINT ( 'NONE', #155 ) ;
#38 = LOCAL_TIME ( 13, 35, 34.00000000000000000, #238 ) ;
#39 = EDGE_LOOP ( 'NONE', ( #32, #78, #26, #124 ) ) ;
#40 = EDGE_CURVE ( 'NONE', #125, #115, #224, .T. ) ;
#41 = APPROVAL_STATUS ( 'not_yet_approved' ) ;
#42 = VERTEX_POINT ( 'NONE', #31 ) ;
#43 = EDGE_CURVE ( 'NONE', #225, #125, #44, .T. ) ;
#44 = CIRCLE ( 'NONE', #123, 99.99999999999997200 ) ;
#45 = VERTEX_POINT ( 'NONE', #192 ) ;
#46 = DIRECTION ( 'NONE',  ( 0.0000000000000000000, 0.0000000000000000000, 1.000000000000000000 ) ) ;
#47 = AXIS2_PLACEMENT_3D ( 'NONE', #173, #52, #196 ) ;
#48 = DIRECTION ( 'NONE',  ( 0.0000000000000000000, 0.0000000000000000000, 1.000000000000000000 ) ) ;
#49 = LOCAL_TIME ( 13, 35, 34.00000000000000000, #66 ) ;
#50 = CARTESIAN_POINT ( 'NONE',  ( -101.9999999999999900, 0.0000000000000000000, 0.0000000000000000000 ) ) ;
#51 = CC_DESIGN_APPROVAL ( #220, ( #133 ) ) ;
#52 = DIRECTION ( 'NONE',  ( 0.0000000000000000000, 1.000000000000000000, 0.0000000000000000000 ) ) ;
#53 = AXIS2_PLACEMENT_3D ( 'NONE', #209, #48, #193 ) ;
#54 = DIRECTION ( 'NONE',  ( 0.0000000000000000000, 1.000000000000000000, 0.0000000000000000000 ) ) ;
#55 = FACE_OUTER_BOUND ( 'NONE', #90, .T. ) ;
#56 = DIRECTION ( 'NONE',  ( 0.0000000000000000000, 0.0000000000000000000, 1.000000000000000000 ) ) ;
#57 = CARTESIAN_POINT ( 'NONE',  ( 299.9999999999999400, 300.0000000000000000, 0.0000000000000000000 ) ) ;
#58 = DIRECTION ( 'NONE',  ( 1.000000000000000000, 6.123233995736766000E-017, 0.0000000000000000000 ) ) ;
#59 = CC_DESIGN_PERSON_AND_ORGANIZATION_ASSIGNMENT ( #204, #24, ( #153 ) ) ;
#60 = EDGE_CURVE ( 'NONE', #37, #15, #87, .T. ) ;
#61 = PERSON_AND_ORGANIZATION_ROLE ( 'design_supplier' ) ;
#62 = APPLICATION_CONTEXT ( 'configuration controlled 3d designs of mechanical parts and assemblies' ) ;
#63 = ORGANIZATION ( 'UNSPECIFIED', 'UNSPECIFIED', '' ) ;
#64 = ADVANCED_BREP_SHAPE_REPRESENTATION ( 'OT214-200-204x2_OSTP', ( #6, #121 ), #35 ) ;
#65 = ADVANCED_FACE ( 'NONE', ( #227 ), #25, .T. ) ;
#66 = COORDINATED_UNIVERSAL_TIME_OFFSET ( 1, 0, .AHEAD. ) ;
#67 = UNCERTAINTY_MEASURE_WITH_UNIT (LENGTH_MEASURE( 1.000000000000000100E-005 ), #237, 'distance_accuracy_value', 'NONE');
#68 = CIRCLE ( 'NONE', #85, 102.0000000000000000 ) ;
#69 = DIRECTION ( 'NONE',  ( 1.000000000000000000, 0.0000000000000000000, 0.0000000000000000000 ) ) ;
#70 = DESIGN_CONTEXT ( 'detailed design', #62, 'design' ) ;
#71 = CARTESIAN_POINT ( 'NONE',  ( 300.0000000000000000, 0.0000000000000000000, 0.0000000000000000000 ) ) ;
#72 = AXIS2_PLACEMENT_3D ( 'NONE', #229, #114, #91 ) ;
#73 = CALENDAR_DATE ( 2021, 10, 2 ) ;
#74 = CARTESIAN_POINT ( 'NONE',  ( 0.0000000000000000000, 0.0000000000000000000, 0.0000000000000000000 ) ) ;
#75 = CIRCLE ( 'NONE', #242, 102.0000000000000000 ) ;
#76 = DIRECTION ( 'NONE',  ( 0.0000000000000000000, 0.0000000000000000000, 1.000000000000000000 ) ) ;
#77 = DIRECTION ( 'NONE',  ( 0.0000000000000000000, 1.000000000000000000, 0.0000000000000000000 ) ) ;
#78 = ORIENTED_EDGE ( 'NONE', *, *, #205, .F. ) ;
#79 =( NAMED_UNIT ( * ) SI_UNIT ( $, .STERADIAN. ) SOLID_ANGLE_UNIT ( ) );
#80 = DATE_AND_TIME ( #154, #139 ) ;
#81 = ADVANCED_FACE ( 'NONE', ( #244 ), #158, .T. ) ;
#82 = FACE_BOUND ( 'NONE', #140, .T. ) ;
#83 = ADVANCED_FACE ( 'NONE', ( #118, #55 ), #230, .T. ) ;
#84 = ORIENTED_EDGE ( 'NONE', *, *, #129, .F. ) ;
#85 = AXIS2_PLACEMENT_3D ( 'NONE', #57, #58, #128 ) ;
#86 = EDGE_CURVE ( 'NONE', #125, #225, #202, .T. ) ;
#87 = CIRCLE ( 'NONE', #53, 401.9999999999999400 ) ;
#88 = CC_DESIGN_APPROVAL ( #138, ( #153 ) ) ;
#89 = EDGE_LOOP ( 'NONE', ( #19, #166, #112, #134 ) ) ;
#90 = EDGE_LOOP ( 'NONE', ( #137, #143 ) ) ;
#91 = DIRECTION ( 'NONE',  ( 0.0000000000000000000, 0.0000000000000000000, 1.000000000000000000 ) ) ;
#92 = PERSON_AND_ORGANIZATION ( #239, #63 ) ;
#93 = DIRECTION ( 'NONE',  ( 1.000000000000000000, 0.0000000000000000000, 0.0000000000000000000 ) ) ;
#94 = CARTESIAN_POINT ( 'NONE',  ( -99.99999999999997200, 0.0000000000000000000, 0.0000000000000000000 ) ) ;
#95 = AXIS2_PLACEMENT_3D ( 'NONE', #18, #119, #21 ) ;
#96 = DIRECTION ( 'NONE',  ( 0.0000000000000000000, 0.0000000000000000000, 1.000000000000000000 ) ) ;
#97 = CARTESIAN_POINT ( 'NONE',  ( 299.9999999999999400, 300.0000000000000000, 0.0000000000000000000 ) ) ;
#98 = APPROVAL_PERSON_ORGANIZATION ( #240, #220, #163 ) ;
#99 = CARTESIAN_POINT ( 'NONE',  ( 0.0000000000000000000, 0.0000000000000000000, 0.0000000000000000000 ) ) ;
#100 = MECHANICAL_CONTEXT ( 'NONE', #126, 'mechanical' ) ;
#101 = APPROVAL ( #2, 'UNSPECIFIED' ) ;
#102 = DATE_AND_TIME ( #73, #151 ) ;
#103 = SHAPE_DEFINITION_REPRESENTATION ( #1, #64 ) ;
#104 = APPROVAL_ROLE ( '' ) ;
#105 = APPLICATION_PROTOCOL_DEFINITION ( 'international standard', 'config_control_design', 1994, #126 ) ;
#106 = CIRCLE ( 'NONE', #27, 102.0000000000000000 ) ;
#107 = EDGE_CURVE ( 'NONE', #232, #115, #132, .T. ) ;
#108 = COORDINATED_UNIVERSAL_TIME_OFFSET ( 1, 0, .AHEAD. ) ;
#109 = CIRCLE ( 'NONE', #47, 99.99999999999998600 ) ;
#110 = CC_DESIGN_DATE_AND_TIME_ASSIGNMENT ( #80, #183, ( #133 ) ) ;
#111 = AXIS2_PLACEMENT_3D ( 'NONE', #170, #46, #33 ) ;
#112 = ORIENTED_EDGE ( 'NONE', *, *, #160, .T. ) ;
#113 = PRODUCT_RELATED_PRODUCT_CATEGORY ( 'detail', '', ( #167 ) ) ;
#114 = DIRECTION ( 'NONE',  ( 0.0000000000000000000, 1.000000000000000000, 0.0000000000000000000 ) ) ;
#115 = VERTEX_POINT ( 'NONE', #94 ) ;
#116 = AXIS2_PLACEMENT_3D ( 'NONE', #226, #171, #191 ) ;
#117 = PLANE ( 'NONE',  #36 ) ;
#118 = FACE_BOUND ( 'NONE', #198, .T. ) ;
#119 = DIRECTION ( 'NONE',  ( 0.0000000000000000000, 0.0000000000000000000, 1.000000000000000000 ) ) ;
#120 = DIRECTION ( 'NONE',  ( 1.000000000000000000, 6.123233995736766000E-017, 0.0000000000000000000 ) ) ;
#121 = AXIS2_PLACEMENT_3D ( 'NONE', #178, #56, #127 ) ;
#122 = CARTESIAN_POINT ( 'NONE',  ( 300.0000000000000000, 399.9999999999999400, 0.0000000000000000000 ) ) ;
#123 = AXIS2_PLACEMENT_3D ( 'NONE', #212, #207, #241 ) ;
#124 = ORIENTED_EDGE ( 'NONE', *, *, #3, .T. ) ;
#125 = VERTEX_POINT ( 'NONE', #122 ) ;
#126 = APPLICATION_CONTEXT ( 'configuration controlled 3d designs of mechanical parts and assemblies' ) ;
#127 = DIRECTION ( 'NONE',  ( 1.000000000000000000, 0.0000000000000000000, 0.0000000000000000000 ) ) ;
#128 = DIRECTION ( 'NONE',  ( 0.0000000000000000000, 0.0000000000000000000, 1.000000000000000000 ) ) ;
#129 = EDGE_CURVE ( 'NONE', #15, #42, #106, .T. ) ;
#130 = PERSON_AND_ORGANIZATION_ROLE ( 'design_owner' ) ;
#131 = DATE_AND_TIME ( #201, #38 ) ;
#132 = CIRCLE ( 'NONE', #189, 99.99999999999998600 ) ;
#133 = PRODUCT_DEFINITION ( 'UNKNOWN', '', #153, #70 ) ;
#134 = ORIENTED_EDGE ( 'NONE', *, *, #176, .F. ) ;
#135 = FACE_OUTER_BOUND ( 'NONE', #9, .T. ) ;
#136 = CC_DESIGN_PERSON_AND_ORGANIZATION_ASSIGNMENT ( #231, #130, ( #167 ) ) ;
#137 = ORIENTED_EDGE ( 'NONE', *, *, #205, .T. ) ;
#138 = APPROVAL ( #41, 'UNSPECIFIED' ) ;
#139 = LOCAL_TIME ( 13, 35, 34.00000000000000000, #7 ) ;
#140 = EDGE_LOOP ( 'NONE', ( #228, #195 ) ) ;
#141 = DIRECTION ( 'NONE',  ( 0.0000000000000000000, 0.0000000000000000000, 1.000000000000000000 ) ) ;
#142 = DATE_AND_TIME ( #210, #190 ) ;
#143 = ORIENTED_EDGE ( 'NONE', *, *, #251, .T. ) ;
#144 = DATE_TIME_ROLE ( 'classification_date' ) ;
#145 = CC_DESIGN_SECURITY_CLASSIFICATION ( #235, ( #153 ) ) ;
#146 = APPLICATION_PROTOCOL_DEFINITION ( 'international standard', 'config_control_design', 1994, #62 ) ;
#147 = CLOSED_SHELL ( 'NONE', ( #187, #65, #81, #83, #150, #182 ) ) ;
#148 = ORIENTED_EDGE ( 'NONE', *, *, #43, .T. ) ;
#149 = AXIS2_PLACEMENT_3D ( 'NONE', #71, #208, #69 ) ;
#150 = ADVANCED_FACE ( 'NONE', ( #82, #5 ), #117, .F. ) ;
#151 = LOCAL_TIME ( 13, 35, 34.00000000000000000, #108 ) ;
#152 = ORIENTED_EDGE ( 'NONE', *, *, #43, .F. ) ;
#153 = PRODUCT_DEFINITION_FORMATION_WITH_SPECIFIED_SOURCE ( 'ANY', '', #167, .NOT_KNOWN. ) ;
#154 = CALENDAR_DATE ( 2021, 10, 2 ) ;
#155 = CARTESIAN_POINT ( 'NONE',  ( 299.9999999999999400, 401.9999999999999400, 0.0000000000000000000 ) ) ;
#156 = CARTESIAN_POINT ( 'NONE',  ( 300.0000000000000000, 0.0000000000000000000, 0.0000000000000000000 ) ) ;
#157 = DIRECTION ( 'NONE',  ( 1.000000000000000000, 0.0000000000000000000, 0.0000000000000000000 ) ) ;
#158 = TOROIDAL_SURFACE ( 'NONE', #95, 300.0000000000000000, 102.0000000000000000 ) ;
#159 = CARTESIAN_POINT ( 'NONE',  ( 299.9999999999999400, 300.0000000000000000, 0.0000000000000000000 ) ) ;
#160 = EDGE_CURVE ( 'NONE', #225, #232, #185, .T. ) ;
#161 = APPROVAL_DATE_TIME ( #131, #138 ) ;
#162 = CC_DESIGN_PERSON_AND_ORGANIZATION_ASSIGNMENT ( #13, #61, ( #153 ) ) ;
#163 = APPROVAL_ROLE ( '' ) ;
#164 = ORIENTED_EDGE ( 'NONE', *, *, #3, .F. ) ;
#165 = APPROVAL_PERSON_ORGANIZATION ( #29, #101, #223 ) ;
#166 = ORIENTED_EDGE ( 'NONE', *, *, #86, .T. ) ;
#167 = PRODUCT ( 'OT214-200-204x2_OSTP', 'OT214-200-204x2_OSTP', '', ( #100 ) ) ;
#168 = CIRCLE ( 'NONE', #72, 102.0000000000000000 ) ;
#169 = CC_DESIGN_PERSON_AND_ORGANIZATION_ASSIGNMENT ( #194, #200, ( #235 ) ) ;
#170 = CARTESIAN_POINT ( 'NONE',  ( 300.0000000000000000, 0.0000000000000000000, 0.0000000000000000000 ) ) ;
#171 = DIRECTION ( 'NONE',  ( 0.0000000000000000000, 0.0000000000000000000, 1.000000000000000000 ) ) ;
#172 = CC_DESIGN_APPROVAL ( #101, ( #235 ) ) ;
#173 = CARTESIAN_POINT ( 'NONE',  ( 0.0000000000000000000, 0.0000000000000000000, 0.0000000000000000000 ) ) ;
#174 = TOROIDAL_SURFACE ( 'NONE', #23, 300.0000000000000000, 99.99999999999998600 ) ;
#175 = DIRECTION ( 'NONE',  ( 0.0000000000000000000, 0.0000000000000000000, 1.000000000000000000 ) ) ;
#176 = EDGE_CURVE ( 'NONE', #115, #232, #109, .T. ) ;
#177 = ORIENTED_EDGE ( 'NONE', *, *, #251, .F. ) ;
#178 = CARTESIAN_POINT ( 'NONE',  ( 0.0000000000000000000, 0.0000000000000000000, 0.0000000000000000000 ) ) ;
#179 = CARTESIAN_POINT ( 'NONE',  ( 0.0000000000000000000, 0.0000000000000000000, 0.0000000000000000000 ) ) ;
#180 = FACE_OUTER_BOUND ( 'NONE', #89, .T. ) ;
#181 = CC_DESIGN_DATE_AND_TIME_ASSIGNMENT ( #142, #144, ( #235 ) ) ;
#182 = ADVANCED_FACE ( 'NONE', ( #180 ), #219, .F. ) ;
#183 = DATE_TIME_ROLE ( 'creation_date' ) ;
#184 = DATE_AND_TIME ( #22, #49 ) ;
#185 = CIRCLE ( 'NONE', #12, 200.0000000000000000 ) ;
#186 = SECURITY_CLASSIFICATION_LEVEL ( 'unclassified' ) ;
#187 = ADVANCED_FACE ( 'NONE', ( #135 ), #174, .F. ) ;
#188 = CC_DESIGN_PERSON_AND_ORGANIZATION_ASSIGNMENT ( #253, #236, ( #133 ) ) ;
#189 = AXIS2_PLACEMENT_3D ( 'NONE', #99, #16, #175 ) ;
#190 = LOCAL_TIME ( 13, 35, 34.00000000000000000, #218 ) ;
#191 = DIRECTION ( 'NONE',  ( 1.000000000000000000, 0.0000000000000000000, 0.0000000000000000000 ) ) ;
#192 = CARTESIAN_POINT ( 'NONE',  ( 299.9999999999999400, 197.9999999999999700, -1.249139735130300400E-014 ) ) ;
#193 = DIRECTION ( 'NONE',  ( 1.000000000000000000, 0.0000000000000000000, 0.0000000000000000000 ) ) ;
#194 = PERSON_AND_ORGANIZATION ( #239, #63 ) ;
#195 = ORIENTED_EDGE ( 'NONE', *, *, #176, .T. ) ;
#196 = DIRECTION ( 'NONE',  ( 0.0000000000000000000, 0.0000000000000000000, 1.000000000000000000 ) ) ;
#197 = DIRECTION ( 'NONE',  ( 1.000000000000000000, 6.123233995736766000E-017, -0.0000000000000000000 ) ) ;
#198 = EDGE_LOOP ( 'NONE', ( #152, #221 ) ) ;
#199 = ORIENTED_EDGE ( 'NONE', *, *, #40, .T. ) ;
#200 = PERSON_AND_ORGANIZATION_ROLE ( 'classification_officer' ) ;
#201 = CALENDAR_DATE ( 2021, 10, 2 ) ;
#202 = CIRCLE ( 'NONE', #247, 99.99999999999997200 ) ;
#203 = ORIENTED_EDGE ( 'NONE', *, *, #129, .T. ) ;
#204 = PERSON_AND_ORGANIZATION ( #239, #63 ) ;
#205 = EDGE_CURVE ( 'NONE', #45, #37, #75, .T. ) ;
#206 = ORIENTED_EDGE ( 'NONE', *, *, #17, .F. ) ;
#207 = DIRECTION ( 'NONE',  ( 1.000000000000000000, 6.123233995736766000E-017, 0.0000000000000000000 ) ) ;
#208 = DIRECTION ( 'NONE',  ( 0.0000000000000000000, 0.0000000000000000000, 1.000000000000000000 ) ) ;
#209 = CARTESIAN_POINT ( 'NONE',  ( 300.0000000000000000, 0.0000000000000000000, 0.0000000000000000000 ) ) ;
#210 = CALENDAR_DATE ( 2021, 10, 2 ) ;
#211 = CIRCLE ( 'NONE', #116, 198.0000000000000000 ) ;
#212 = CARTESIAN_POINT ( 'NONE',  ( 300.0000000000000000, 300.0000000000000000, 0.0000000000000000000 ) ) ;
#213 = DIRECTION ( 'NONE',  ( 1.000000000000000000, 6.123233995736766000E-017, 0.0000000000000000000 ) ) ;
#214 = DIRECTION ( 'NONE',  ( 0.0000000000000000000, 1.000000000000000000, 0.0000000000000000000 ) ) ;
#215 = CARTESIAN_POINT ( 'NONE',  ( 100.0000000000000000, 0.0000000000000000000, -1.224646799147353400E-014 ) ) ;
#216 = ORIENTED_EDGE ( 'NONE', *, *, #107, .F. ) ;
#217 = CARTESIAN_POINT ( 'NONE',  ( 300.0000000000000000, 300.0000000000000000, 0.0000000000000000000 ) ) ;
#218 = COORDINATED_UNIVERSAL_TIME_OFFSET ( 1, 0, .AHEAD. ) ;
#219 = TOROIDAL_SURFACE ( 'NONE', #8, 300.0000000000000000, 99.99999999999998600 ) ;
#220 = APPROVAL ( #222, 'UNSPECIFIED' ) ;
#221 = ORIENTED_EDGE ( 'NONE', *, *, #86, .F. ) ;
#222 = APPROVAL_STATUS ( 'not_yet_approved' ) ;
#223 = APPROVAL_ROLE ( '' ) ;
#224 = CIRCLE ( 'NONE', #149, 399.9999999999999400 ) ;
#225 = VERTEX_POINT ( 'NONE', #20 ) ;
#226 = CARTESIAN_POINT ( 'NONE',  ( 300.0000000000000000, 0.0000000000000000000, -1.249139735130300100E-014 ) ) ;
#227 = FACE_OUTER_BOUND ( 'NONE', #28, .T. ) ;
#228 = ORIENTED_EDGE ( 'NONE', *, *, #107, .T. ) ;
#229 = CARTESIAN_POINT ( 'NONE',  ( 0.0000000000000000000, 0.0000000000000000000, 0.0000000000000000000 ) ) ;
#230 = PLANE ( 'NONE',  #11 ) ;
#231 = PERSON_AND_ORGANIZATION ( #239, #63 ) ;
#232 = VERTEX_POINT ( 'NONE', #215 ) ;
#233 = DIRECTION ( 'NONE',  ( 1.000000000000000000, 0.0000000000000000000, 0.0000000000000000000 ) ) ;
#234 = CARTESIAN_POINT ( 'NONE',  ( 300.0000000000000000, 0.0000000000000000000, 0.0000000000000000000 ) ) ;
#235 = SECURITY_CLASSIFICATION ( '', '', #186 ) ;
#236 = PERSON_AND_ORGANIZATION_ROLE ( 'creator' ) ;
#237 =( LENGTH_UNIT ( ) NAMED_UNIT ( * ) SI_UNIT ( .MILLI., .METRE. ) );
#238 = COORDINATED_UNIVERSAL_TIME_OFFSET ( 1, 0, .AHEAD. ) ;
#239 = PERSON ( 'UNSPECIFIED', 'UNSPECIFIED', 'UNSPECIFIED', ('UNSPECIFIED'), ('UNSPECIFIED'), ('UNSPECIFIED') ) ;
#240 = PERSON_AND_ORGANIZATION ( #239, #63 ) ;
#241 = DIRECTION ( 'NONE',  ( 0.0000000000000000000, 1.000000000000000000, 0.0000000000000000000 ) ) ;
#242 = AXIS2_PLACEMENT_3D ( 'NONE', #97, #120, #249 ) ;
#243 = APPROVAL_DATE_TIME ( #184, #220 ) ;
#244 = FACE_OUTER_BOUND ( 'NONE', #39, .T. ) ;
#245 = DIRECTION ( 'NONE',  ( 0.0000000000000000000, 0.0000000000000000000, 1.000000000000000000 ) ) ;
#246 = DIRECTION ( 'NONE',  ( 0.0000000000000000000, -0.0000000000000000000, 1.000000000000000000 ) ) ;
#247 = AXIS2_PLACEMENT_3D ( 'NONE', #217, #213, #214 ) ;
#248 = APPROVAL_DATE_TIME ( #102, #101 ) ;
#249 = DIRECTION ( 'NONE',  ( 0.0000000000000000000, 0.0000000000000000000, 1.000000000000000000 ) ) ;
#250 = ORIENTED_EDGE ( 'NONE', *, *, #160, .F. ) ;
#251 = EDGE_CURVE ( 'NONE', #37, #45, #68, .T. ) ;
#252 = CARTESIAN_POINT ( 'NONE',  ( 300.0000000000000000, 0.0000000000000000000, -1.224646799147353100E-014 ) ) ;
#253 = PERSON_AND_ORGANIZATION ( #239, #63 ) ;
ENDSEC;
END-ISO-10303-21;
