ISO-10303-21;
HEADER;
FILE_DESCRIPTION (( 'STEP AP203' ),
    '1' );
FILE_NAME ('11-0201-02_outokumpu.step',
    '2015-08-10T12:12:48',
    ( '' ),
    ( '' ),
    'SwSTEP 2.0',
    'SolidWorks 2008',
    '' );
FILE_SCHEMA (( 'CONFIG_CONTROL_DESIGN' ));
ENDSEC;

DATA;
#1 = VERTEX_POINT ( 'NONE', #195 ) ;
#2 = VERTEX_POINT ( 'NONE', #194 ) ;
#3 = EDGE_LOOP ( 'NONE', ( #11, #7, #9, #282, #284 ) ) ;
#4 = ORIENTED_EDGE ( 'NONE', *, *, #41, .F. ) ;
#5 = EDGE_CURVE ( 'NONE', #2, #35, #193, .T. ) ;
#6 = ORIENTED_EDGE ( 'NONE', *, *, #16, .T. ) ;
#7 = ORIENTED_EDGE ( 'NONE', *, *, #13, .T. ) ;
#8 = EDGE_LOOP ( 'NONE', ( #145, #146 ) ) ;
#9 = ORIENTED_EDGE ( 'NONE', *, *, #26, .T. ) ;
#10 = VERTEX_POINT ( 'NONE', #188 ) ;
#11 = ORIENTED_EDGE ( 'NONE', *, *, #12, .F. ) ;
#12 = EDGE_CURVE ( 'NONE', #10, #1, #186, .T. ) ;
#13 = EDGE_CURVE ( 'NONE', #10, #14, #187, .T. ) ;
#14 = VERTEX_POINT ( 'NONE', #75 ) ;
#15 = ADVANCED_FACE ( 'NONE', ( #74 ), #73, .F. ) ;
#16 = EDGE_CURVE ( 'NONE', #32, #44, #68, .T. ) ;
#17 = EDGE_CURVE ( 'NONE', #36, #134, #63, .T. ) ;
#18 = ORIENTED_EDGE ( 'NONE', *, *, #37, .F. ) ;
#19 = ADVANCED_FACE ( 'NONE', ( #58, #57 ), #56, .F. ) ;
#20 = ORIENTED_EDGE ( 'NONE', *, *, #138, .T. ) ;
#21 = ORIENTED_EDGE ( 'NONE', *, *, #17, .F. ) ;
#22 = VERTEX_POINT ( 'NONE', #51 ) ;
#23 = ORIENTED_EDGE ( 'NONE', *, *, #24, .T. ) ;
#24 = EDGE_CURVE ( 'NONE', #29, #25, #50, .T. ) ;
#25 = VERTEX_POINT ( 'NONE', #46 ) ;
#26 = EDGE_CURVE ( 'NONE', #14, #22, #178, .T. ) ;
#27 = VERTEX_POINT ( 'NONE', #174 ) ;
#28 = VERTEX_POINT ( 'NONE', #173 ) ;
#29 = VERTEX_POINT ( 'NONE', #172 ) ;
#30 = ORIENTED_EDGE ( 'NONE', *, *, #31, .T. ) ;
#31 = EDGE_CURVE ( 'NONE', #28, #29, #171, .T. ) ;
#32 = VERTEX_POINT ( 'NONE', #166 ) ;
#33 = ORIENTED_EDGE ( 'NONE', *, *, #34, .T. ) ;
#34 = EDGE_CURVE ( 'NONE', #36, #35, #165, .T. ) ;
#35 = VERTEX_POINT ( 'NONE', #161 ) ;
#36 = VERTEX_POINT ( 'NONE', #160 ) ;
#37 = EDGE_CURVE ( 'NONE', #44, #36, #159, .T. ) ;
#38 = ADVANCED_FACE ( 'NONE', ( #154 ), #153, .F. ) ;
#39 = EDGE_LOOP ( 'NONE', ( #40, #33, #43, #4, #6 ) ) ;
#40 = ORIENTED_EDGE ( 'NONE', *, *, #37, .T. ) ;
#41 = EDGE_CURVE ( 'NONE', #32, #2, #148, .T. ) ;
#42 = MANIFOLD_SOLID_BREP ( 'NONE', #119 ) ;
#43 = ORIENTED_EDGE ( 'NONE', *, *, #5, .F. ) ;
#44 = VERTEX_POINT ( 'NONE', #234 ) ;
#45 = CARTESIAN_POINT ( 'NONE',  ( 0.0000000000000000000, 0.0000000000000000000, -9.629327220298537400E-019 ) ) ;
#46 = CARTESIAN_POINT ( 'NONE',  ( -9.250000000000000000, 1.132760877285699000E-015, 0.0000000000000000000 ) ) ;
#47 = DIRECTION ( 'NONE',  ( -0.0000000000000000000, -0.0000000000000000000, 1.000000000000000000 ) ) ;
#48 = VECTOR ( 'NONE', #47, 1000.000000000000000 ) ;
#49 = CARTESIAN_POINT ( 'NONE',  ( -9.250000000000001800, 1.132760877285699200E-015, -4.336808689942017700E-016 ) ) ;
#50 = LINE ( 'NONE', #49, #48 ) ;
#51 = CARTESIAN_POINT ( 'NONE',  ( 6.808226282101416300, 0.0000000000000000000, -2.806798703416746500E-017 ) ) ;
#52 = DIRECTION ( 'NONE',  ( 1.000000000000000000, 0.0000000000000000000, 0.0000000000000000000 ) ) ;
#53 = DIRECTION ( 'NONE',  ( 0.0000000000000000000, -0.0000000000000000000, 1.000000000000000000 ) ) ;
#54 = AXIS2_PLACEMENT_3D ( 'NONE', #55, #53, #52 ) ;
#55 = CARTESIAN_POINT ( 'NONE',  ( 0.0000000000000000000, 9.250000000000001800, -25.00000000000000000 ) ) ;
#56 = PLANE ( 'NONE',  #54 ) ;
#57 = FACE_BOUND ( 'NONE', #272, .T. ) ;
#58 = FACE_OUTER_BOUND ( 'NONE', #8, .T. ) ;
#59 = DIRECTION ( 'NONE',  ( 1.000000000000000000, 0.0000000000000000000, 0.0000000000000000000 ) ) ;
#60 = DIRECTION ( 'NONE',  ( -0.0000000000000000000, -0.0000000000000000000, 1.000000000000000000 ) ) ;
#61 = CARTESIAN_POINT ( 'NONE',  ( 0.0000000000000000000, 0.0000000000000000000, -24.77027371789858300 ) ) ;
#62 = AXIS2_PLACEMENT_3D ( 'NONE', #61, #60, #59 ) ;
#63 = CIRCLE ( 'NONE', #62, 6.578500000000000000 ) ;
#64 = DIRECTION ( 'NONE',  ( 1.000000000000000000, 0.0000000000000000000, 0.0000000000000000000 ) ) ;
#65 = DIRECTION ( 'NONE',  ( -0.0000000000000000000, -0.0000000000000000000, 1.000000000000000000 ) ) ;
#66 = CARTESIAN_POINT ( 'NONE',  ( 0.0000000000000000000, 0.0000000000000000000, -24.77027371789858300 ) ) ;
#67 = AXIS2_PLACEMENT_3D ( 'NONE', #66, #65, #64 ) ;
#68 = CIRCLE ( 'NONE', #67, 6.578500000000000000 ) ;
#69 = DIRECTION ( 'NONE',  ( 1.000000000000000000, 0.0000000000000000000, 0.0000000000000000000 ) ) ;
#70 = DIRECTION ( 'NONE',  ( -0.0000000000000000000, -0.0000000000000000000, 1.000000000000000000 ) ) ;
#71 = CARTESIAN_POINT ( 'NONE',  ( 0.0000000000000000000, 0.0000000000000000000, -0.2297262821014151300 ) ) ;
#72 = AXIS2_PLACEMENT_3D ( 'NONE', #71, #70, #69 ) ;
#73 = CONICAL_SURFACE ( 'NONE', #72, 6.578499999999999100, 0.7853981633974530500 ) ;
#74 = FACE_OUTER_BOUND ( 'NONE', #3, .T. ) ;
#75 = CARTESIAN_POINT ( 'NONE',  ( -6.808226282101416300, 8.337397163321895100E-016, -2.806798703416746500E-017 ) ) ;
#76 = DIRECTION ( 'NONE',  ( 1.000000000000000000, 0.0000000000000000000, 0.0000000000000000000 ) ) ;
#77 = DIRECTION ( 'NONE',  ( -0.0000000000000000000, -0.0000000000000000000, 1.000000000000000000 ) ) ;
#78 = CARTESIAN_POINT ( 'NONE',  ( 0.0000000000000000000, 0.0000000000000000000, 0.0000000000000000000 ) ) ;
#79 = AXIS2_PLACEMENT_3D ( 'NONE', #78, #77, #76 ) ;
#80 = DIRECTION ( 'NONE',  ( -1.000000000000000000, 0.0000000000000000000, -0.0000000000000000000 ) ) ;
#81 = DIRECTION ( 'NONE',  ( 0.0000000000000000000, 0.0000000000000000000, -1.000000000000000000 ) ) ;
#82 = AXIS2_PLACEMENT_3D ( 'NONE', #84, #81, #80 ) ;
#83 = CIRCLE ( 'NONE', #79, 9.250000000000000000 ) ;
#84 = CARTESIAN_POINT ( 'NONE',  ( 0.0000000000000000000, 9.250000000000000000, -2.168404344971008900E-016 ) ) ;
#85 = PLANE ( 'NONE',  #82 ) ;
#86 = FACE_BOUND ( 'NONE', #281, .T. ) ;
#87 = FACE_OUTER_BOUND ( 'NONE', #277, .T. ) ;
#88 = DIRECTION ( 'NONE',  ( 1.000000000000000000, 0.0000000000000000000, 0.0000000000000000000 ) ) ;
#89 = DIRECTION ( 'NONE',  ( -0.0000000000000000000, -0.0000000000000000000, 1.000000000000000000 ) ) ;
#90 = CARTESIAN_POINT ( 'NONE',  ( 0.0000000000000000000, 0.0000000000000000000, -25.00000000000000000 ) ) ;
#91 = AXIS2_PLACEMENT_3D ( 'NONE', #90, #89, #88 ) ;
#92 = CIRCLE ( 'NONE', #91, 6.808226282101420800 ) ;
#93 = DIRECTION ( 'NONE',  ( 1.000000000000000000, 0.0000000000000000000, 0.0000000000000000000 ) ) ;
#94 = DIRECTION ( 'NONE',  ( -0.0000000000000000000, -0.0000000000000000000, 1.000000000000000000 ) ) ;
#95 = CARTESIAN_POINT ( 'NONE',  ( 0.0000000000000000000, 0.0000000000000000000, -25.00000000000000400 ) ) ;
#96 = AXIS2_PLACEMENT_3D ( 'NONE', #95, #94, #93 ) ;
#97 = DIRECTION ( 'NONE',  ( 1.000000000000000000, 0.0000000000000000000, 0.0000000000000000000 ) ) ;
#98 = DIRECTION ( 'NONE',  ( -0.0000000000000000000, -0.0000000000000000000, 1.000000000000000000 ) ) ;
#99 = CARTESIAN_POINT ( 'NONE',  ( 0.0000000000000000000, 0.0000000000000000000, -0.2297262821014151300 ) ) ;
#100 = AXIS2_PLACEMENT_3D ( 'NONE', #99, #98, #97 ) ;
#101 = CIRCLE ( 'NONE', #96, 9.250000000000001800 ) ;
#102 = CONICAL_SURFACE ( 'NONE', #100, 6.578499999999999100, 0.7853981633974530500 ) ;
#103 = DIRECTION ( 'NONE',  ( 1.000000000000000000, 0.0000000000000000000, 0.0000000000000000000 ) ) ;
#104 = DIRECTION ( 'NONE',  ( -0.0000000000000000000, -0.0000000000000000000, 1.000000000000000000 ) ) ;
#105 = FACE_OUTER_BOUND ( 'NONE', #106, .T. ) ;
#106 = EDGE_LOOP ( 'NONE', ( #107, #108, #109, #110, #111 ) ) ;
#107 = ORIENTED_EDGE ( 'NONE', *, *, #13, .F. ) ;
#108 = ORIENTED_EDGE ( 'NONE', *, *, #128, .F. ) ;
#109 = ORIENTED_EDGE ( 'NONE', *, *, #144, .F. ) ;
#110 = ORIENTED_EDGE ( 'NONE', *, *, #283, .T. ) ;
#111 = ORIENTED_EDGE ( 'NONE', *, *, #197, .T. ) ;
#112 = ADVANCED_FACE ( 'NONE', ( #233 ), #231, .F. ) ;
#113 = EDGE_LOOP ( 'NONE', ( #114, #115, #116, #117, #118 ) ) ;
#114 = ORIENTED_EDGE ( 'NONE', *, *, #34, .F. ) ;
#115 = ORIENTED_EDGE ( 'NONE', *, *, #17, .T. ) ;
#116 = ORIENTED_EDGE ( 'NONE', *, *, #136, .T. ) ;
#117 = ORIENTED_EDGE ( 'NONE', *, *, #41, .T. ) ;
#118 = ORIENTED_EDGE ( 'NONE', *, *, #275, .F. ) ;
#119 = CLOSED_SHELL ( 'NONE', ( #38, #15, #286, #125, #139, #19, #276, #199, #205, #112 ) ) ;
#120 = ORIENTED_EDGE ( 'NONE', *, *, #121, .F. ) ;
#121 = EDGE_CURVE ( 'NONE', #122, #25, #227, .T. ) ;
#122 = VERTEX_POINT ( 'NONE', #222 ) ;
#123 = ORIENTED_EDGE ( 'NONE', *, *, #124, .F. ) ;
#124 = EDGE_CURVE ( 'NONE', #28, #122, #221, .T. ) ;
#125 = ADVANCED_FACE ( 'NONE', ( #217 ), #216, .F. ) ;
#126 = EDGE_LOOP ( 'NONE', ( #127, #130, #131, #133, #135, #137 ) ) ;
#127 = ORIENTED_EDGE ( 'NONE', *, *, #128, .T. ) ;
#128 = EDGE_CURVE ( 'NONE', #129, #10, #211, .T. ) ;
#129 = VERTEX_POINT ( 'NONE', #206 ) ;
#130 = ORIENTED_EDGE ( 'NONE', *, *, #12, .T. ) ;
#131 = ORIENTED_EDGE ( 'NONE', *, *, #132, .T. ) ;
#132 = EDGE_CURVE ( 'NONE', #1, #44, #270, .T. ) ;
#133 = ORIENTED_EDGE ( 'NONE', *, *, #16, .F. ) ;
#134 = VERTEX_POINT ( 'NONE', #266 ) ;
#135 = ORIENTED_EDGE ( 'NONE', *, *, #136, .F. ) ;
#136 = EDGE_CURVE ( 'NONE', #134, #32, #264, .T. ) ;
#137 = ORIENTED_EDGE ( 'NONE', *, *, #138, .F. ) ;
#138 = EDGE_CURVE ( 'NONE', #129, #134, #265, .T. ) ;
#139 = ADVANCED_FACE ( 'NONE', ( #256 ), #254, .F. ) ;
#140 = EDGE_LOOP ( 'NONE', ( #141, #142, #143, #20, #21, #18 ) ) ;
#141 = ORIENTED_EDGE ( 'NONE', *, *, #132, .F. ) ;
#142 = ORIENTED_EDGE ( 'NONE', *, *, #285, .T. ) ;
#143 = ORIENTED_EDGE ( 'NONE', *, *, #144, .T. ) ;
#144 = EDGE_CURVE ( 'NONE', #27, #129, #255, .T. ) ;
#145 = ORIENTED_EDGE ( 'NONE', *, *, #31, .F. ) ;
#146 = ORIENTED_EDGE ( 'NONE', *, *, #271, .F. ) ;
#147 = CARTESIAN_POINT ( 'NONE',  ( -6.808226282101420800, 0.0000000000000000000, -25.00000000000000000 ) ) ;
#148 = LINE ( 'NONE', #147, #236 ) ;
#149 = DIRECTION ( 'NONE',  ( -1.000000000000000000, 0.0000000000000000000, 0.0000000000000000000 ) ) ;
#150 = DIRECTION ( 'NONE',  ( 0.0000000000000000000, 0.0000000000000000000, -1.000000000000000000 ) ) ;
#151 = CARTESIAN_POINT ( 'NONE',  ( 0.0000000000000000000, 0.0000000000000000000, -25.00000000000000000 ) ) ;
#152 = AXIS2_PLACEMENT_3D ( 'NONE', #151, #150, #149 ) ;
#153 = CONICAL_SURFACE ( 'NONE', #152, 6.808226282101420800, 0.7853981633974538300 ) ;
#154 = FACE_OUTER_BOUND ( 'NONE', #39, .T. ) ;
#155 = DIRECTION ( 'NONE',  ( 1.000000000000000000, 0.0000000000000000000, 0.0000000000000000000 ) ) ;
#156 = DIRECTION ( 'NONE',  ( -0.0000000000000000000, -0.0000000000000000000, 1.000000000000000000 ) ) ;
#157 = CARTESIAN_POINT ( 'NONE',  ( 0.0000000000000000000, 0.0000000000000000000, -24.77027371789858300 ) ) ;
#158 = AXIS2_PLACEMENT_3D ( 'NONE', #157, #156, #155 ) ;
#159 = CIRCLE ( 'NONE', #158, 6.578500000000000000 ) ;
#160 = CARTESIAN_POINT ( 'NONE',  ( 6.578500000000000000, 8.196735030971205000E-016, -24.77027371789858300 ) ) ;
#161 = CARTESIAN_POINT ( 'NONE',  ( 6.808226282101420800, 8.337397163321901000E-016, -25.00000000000000000 ) ) ;
#162 = DIRECTION ( 'NONE',  ( 0.7071067811865514600, 8.659274570719403500E-017, -0.7071067811865435800 ) ) ;
#163 = VECTOR ( 'NONE', #162, 1000.000000000000000 ) ;
#164 = CARTESIAN_POINT ( 'NONE',  ( 6.808226282101420800, 8.337397163321901000E-016, -25.00000000000000000 ) ) ;
#165 = LINE ( 'NONE', #164, #163 ) ;
#166 = CARTESIAN_POINT ( 'NONE',  ( -6.578500000000000000, 0.0000000000000000000, -24.77027371789858300 ) ) ;
#167 = DIRECTION ( 'NONE',  ( 1.000000000000000000, 0.0000000000000000000, 0.0000000000000000000 ) ) ;
#168 = DIRECTION ( 'NONE',  ( -0.0000000000000000000, -0.0000000000000000000, 1.000000000000000000 ) ) ;
#169 = CARTESIAN_POINT ( 'NONE',  ( 0.0000000000000000000, 0.0000000000000000000, -25.00000000000000400 ) ) ;
#170 = AXIS2_PLACEMENT_3D ( 'NONE', #169, #168, #167 ) ;
#171 = CIRCLE ( 'NONE', #170, 9.250000000000001800 ) ;
#172 = CARTESIAN_POINT ( 'NONE',  ( -9.250000000000001800, 1.132760877285699200E-015, -25.00000000000000400 ) ) ;
#173 = CARTESIAN_POINT ( 'NONE',  ( 9.250000000000001800, 0.0000000000000000000, -25.00000000000000400 ) ) ;
#174 = CARTESIAN_POINT ( 'NONE',  ( 6.578499999999999100, 0.0000000000000000000, -0.2297262821014151300 ) ) ;
#175 = DIRECTION ( 'NONE',  ( 1.000000000000000000, 0.0000000000000000000, 0.0000000000000000000 ) ) ;
#176 = DIRECTION ( 'NONE',  ( -0.0000000000000000000, -0.0000000000000000000, 1.000000000000000000 ) ) ;
#177 = AXIS2_PLACEMENT_3D ( 'NONE', #45, #176, #175 ) ;
#178 = CIRCLE ( 'NONE', #177, 6.808226282101416300 ) ;
#179 = DIRECTION ( 'NONE',  ( -0.7071067811865507900, 8.659274570719396100E-017, 0.7071067811865441300 ) ) ;
#180 = VECTOR ( 'NONE', #179, 1000.000000000000000 ) ;
#181 = CARTESIAN_POINT ( 'NONE',  ( -6.578499999999999100, 8.056072898620507900E-016, -0.2297262821014151300 ) ) ;
#182 = DIRECTION ( 'NONE',  ( 1.000000000000000000, 0.0000000000000000000, 0.0000000000000000000 ) ) ;
#183 = DIRECTION ( 'NONE',  ( -0.0000000000000000000, -0.0000000000000000000, 1.000000000000000000 ) ) ;
#184 = CARTESIAN_POINT ( 'NONE',  ( 0.0000000000000000000, 0.0000000000000000000, -0.2297262821014151300 ) ) ;
#185 = AXIS2_PLACEMENT_3D ( 'NONE', #184, #183, #182 ) ;
#186 = CIRCLE ( 'NONE', #185, 6.578499999999999100 ) ;
#187 = LINE ( 'NONE', #181, #180 ) ;
#188 = CARTESIAN_POINT ( 'NONE',  ( -6.578499999999999100, 8.196735030971201000E-016, -0.2297262821014151300 ) ) ;
#189 = DIRECTION ( 'NONE',  ( 1.000000000000000000, 0.0000000000000000000, 0.0000000000000000000 ) ) ;
#190 = DIRECTION ( 'NONE',  ( -0.0000000000000000000, -0.0000000000000000000, 1.000000000000000000 ) ) ;
#191 = CARTESIAN_POINT ( 'NONE',  ( 0.0000000000000000000, 0.0000000000000000000, -25.00000000000000000 ) ) ;
#192 = AXIS2_PLACEMENT_3D ( 'NONE', #191, #190, #189 ) ;
#193 = CIRCLE ( 'NONE', #192, 6.808226282101420800 ) ;
#194 = CARTESIAN_POINT ( 'NONE',  ( -6.808226282101420800, 0.0000000000000000000, -25.00000000000000000 ) ) ;
#195 = CARTESIAN_POINT ( 'NONE',  ( 8.056072898620510900E-016, -6.578499999999999100, -0.2297262821014151300 ) ) ;
#196 = ORIENTED_EDGE ( 'NONE', *, *, #197, .F. ) ;
#197 = EDGE_CURVE ( 'NONE', #22, #14, #245, .T. ) ;
#198 = ORIENTED_EDGE ( 'NONE', *, *, #26, .F. ) ;
#199 = ADVANCED_FACE ( 'NONE', ( #240 ), #239, .T. ) ;
#200 = EDGE_LOOP ( 'NONE', ( #201, #202, #203, #204 ) ) ;
#201 = ORIENTED_EDGE ( 'NONE', *, *, #24, .F. ) ;
#202 = ORIENTED_EDGE ( 'NONE', *, *, #271, .T. ) ;
#203 = ORIENTED_EDGE ( 'NONE', *, *, #124, .T. ) ;
#204 = ORIENTED_EDGE ( 'NONE', *, *, #280, .F. ) ;
#205 = ADVANCED_FACE ( 'NONE', ( #105 ), #102, .F. ) ;
#206 = CARTESIAN_POINT ( 'NONE',  ( 0.0000000000000000000, 6.578499999999999100, -0.2297262821014151300 ) ) ;
#207 = DIRECTION ( 'NONE',  ( 1.000000000000000000, 0.0000000000000000000, 0.0000000000000000000 ) ) ;
#208 = DIRECTION ( 'NONE',  ( -0.0000000000000000000, -0.0000000000000000000, 1.000000000000000000 ) ) ;
#209 = CARTESIAN_POINT ( 'NONE',  ( 0.0000000000000000000, 0.0000000000000000000, -0.2297262821014151300 ) ) ;
#210 = AXIS2_PLACEMENT_3D ( 'NONE', #209, #208, #207 ) ;
#211 = CIRCLE ( 'NONE', #210, 6.578499999999999100 ) ;
#212 = DIRECTION ( 'NONE',  ( 0.0000000000000000000, 1.000000000000000000, 0.0000000000000000000 ) ) ;
#213 = DIRECTION ( 'NONE',  ( -0.0000000000000000000, 1.779665756508601300E-016, -1.000000000000000000 ) ) ;
#214 = CARTESIAN_POINT ( 'NONE',  ( 0.0000000000000000000, 9.797174393178926200E-016, -25.00000000000002800 ) ) ;
#215 = AXIS2_PLACEMENT_3D ( 'NONE', #214, #213, #212 ) ;
#216 = CYLINDRICAL_SURFACE ( 'NONE', #215, 6.578500000000002700 ) ;
#217 = FACE_OUTER_BOUND ( 'NONE', #126, .T. ) ;
#218 = DIRECTION ( 'NONE',  ( -0.0000000000000000000, -0.0000000000000000000, 1.000000000000000000 ) ) ;
#219 = VECTOR ( 'NONE', #218, 1000.000000000000000 ) ;
#220 = CARTESIAN_POINT ( 'NONE',  ( 9.250000000000001800, 0.0000000000000000000, -4.336808689942017700E-016 ) ) ;
#221 = LINE ( 'NONE', #220, #219 ) ;
#222 = CARTESIAN_POINT ( 'NONE',  ( 9.250000000000000000, 0.0000000000000000000, 0.0000000000000000000 ) ) ;
#223 = DIRECTION ( 'NONE',  ( 1.000000000000000000, 0.0000000000000000000, 0.0000000000000000000 ) ) ;
#224 = DIRECTION ( 'NONE',  ( -0.0000000000000000000, -0.0000000000000000000, 1.000000000000000000 ) ) ;
#225 = CARTESIAN_POINT ( 'NONE',  ( 0.0000000000000000000, 0.0000000000000000000, 0.0000000000000000000 ) ) ;
#226 = AXIS2_PLACEMENT_3D ( 'NONE', #225, #224, #223 ) ;
#227 = CIRCLE ( 'NONE', #226, 9.250000000000000000 ) ;
#228 = DIRECTION ( 'NONE',  ( -1.000000000000000000, 0.0000000000000000000, 0.0000000000000000000 ) ) ;
#229 = DIRECTION ( 'NONE',  ( 0.0000000000000000000, 0.0000000000000000000, -1.000000000000000000 ) ) ;
#230 = AXIS2_PLACEMENT_3D ( 'NONE', #232, #229, #228 ) ;
#231 = CONICAL_SURFACE ( 'NONE', #230, 6.808226282101420800, 0.7853981633974538300 ) ;
#232 = CARTESIAN_POINT ( 'NONE',  ( 0.0000000000000000000, 0.0000000000000000000, -25.00000000000000000 ) ) ;
#233 = FACE_OUTER_BOUND ( 'NONE', #113, .T. ) ;
#234 = CARTESIAN_POINT ( 'NONE',  ( 8.056072898620511900E-016, -6.578500000000000000, -24.77027371789858300 ) ) ;
#235 = DIRECTION ( 'NONE',  ( -0.7071067811865514600, 0.0000000000000000000, -0.7071067811865435800 ) ) ;
#236 = VECTOR ( 'NONE', #235, 1000.000000000000000 ) ;
#237 = CARTESIAN_POINT ( 'NONE',  ( 0.0000000000000000000, 0.0000000000000000000, -4.336808689942017700E-016 ) ) ;
#238 = AXIS2_PLACEMENT_3D ( 'NONE', #237, #104, #103 ) ;
#239 = CYLINDRICAL_SURFACE ( 'NONE', #238, 9.250000000000001800 ) ;
#240 = FACE_OUTER_BOUND ( 'NONE', #200, .T. ) ;
#241 = DIRECTION ( 'NONE',  ( 1.000000000000000000, 0.0000000000000000000, 0.0000000000000000000 ) ) ;
#242 = DIRECTION ( 'NONE',  ( -0.0000000000000000000, -0.0000000000000000000, 1.000000000000000000 ) ) ;
#243 = CARTESIAN_POINT ( 'NONE',  ( 0.0000000000000000000, 0.0000000000000000000, -9.629327220298537400E-019 ) ) ;
#244 = AXIS2_PLACEMENT_3D ( 'NONE', #243, #242, #241 ) ;
#245 = CIRCLE ( 'NONE', #244, 6.808226282101416300 ) ;
#246 = DIRECTION ( 'NONE',  ( 1.000000000000000000, 0.0000000000000000000, 0.0000000000000000000 ) ) ;
#247 = DIRECTION ( 'NONE',  ( -0.0000000000000000000, -0.0000000000000000000, 1.000000000000000000 ) ) ;
#248 = CARTESIAN_POINT ( 'NONE',  ( 0.0000000000000000000, 0.0000000000000000000, -0.2297262821014151300 ) ) ;
#249 = AXIS2_PLACEMENT_3D ( 'NONE', #248, #247, #246 ) ;
#250 = DIRECTION ( 'NONE',  ( 0.0000000000000000000, 1.000000000000000000, 0.0000000000000000000 ) ) ;
#251 = DIRECTION ( 'NONE',  ( -0.0000000000000000000, 1.779665756508601300E-016, -1.000000000000000000 ) ) ;
#252 = CARTESIAN_POINT ( 'NONE',  ( 0.0000000000000000000, 9.797174393178926200E-016, -25.00000000000002800 ) ) ;
#253 = AXIS2_PLACEMENT_3D ( 'NONE', #252, #251, #250 ) ;
#254 = CYLINDRICAL_SURFACE ( 'NONE', #253, 6.578500000000002700 ) ;
#255 = CIRCLE ( 'NONE', #249, 6.578499999999999100 ) ;
#256 = FACE_OUTER_BOUND ( 'NONE', #140, .T. ) ;
#257 = DIRECTION ( 'NONE',  ( -0.0000000000000000000, 1.779665756508601300E-016, -1.000000000000000000 ) ) ;
#258 = VECTOR ( 'NONE', #257, 1000.000000000000000 ) ;
#259 = CARTESIAN_POINT ( 'NONE',  ( 0.0000000000000000000, 6.578500000000003600, -25.00000000000002800 ) ) ;
#260 = DIRECTION ( 'NONE',  ( 1.000000000000000000, 0.0000000000000000000, 0.0000000000000000000 ) ) ;
#261 = DIRECTION ( 'NONE',  ( -0.0000000000000000000, -0.0000000000000000000, 1.000000000000000000 ) ) ;
#262 = CARTESIAN_POINT ( 'NONE',  ( 0.0000000000000000000, 0.0000000000000000000, -24.77027371789858300 ) ) ;
#263 = AXIS2_PLACEMENT_3D ( 'NONE', #262, #261, #260 ) ;
#264 = CIRCLE ( 'NONE', #263, 6.578500000000000000 ) ;
#265 = LINE ( 'NONE', #259, #258 ) ;
#266 = CARTESIAN_POINT ( 'NONE',  ( 0.0000000000000000000, 6.578500000000000900, -24.77027371789858300 ) ) ;
#267 = DIRECTION ( 'NONE',  ( -0.0000000000000000000, 1.779665756508601300E-016, -1.000000000000000000 ) ) ;
#268 = VECTOR ( 'NONE', #267, 1000.000000000000000 ) ;
#269 = CARTESIAN_POINT ( 'NONE',  ( 8.056072898620512900E-016, -6.578500000000001800, -25.00000000000002800 ) ) ;
#270 = LINE ( 'NONE', #269, #268 ) ;
#271 = EDGE_CURVE ( 'NONE', #29, #28, #101, .T. ) ;
#272 = EDGE_LOOP ( 'NONE', ( #273, #274 ) ) ;
#273 = ORIENTED_EDGE ( 'NONE', *, *, #5, .T. ) ;
#274 = ORIENTED_EDGE ( 'NONE', *, *, #275, .T. ) ;
#275 = EDGE_CURVE ( 'NONE', #35, #2, #92, .T. ) ;
#276 = ADVANCED_FACE ( 'NONE', ( #87, #86 ), #85, .F. ) ;
#277 = EDGE_LOOP ( 'NONE', ( #278, #279 ) ) ;
#278 = ORIENTED_EDGE ( 'NONE', *, *, #121, .T. ) ;
#279 = ORIENTED_EDGE ( 'NONE', *, *, #280, .T. ) ;
#280 = EDGE_CURVE ( 'NONE', #25, #122, #83, .T. ) ;
#281 = EDGE_LOOP ( 'NONE', ( #196, #198 ) ) ;
#282 = ORIENTED_EDGE ( 'NONE', *, *, #283, .F. ) ;
#283 = EDGE_CURVE ( 'NONE', #27, #22, #301, .T. ) ;
#284 = ORIENTED_EDGE ( 'NONE', *, *, #285, .F. ) ;
#285 = EDGE_CURVE ( 'NONE', #1, #27, #297, .T. ) ;
#286 = ADVANCED_FACE ( 'NONE', ( #292 ), #291, .T. ) ;
#287 = EDGE_LOOP ( 'NONE', ( #30, #23, #120, #123 ) ) ;
#288 = DIRECTION ( 'NONE',  ( -0.0000000000000000000, -0.0000000000000000000, 1.000000000000000000 ) ) ;
#289 = CARTESIAN_POINT ( 'NONE',  ( 0.0000000000000000000, 0.0000000000000000000, -4.336808689942017700E-016 ) ) ;
#290 = AXIS2_PLACEMENT_3D ( 'NONE', #289, #288, #308 ) ;
#291 = CYLINDRICAL_SURFACE ( 'NONE', #290, 9.250000000000001800 ) ;
#292 = FACE_OUTER_BOUND ( 'NONE', #287, .T. ) ;
#293 = DIRECTION ( 'NONE',  ( 1.000000000000000000, 0.0000000000000000000, 0.0000000000000000000 ) ) ;
#294 = DIRECTION ( 'NONE',  ( -0.0000000000000000000, -0.0000000000000000000, 1.000000000000000000 ) ) ;
#295 = CARTESIAN_POINT ( 'NONE',  ( 0.0000000000000000000, 0.0000000000000000000, -0.2297262821014151300 ) ) ;
#296 = AXIS2_PLACEMENT_3D ( 'NONE', #295, #294, #293 ) ;
#297 = CIRCLE ( 'NONE', #296, 6.578499999999999100 ) ;
#298 = DIRECTION ( 'NONE',  ( 0.7071067811865507900, 0.0000000000000000000, 0.7071067811865441300 ) ) ;
#299 = VECTOR ( 'NONE', #298, 1000.000000000000000 ) ;
#300 = CARTESIAN_POINT ( 'NONE',  ( 6.578499999999999100, 0.0000000000000000000, -0.2297262821014151300 ) ) ;
#301 = LINE ( 'NONE', #300, #299 ) ;
#302 = PRODUCT_DEFINITION_SHAPE ( 'NONE', 'NONE',  #327 ) ;
#303 = PRODUCT_RELATED_PRODUCT_CATEGORY ( 'detail', '', ( #336 ) ) ;
#304 = CC_DESIGN_SECURITY_CLASSIFICATION ( #365, ( #384 ) ) ;
#305 = CC_DESIGN_APPROVAL ( #353, ( #365 ) ) ;
#306 = APPROVAL_DATE_TIME ( #347, #353 ) ;
#307 =( NAMED_UNIT ( * ) PLANE_ANGLE_UNIT ( ) SI_UNIT ( $, .RADIAN. ) );
#308 = DIRECTION ( 'NONE',  ( 1.000000000000000000, 0.0000000000000000000, 0.0000000000000000000 ) ) ;
#309 = UNCERTAINTY_MEASURE_WITH_UNIT (LENGTH_MEASURE( 1.000000000000000100E-005 ), #311, 'distance_accuracy_value', 'NONE');
#310 =( NAMED_UNIT ( * ) SI_UNIT ( $, .STERADIAN. ) SOLID_ANGLE_UNIT ( ) );
#311 =( LENGTH_UNIT ( ) NAMED_UNIT ( * ) SI_UNIT ( .MILLI., .METRE. ) );
#312 = COORDINATED_UNIVERSAL_TIME_OFFSET ( 1, 0, .AHEAD. ) ;
#313 = CC_DESIGN_PERSON_AND_ORGANIZATION_ASSIGNMENT ( #315, #314, ( #327 ) ) ;
#314 = PERSON_AND_ORGANIZATION_ROLE ( 'creator' ) ;
#315 = PERSON_AND_ORGANIZATION ( #335, #334 ) ;
#316 = CC_DESIGN_APPROVAL ( #324, ( #327 ) ) ;
#317 = APPROVAL_DATE_TIME ( #318, #324 ) ;
#318 = DATE_AND_TIME ( #319, #320 ) ;
#319 = CALENDAR_DATE ( 2015, 10, 8 ) ;
#320 = LOCAL_TIME ( 14, 12, 48.00000000000000000, #321 ) ;
#321 = COORDINATED_UNIVERSAL_TIME_OFFSET ( 1, 0, .AHEAD. ) ;
#322 = APPROVAL_PERSON_ORGANIZATION ( #326, #324, #323 ) ;
#323 = APPROVAL_ROLE ( '' ) ;
#324 = APPROVAL ( #325, 'UNSPECIFIED' ) ;
#325 = APPROVAL_STATUS ( 'not_yet_approved' ) ;
#326 = PERSON_AND_ORGANIZATION ( #335, #334 ) ;
#327 = PRODUCT_DEFINITION ( 'UNKNOWN', '', #384, #328 ) ;
#328 = DESIGN_CONTEXT ( 'detailed design', #330, 'design' ) ;
#329 = APPLICATION_PROTOCOL_DEFINITION ( 'international standard', 'config_control_design', 1994, #330 ) ;
#330 = APPLICATION_CONTEXT ( 'configuration controlled 3d designs of mechanical parts and assemblies' ) ;
#331 = CC_DESIGN_PERSON_AND_ORGANIZATION_ASSIGNMENT ( #333, #332, ( #336 ) ) ;
#332 = PERSON_AND_ORGANIZATION_ROLE ( 'design_owner' ) ;
#333 = PERSON_AND_ORGANIZATION ( #335, #334 ) ;
#334 = ORGANIZATION ( 'UNSPECIFIED', 'UNSPECIFIED', '' ) ;
#335 = PERSON ( 'UNSPECIFIED', 'UNSPECIFIED', 'UNSPECIFIED', ('UNSPECIFIED'), ('UNSPECIFIED'), ('UNSPECIFIED') ) ;
#336 = PRODUCT ( '11-0201-02_outokumpu', '11-0201-02_outokumpu', '', ( #337 ) ) ;
#337 = MECHANICAL_CONTEXT ( 'NONE', #343, 'mechanical' ) ;
#338 = APPLICATION_PROTOCOL_DEFINITION ( 'international standard', 'config_control_design', 1994, #343 ) ;
#339 = CARTESIAN_POINT ( 'NONE',  ( 0.0000000000000000000, 0.0000000000000000000, 0.0000000000000000000 ) ) ;
#340 = AXIS2_PLACEMENT_3D ( 'NONE', #339, #342, #341 ) ;
#341 = DIRECTION ( 'NONE',  ( 1.000000000000000000, 0.0000000000000000000, 0.0000000000000000000 ) ) ;
#342 = DIRECTION ( 'NONE',  ( 0.0000000000000000000, 0.0000000000000000000, 1.000000000000000000 ) ) ;
#343 = APPLICATION_CONTEXT ( 'configuration controlled 3d designs of mechanical parts and assemblies' ) ;
#344 = SHAPE_DEFINITION_REPRESENTATION ( #302, #345 ) ;
#345 = ADVANCED_BREP_SHAPE_REPRESENTATION ( '11-0201-02_outokumpu', ( #42, #340 ), #346 ) ;
#346 =( GEOMETRIC_REPRESENTATION_CONTEXT ( 3 ) GLOBAL_UNCERTAINTY_ASSIGNED_CONTEXT ( ( #309 ) ) GLOBAL_UNIT_ASSIGNED_CONTEXT ( ( #311, #307, #310 ) ) REPRESENTATION_CONTEXT ( 'NONE', 'WORKASPACE' ) );
#347 = DATE_AND_TIME ( #348, #349 ) ;
#348 = CALENDAR_DATE ( 2015, 10, 8 ) ;
#349 = LOCAL_TIME ( 14, 12, 48.00000000000000000, #350 ) ;
#350 = COORDINATED_UNIVERSAL_TIME_OFFSET ( 1, 0, .AHEAD. ) ;
#351 = APPROVAL_PERSON_ORGANIZATION ( #355, #353, #352 ) ;
#352 = APPROVAL_ROLE ( '' ) ;
#353 = APPROVAL ( #354, 'UNSPECIFIED' ) ;
#354 = APPROVAL_STATUS ( 'not_yet_approved' ) ;
#355 = PERSON_AND_ORGANIZATION ( #335, #334 ) ;
#356 = CC_DESIGN_DATE_AND_TIME_ASSIGNMENT ( #358, #357, ( #365 ) ) ;
#357 = DATE_TIME_ROLE ( 'classification_date' ) ;
#358 = DATE_AND_TIME ( #359, #360 ) ;
#359 = CALENDAR_DATE ( 2015, 10, 8 ) ;
#360 = LOCAL_TIME ( 14, 12, 48.00000000000000000, #361 ) ;
#361 = COORDINATED_UNIVERSAL_TIME_OFFSET ( 1, 0, .AHEAD. ) ;
#362 = CC_DESIGN_PERSON_AND_ORGANIZATION_ASSIGNMENT ( #364, #363, ( #365 ) ) ;
#363 = PERSON_AND_ORGANIZATION_ROLE ( 'classification_officer' ) ;
#364 = PERSON_AND_ORGANIZATION ( #335, #334 ) ;
#365 = SECURITY_CLASSIFICATION ( '', '', #366 ) ;
#366 = SECURITY_CLASSIFICATION_LEVEL ( 'unclassified' ) ;
#367 = CC_DESIGN_PERSON_AND_ORGANIZATION_ASSIGNMENT ( #369, #368, ( #384 ) ) ;
#368 = PERSON_AND_ORGANIZATION_ROLE ( 'design_supplier' ) ;
#369 = PERSON_AND_ORGANIZATION ( #335, #334 ) ;
#370 = CC_DESIGN_PERSON_AND_ORGANIZATION_ASSIGNMENT ( #372, #371, ( #384 ) ) ;
#371 = PERSON_AND_ORGANIZATION_ROLE ( 'creator' ) ;
#372 = PERSON_AND_ORGANIZATION ( #335, #334 ) ;
#373 = CC_DESIGN_APPROVAL ( #381, ( #384 ) ) ;
#374 = APPROVAL_DATE_TIME ( #375, #381 ) ;
#375 = DATE_AND_TIME ( #376, #377 ) ;
#376 = CALENDAR_DATE ( 2015, 10, 8 ) ;
#377 = LOCAL_TIME ( 14, 12, 48.00000000000000000, #378 ) ;
#378 = COORDINATED_UNIVERSAL_TIME_OFFSET ( 1, 0, .AHEAD. ) ;
#379 = APPROVAL_PERSON_ORGANIZATION ( #383, #381, #380 ) ;
#380 = APPROVAL_ROLE ( '' ) ;
#381 = APPROVAL ( #382, 'UNSPECIFIED' ) ;
#382 = APPROVAL_STATUS ( 'not_yet_approved' ) ;
#383 = PERSON_AND_ORGANIZATION ( #335, #334 ) ;
#384 = PRODUCT_DEFINITION_FORMATION_WITH_SPECIFIED_SOURCE ( 'ANY', '', #336, .NOT_KNOWN. ) ;
#385 = CC_DESIGN_DATE_AND_TIME_ASSIGNMENT ( #387, #386, ( #327 ) ) ;
#386 = DATE_TIME_ROLE ( 'creation_date' ) ;
#387 = DATE_AND_TIME ( #388, #389 ) ;
#388 = CALENDAR_DATE ( 2015, 10, 8 ) ;
#389 = LOCAL_TIME ( 14, 12, 48.00000000000000000, #312 ) ;
ENDSEC;
END-ISO-10303-21;
