ISO-10303-21;
HEADER;
FILE_DESCRIPTION (( 'STEP AP203' ),
    '1' );
FILE_NAME ('3D_R152_DN48.3_17305205.STEP',
    '2024-08-13T07:36:57',
    ( '' ),
    ( '' ),
    'SwSTEP 2.0',
    'SolidWorks 2024',
    '' );
FILE_SCHEMA (( 'CONFIG_CONTROL_DESIGN' ));
ENDSEC;

DATA;
#1 = DATE_TIME_ROLE ( 'creation_date' ) ;
#2 = CC_DESIGN_DATE_AND_TIME_ASSIGNMENT ( #228, #1, ( #193 ) ) ;
#3 = APPLICATION_CONTEXT ( 'configuration controlled 3d designs of mechanical parts and assemblies' ) ;
#4 = ORIENTED_EDGE ( 'NONE', *, *, #207, .T. ) ;
#5 = CC_DESIGN_PERSON_AND_ORGANIZATION_ASSIGNMENT ( #89, #229, ( #31 ) ) ;
#6 = CARTESIAN_POINT ( 'NONE',  ( 0.000000000000000000, 6.000000000000000000, 0.000000000000000000 ) ) ;
#7 = CARTESIAN_POINT ( 'NONE',  ( 0.000000000000000000, 0.000000000000000000, -92.79999999999999716 ) ) ;
#8 = ORIENTED_EDGE ( 'NONE', *, *, #86, .T. ) ;
#9 = ORIENTED_EDGE ( 'NONE', *, *, #115, .F. ) ;
#10 = AXIS2_PLACEMENT_3D ( 'NONE', #223, #125, #166 ) ;
#11 = DIRECTION ( 'NONE',  ( 0.000000000000000000, 1.000000000000000000, 0.000000000000000000 ) ) ;
#12 =( NAMED_UNIT ( * ) SI_UNIT ( $, .STERADIAN. ) SOLID_ANGLE_UNIT ( ) );
#13 = APPROVAL ( #18, 'UNSPECIFIED' ) ;
#14 = MANIFOLD_SOLID_BREP ( 'Aufsatz-Linear austragen1', #162 ) ;
#15 = DIRECTION ( 'NONE',  ( 0.000000000000000000, -0.000000000000000000, 1.000000000000000000 ) ) ;
#16 = PLANE ( 'NONE',  #49 ) ;
#17 = DATE_TIME_ROLE ( 'classification_date' ) ;
#18 = APPROVAL_STATUS ( 'not_yet_approved' ) ;
#19 = APPROVAL ( #36, 'UNSPECIFIED' ) ;
#20 = PERSON_AND_ORGANIZATION ( #187, #71 ) ;
#21 = VERTEX_POINT ( 'NONE', #7 ) ;
#22 = ORIENTED_EDGE ( 'NONE', *, *, #161, .T. ) ;
#23 = EDGE_LOOP ( 'NONE', ( #197, #80 ) ) ;
#24 = VERTEX_POINT ( 'NONE', #236 ) ;
#25 = CC_DESIGN_PERSON_AND_ORGANIZATION_ASSIGNMENT ( #249, #155, ( #56 ) ) ;
#26 = DIRECTION ( 'NONE',  ( 0.000000000000000000, 1.000000000000000000, 0.000000000000000000 ) ) ;
#27 = DIRECTION ( 'NONE',  ( 0.000000000000000000, -0.000000000000000000, 1.000000000000000000 ) ) ;
#28 = DIRECTION ( 'NONE',  ( 0.000000000000000000, 0.000000000000000000, 1.000000000000000000 ) ) ;
#29 = EDGE_CURVE ( 'NONE', #24, #96, #138, .T. ) ;
#30 = AXIS2_PLACEMENT_3D ( 'NONE', #239, #11, #222 ) ;
#31 = PRODUCT ( '3D_R152_DN48.3_17305205', '3D_R152_DN48.3_17305205', '', ( #173 ) ) ;
#32 = CARTESIAN_POINT ( 'NONE',  ( 0.000000000000000000, 6.000000000000000000, 0.000000000000000000 ) ) ;
#33 = CIRCLE ( 'NONE', #38, 44.00000000000000000 ) ;
#34 = DIRECTION ( 'NONE',  ( 0.000000000000000000, 0.000000000000000000, 1.000000000000000000 ) ) ;
#35 = CALENDAR_DATE ( 2024, 13, 8 ) ;
#36 = APPROVAL_STATUS ( 'not_yet_approved' ) ;
#37 = DATE_AND_TIME ( #35, #198 ) ;
#38 = AXIS2_PLACEMENT_3D ( 'NONE', #6, #26, #136 ) ;
#39 = EDGE_LOOP ( 'NONE', ( #220, #178, #45, #119 ) ) ;
#40 = AXIS2_PLACEMENT_3D ( 'NONE', #32, #209, #68 ) ;
#41 = DIRECTION ( 'NONE',  ( 0.000000000000000000, 1.000000000000000000, 0.000000000000000000 ) ) ;
#42 = LOCAL_TIME ( 9, 36, 57.00000000000000000, #152 ) ;
#43 = ORIENTED_EDGE ( 'NONE', *, *, #97, .F. ) ;
#44 = EDGE_CURVE ( 'NONE', #64, #118, #139, .T. ) ;
#45 = ORIENTED_EDGE ( 'NONE', *, *, #115, .T. ) ;
#46 = EDGE_LOOP ( 'NONE', ( #59, #4 ) ) ;
#47 = EDGE_CURVE ( 'NONE', #118, #58, #201, .T. ) ;
#48 = FACE_BOUND ( 'NONE', #218, .T. ) ;
#49 = AXIS2_PLACEMENT_3D ( 'NONE', #53, #73, #27 ) ;
#50 = DIRECTION ( 'NONE',  ( 0.000000000000000000, 1.000000000000000000, 0.000000000000000000 ) ) ;
#51 = CYLINDRICAL_SURFACE ( 'NONE', #10, 44.00000000000000000 ) ;
#52 = VECTOR ( 'NONE', #204, 1000.000000000000000 ) ;
#53 = CARTESIAN_POINT ( 'NONE',  ( 0.000000000000000000, 6.000000000000000000, 0.000000000000000000 ) ) ;
#54 = CARTESIAN_POINT ( 'NONE',  ( 0.000000000000000000, 0.000000000000000000, 0.000000000000000000 ) ) ;
#55 = AXIS2_PLACEMENT_3D ( 'NONE', #245, #67, #101 ) ;
#56 = SECURITY_CLASSIFICATION ( '', '', #211 ) ;
#57 = APPROVAL ( #74, 'UNSPECIFIED' ) ;
#58 = VERTEX_POINT ( 'NONE', #234 ) ;
#59 = ORIENTED_EDGE ( 'NONE', *, *, #97, .T. ) ;
#60 = ORIENTED_EDGE ( 'NONE', *, *, #104, .F. ) ;
#61 = CC_DESIGN_PERSON_AND_ORGANIZATION_ASSIGNMENT ( #246, #177, ( #180 ) ) ;
#62 = VECTOR ( 'NONE', #200, 1000.000000000000000 ) ;
#63 = ORIENTED_EDGE ( 'NONE', *, *, #44, .F. ) ;
#64 = VERTEX_POINT ( 'NONE', #117 ) ;
#65 = CARTESIAN_POINT ( 'NONE',  ( 0.000000000000000000, 0.000000000000000000, 0.000000000000000000 ) ) ;
#66 = APPROVAL_PERSON_ORGANIZATION ( #154, #19, #88 ) ;
#67 = DIRECTION ( 'NONE',  ( -0.000000000000000000, -1.000000000000000000, -0.000000000000000000 ) ) ;
#68 = DIRECTION ( 'NONE',  ( 0.000000000000000000, 0.000000000000000000, -1.000000000000000000 ) ) ;
#69 = AXIS2_PLACEMENT_3D ( 'NONE', #242, #145, #34 ) ;
#70 = FACE_OUTER_BOUND ( 'NONE', #23, .T. ) ;
#71 = ORGANIZATION ( 'UNSPECIFIED', 'UNSPECIFIED', '' ) ;
#72 = CC_DESIGN_PERSON_AND_ORGANIZATION_ASSIGNMENT ( #20, #131, ( #193 ) ) ;
#73 = DIRECTION ( 'NONE',  ( 0.000000000000000000, 1.000000000000000000, 0.000000000000000000 ) ) ;
#74 = APPROVAL_STATUS ( 'not_yet_approved' ) ;
#75 = EDGE_CURVE ( 'NONE', #83, #24, #33, .T. ) ;
#76 = CALENDAR_DATE ( 2024, 13, 8 ) ;
#77 = DATE_AND_TIME ( #230, #212 ) ;
#78 = ORIENTED_EDGE ( 'NONE', *, *, #161, .F. ) ;
#79 = EDGE_LOOP ( 'NONE', ( #135, #63, #182, #8 ) ) ;
#80 = ORIENTED_EDGE ( 'NONE', *, *, #183, .F. ) ;
#81 = ORIENTED_EDGE ( 'NONE', *, *, #183, .T. ) ;
#82 = AXIS2_PLACEMENT_3D ( 'NONE', #99, #235, #158 ) ;
#83 = VERTEX_POINT ( 'NONE', #100 ) ;
#84 = PLANE ( 'NONE',  #116 ) ;
#85 = CARTESIAN_POINT ( 'NONE',  ( 1.136472229608743626E-14, 6.000000000000000000, 92.79999999999999716 ) ) ;
#86 = EDGE_CURVE ( 'NONE', #21, #58, #176, .T. ) ;
#87 = LINE ( 'NONE', #206, #52 ) ;
#88 = APPROVAL_ROLE ( '' ) ;
#89 = PERSON_AND_ORGANIZATION ( #187, #71 ) ;
#90 = AXIS2_PLACEMENT_3D ( 'NONE', #54, #174, #195 ) ;
#91 = CALENDAR_DATE ( 2024, 13, 8 ) ;
#92 = AXIS2_PLACEMENT_3D ( 'NONE', #102, #50, #28 ) ;
#93 = PERSON_AND_ORGANIZATION ( #187, #71 ) ;
#94 = EDGE_CURVE ( 'NONE', #64, #21, #159, .T. ) ;
#95 = VERTEX_POINT ( 'NONE', #142 ) ;
#96 = VERTEX_POINT ( 'NONE', #164 ) ;
#97 = EDGE_CURVE ( 'NONE', #95, #96, #208, .T. ) ;
#98 = DIRECTION ( 'NONE',  ( 0.000000000000000000, 0.000000000000000000, 1.000000000000000000 ) ) ;
#99 = CARTESIAN_POINT ( 'NONE',  ( 0.000000000000000000, 6.000000000000000000, 0.000000000000000000 ) ) ;
#100 = CARTESIAN_POINT ( 'NONE',  ( 0.000000000000000000, 6.000000000000000000, -44.00000000000000000 ) ) ;
#101 = DIRECTION ( 'NONE',  ( 0.000000000000000000, 0.000000000000000000, -1.000000000000000000 ) ) ;
#102 = CARTESIAN_POINT ( 'NONE',  ( 0.000000000000000000, 0.000000000000000000, 0.000000000000000000 ) ) ;
#103 = AXIS2_PLACEMENT_3D ( 'NONE', #170, #122, #168 ) ;
#104 = EDGE_CURVE ( 'NONE', #24, #83, #126, .T. ) ;
#105 = CARTESIAN_POINT ( 'NONE',  ( 0.000000000000000000, 6.000000000000000000, 0.000000000000000000 ) ) ;
#106 = VECTOR ( 'NONE', #140, 1000.000000000000000 ) ;
#107 = FACE_OUTER_BOUND ( 'NONE', #114, .T. ) ;
#108 = APPROVAL_DATE_TIME ( #37, #13 ) ;
#109 = DATE_AND_TIME ( #231, #42 ) ;
#110 = APPROVAL_DATE_TIME ( #112, #57 ) ;
#111 = ADVANCED_FACE ( 'NONE', ( #224 ), #51, .F. ) ;
#112 = DATE_AND_TIME ( #91, #244 ) ;
#113 = AXIS2_PLACEMENT_3D ( 'NONE', #124, #203, #146 ) ;
#114 = EDGE_LOOP ( 'NONE', ( #238, #22 ) ) ;
#115 = EDGE_CURVE ( 'NONE', #83, #95, #87, .T. ) ;
#116 = AXIS2_PLACEMENT_3D ( 'NONE', #65, #123, #15 ) ;
#117 = CARTESIAN_POINT ( 'NONE',  ( 0.000000000000000000, 6.000000000000000000, -92.79999999999999716 ) ) ;
#118 = VERTEX_POINT ( 'NONE', #85 ) ;
#119 = ORIENTED_EDGE ( 'NONE', *, *, #207, .F. ) ;
#120 = ADVANCED_FACE ( 'NONE', ( #70, #189 ), #84, .F. ) ;
#121 = DIRECTION ( 'NONE',  ( -0.000000000000000000, -1.000000000000000000, -0.000000000000000000 ) ) ;
#122 = DIRECTION ( 'NONE',  ( 0.000000000000000000, 1.000000000000000000, 0.000000000000000000 ) ) ;
#123 = DIRECTION ( 'NONE',  ( 0.000000000000000000, 1.000000000000000000, 0.000000000000000000 ) ) ;
#124 = CARTESIAN_POINT ( 'NONE',  ( 0.000000000000000000, 6.000000000000000000, 0.000000000000000000 ) ) ;
#125 = DIRECTION ( 'NONE',  ( -0.000000000000000000, -1.000000000000000000, -0.000000000000000000 ) ) ;
#126 = CIRCLE ( 'NONE', #113, 44.00000000000000000 ) ;
#127 = APPLICATION_PROTOCOL_DEFINITION ( 'international standard', 'config_control_design', 1994, #3 ) ;
#128 = PERSON_AND_ORGANIZATION_ROLE ( 'creator' ) ;
#129 = CC_DESIGN_SECURITY_CLASSIFICATION ( #56, ( #180 ) ) ;
#130 = APPROVAL_DATE_TIME ( #77, #19 ) ;
#131 = PERSON_AND_ORGANIZATION_ROLE ( 'creator' ) ;
#132 = APPLICATION_PROTOCOL_DEFINITION ( 'international standard', 'config_control_design', 1994, #133 ) ;
#133 = APPLICATION_CONTEXT ( 'configuration controlled 3d designs of mechanical parts and assemblies' ) ;
#134 = ADVANCED_FACE ( 'NONE', ( #169 ), #241, .T. ) ;
#135 = ORIENTED_EDGE ( 'NONE', *, *, #47, .F. ) ;
#136 = DIRECTION ( 'NONE',  ( 0.000000000000000000, 0.000000000000000000, 1.000000000000000000 ) ) ;
#137 = CIRCLE ( 'NONE', #30, 92.79999999999999716 ) ;
#138 = LINE ( 'NONE', #157, #106 ) ;
#139 = CIRCLE ( 'NONE', #82, 92.79999999999999716 ) ;
#140 = DIRECTION ( 'NONE',  ( -0.000000000000000000, -1.000000000000000000, -0.000000000000000000 ) ) ;
#141 = ADVANCED_FACE ( 'NONE', ( #190 ), #147, .T. ) ;
#142 = CARTESIAN_POINT ( 'NONE',  ( 0.000000000000000000, 0.000000000000000000, -44.00000000000000000 ) ) ;
#143 = DIRECTION ( 'NONE',  ( 0.000000000000000000, 0.000000000000000000, -1.000000000000000000 ) ) ;
#144 = CC_DESIGN_APPROVAL ( #13, ( #56 ) ) ;
#145 = DIRECTION ( 'NONE',  ( 0.000000000000000000, 1.000000000000000000, 0.000000000000000000 ) ) ;
#146 = DIRECTION ( 'NONE',  ( 0.000000000000000000, 0.000000000000000000, 1.000000000000000000 ) ) ;
#147 = CYLINDRICAL_SURFACE ( 'NONE', #196, 92.79999999999999716 ) ;
#148 = VECTOR ( 'NONE', #121, 1000.000000000000000 ) ;
#149 = ADVANCED_BREP_SHAPE_REPRESENTATION ( '3D_R152_DN48.3_17305205', ( #14, #90 ), #202 ) ;
#150 = COORDINATED_UNIVERSAL_TIME_OFFSET ( 1, 0, .AHEAD. ) ;
#151 = APPROVAL_ROLE ( '' ) ;
#152 = COORDINATED_UNIVERSAL_TIME_OFFSET ( 1, 0, .AHEAD. ) ;
#153 = AXIS2_PLACEMENT_3D ( 'NONE', #217, #41, #98 ) ;
#154 = PERSON_AND_ORGANIZATION ( #187, #71 ) ;
#155 = PERSON_AND_ORGANIZATION_ROLE ( 'classification_officer' ) ;
#156 = PRODUCT_DEFINITION_SHAPE ( 'NONE', 'NONE',  #193 ) ;
#157 = CARTESIAN_POINT ( 'NONE',  ( 5.388445916248353619E-15, 6.000000000000000000, 44.00000000000000000 ) ) ;
#158 = DIRECTION ( 'NONE',  ( 0.000000000000000000, 0.000000000000000000, 1.000000000000000000 ) ) ;
#159 = LINE ( 'NONE', #185, #62 ) ;
#160 = EDGE_LOOP ( 'NONE', ( #199, #163, #43, #9 ) ) ;
#161 = EDGE_CURVE ( 'NONE', #118, #64, #188, .T. ) ;
#162 = CLOSED_SHELL ( 'NONE', ( #111, #141, #232, #120, #134, #165 ) ) ;
#163 = ORIENTED_EDGE ( 'NONE', *, *, #29, .T. ) ;
#164 = CARTESIAN_POINT ( 'NONE',  ( 5.388445916248353619E-15, 0.000000000000000000, 44.00000000000000000 ) ) ;
#165 = ADVANCED_FACE ( 'NONE', ( #243 ), #227, .F. ) ;
#166 = DIRECTION ( 'NONE',  ( 0.000000000000000000, 0.000000000000000000, -1.000000000000000000 ) ) ;
#167 = APPROVAL_PERSON_ORGANIZATION ( #192, #13, #151 ) ;
#168 = DIRECTION ( 'NONE',  ( 0.000000000000000000, 0.000000000000000000, 1.000000000000000000 ) ) ;
#169 = FACE_OUTER_BOUND ( 'NONE', #79, .T. ) ;
#170 = CARTESIAN_POINT ( 'NONE',  ( 0.000000000000000000, 6.000000000000000000, 0.000000000000000000 ) ) ;
#171 = CC_DESIGN_PERSON_AND_ORGANIZATION_ASSIGNMENT ( #172, #128, ( #180 ) ) ;
#172 = PERSON_AND_ORGANIZATION ( #187, #71 ) ;
#173 = MECHANICAL_CONTEXT ( 'NONE', #133, 'mechanical' ) ;
#174 = DIRECTION ( 'NONE',  ( 0.000000000000000000, 0.000000000000000000, 1.000000000000000000 ) ) ;
#175 = CIRCLE ( 'NONE', #69, 44.00000000000000000 ) ;
#176 = CIRCLE ( 'NONE', #153, 92.79999999999999716 ) ;
#177 = PERSON_AND_ORGANIZATION_ROLE ( 'design_supplier' ) ;
#178 = ORIENTED_EDGE ( 'NONE', *, *, #104, .T. ) ;
#179 = APPROVAL_PERSON_ORGANIZATION ( #93, #57, #214 ) ;
#180 = PRODUCT_DEFINITION_FORMATION_WITH_SPECIFIED_SOURCE ( 'ANY', '', #31, .NOT_KNOWN. ) ;
#181 = ORIENTED_EDGE ( 'NONE', *, *, #94, .F. ) ;
#182 = ORIENTED_EDGE ( 'NONE', *, *, #94, .T. ) ;
#183 = EDGE_CURVE ( 'NONE', #58, #21, #137, .T. ) ;
#184 = CARTESIAN_POINT ( 'NONE',  ( 1.136472229608743626E-14, 6.000000000000000000, 92.79999999999999716 ) ) ;
#185 = CARTESIAN_POINT ( 'NONE',  ( 0.000000000000000000, 6.000000000000000000, -92.79999999999999716 ) ) ;
#186 =( LENGTH_UNIT ( ) NAMED_UNIT ( * ) SI_UNIT ( .MILLI., .METRE. ) );
#187 = PERSON ( 'UNSPECIFIED', 'UNSPECIFIED', 'UNSPECIFIED', ('UNSPECIFIED'), ('UNSPECIFIED'), ('UNSPECIFIED') ) ;
#188 = CIRCLE ( 'NONE', #103, 92.79999999999999716 ) ;
#189 = FACE_BOUND ( 'NONE', #46, .T. ) ;
#190 = FACE_OUTER_BOUND ( 'NONE', #221, .T. ) ;
#191 = PRODUCT_RELATED_PRODUCT_CATEGORY ( 'detail', '', ( #31 ) ) ;
#192 = PERSON_AND_ORGANIZATION ( #187, #71 ) ;
#193 = PRODUCT_DEFINITION ( 'UNKNOWN', '', #180, #247 ) ;
#194 = COORDINATED_UNIVERSAL_TIME_OFFSET ( 1, 0, .AHEAD. ) ;
#195 = DIRECTION ( 'NONE',  ( 1.000000000000000000, 0.000000000000000000, 0.000000000000000000 ) ) ;
#196 = AXIS2_PLACEMENT_3D ( 'NONE', #105, #226, #143 ) ;
#197 = ORIENTED_EDGE ( 'NONE', *, *, #86, .F. ) ;
#198 = LOCAL_TIME ( 9, 36, 57.00000000000000000, #210 ) ;
#199 = ORIENTED_EDGE ( 'NONE', *, *, #75, .T. ) ;
#200 = DIRECTION ( 'NONE',  ( -0.000000000000000000, -1.000000000000000000, -0.000000000000000000 ) ) ;
#201 = LINE ( 'NONE', #184, #148 ) ;
#202 =( GEOMETRIC_REPRESENTATION_CONTEXT ( 3 ) GLOBAL_UNCERTAINTY_ASSIGNED_CONTEXT ( ( #213 ) ) GLOBAL_UNIT_ASSIGNED_CONTEXT ( ( #186, #205, #12 ) ) REPRESENTATION_CONTEXT ( 'NONE', 'WORKASPACE' ) );
#203 = DIRECTION ( 'NONE',  ( 0.000000000000000000, 1.000000000000000000, 0.000000000000000000 ) ) ;
#204 = DIRECTION ( 'NONE',  ( -0.000000000000000000, -1.000000000000000000, -0.000000000000000000 ) ) ;
#205 =( NAMED_UNIT ( * ) PLANE_ANGLE_UNIT ( ) SI_UNIT ( $, .RADIAN. ) );
#206 = CARTESIAN_POINT ( 'NONE',  ( 0.000000000000000000, 6.000000000000000000, -44.00000000000000000 ) ) ;
#207 = EDGE_CURVE ( 'NONE', #96, #95, #175, .T. ) ;
#208 = CIRCLE ( 'NONE', #92, 44.00000000000000000 ) ;
#209 = DIRECTION ( 'NONE',  ( -0.000000000000000000, -1.000000000000000000, -0.000000000000000000 ) ) ;
#210 = COORDINATED_UNIVERSAL_TIME_OFFSET ( 1, 0, .AHEAD. ) ;
#211 = SECURITY_CLASSIFICATION_LEVEL ( 'unclassified' ) ;
#212 = LOCAL_TIME ( 9, 36, 57.00000000000000000, #150 ) ;
#213 = UNCERTAINTY_MEASURE_WITH_UNIT (LENGTH_MEASURE( 1.000000000000000082E-05 ), #186, 'distance_accuracy_value', 'NONE');
#214 = APPROVAL_ROLE ( '' ) ;
#215 = CC_DESIGN_DATE_AND_TIME_ASSIGNMENT ( #109, #17, ( #56 ) ) ;
#216 = ORIENTED_EDGE ( 'NONE', *, *, #75, .F. ) ;
#217 = CARTESIAN_POINT ( 'NONE',  ( 0.000000000000000000, 0.000000000000000000, 0.000000000000000000 ) ) ;
#218 = EDGE_LOOP ( 'NONE', ( #216, #60 ) ) ;
#219 = LOCAL_TIME ( 9, 36, 57.00000000000000000, #248 ) ;
#220 = ORIENTED_EDGE ( 'NONE', *, *, #29, .F. ) ;
#221 = EDGE_LOOP ( 'NONE', ( #78, #237, #81, #181 ) ) ;
#222 = DIRECTION ( 'NONE',  ( 0.000000000000000000, 0.000000000000000000, 1.000000000000000000 ) ) ;
#223 = CARTESIAN_POINT ( 'NONE',  ( 0.000000000000000000, 6.000000000000000000, 0.000000000000000000 ) ) ;
#224 = FACE_OUTER_BOUND ( 'NONE', #160, .T. ) ;
#225 = CC_DESIGN_APPROVAL ( #57, ( #193 ) ) ;
#226 = DIRECTION ( 'NONE',  ( -0.000000000000000000, -1.000000000000000000, -0.000000000000000000 ) ) ;
#227 = CYLINDRICAL_SURFACE ( 'NONE', #55, 44.00000000000000000 ) ;
#228 = DATE_AND_TIME ( #76, #219 ) ;
#229 = PERSON_AND_ORGANIZATION_ROLE ( 'design_owner' ) ;
#230 = CALENDAR_DATE ( 2024, 13, 8 ) ;
#231 = CALENDAR_DATE ( 2024, 13, 8 ) ;
#232 = ADVANCED_FACE ( 'NONE', ( #107, #48 ), #16, .T. ) ;
#233 = SHAPE_DEFINITION_REPRESENTATION ( #156, #149 ) ;
#234 = CARTESIAN_POINT ( 'NONE',  ( 1.136472229608743626E-14, 0.000000000000000000, 92.79999999999999716 ) ) ;
#235 = DIRECTION ( 'NONE',  ( 0.000000000000000000, 1.000000000000000000, 0.000000000000000000 ) ) ;
#236 = CARTESIAN_POINT ( 'NONE',  ( 5.388445916248353619E-15, 6.000000000000000000, 44.00000000000000000 ) ) ;
#237 = ORIENTED_EDGE ( 'NONE', *, *, #47, .T. ) ;
#238 = ORIENTED_EDGE ( 'NONE', *, *, #44, .T. ) ;
#239 = CARTESIAN_POINT ( 'NONE',  ( 0.000000000000000000, 0.000000000000000000, 0.000000000000000000 ) ) ;
#240 = CC_DESIGN_APPROVAL ( #19, ( #180 ) ) ;
#241 = CYLINDRICAL_SURFACE ( 'NONE', #40, 92.79999999999999716 ) ;
#242 = CARTESIAN_POINT ( 'NONE',  ( 0.000000000000000000, 0.000000000000000000, 0.000000000000000000 ) ) ;
#243 = FACE_OUTER_BOUND ( 'NONE', #39, .T. ) ;
#244 = LOCAL_TIME ( 9, 36, 57.00000000000000000, #194 ) ;
#245 = CARTESIAN_POINT ( 'NONE',  ( 0.000000000000000000, 6.000000000000000000, 0.000000000000000000 ) ) ;
#246 = PERSON_AND_ORGANIZATION ( #187, #71 ) ;
#247 = DESIGN_CONTEXT ( 'detailed design', #3, 'design' ) ;
#248 = COORDINATED_UNIVERSAL_TIME_OFFSET ( 1, 0, .AHEAD. ) ;
#249 = PERSON_AND_ORGANIZATION ( #187, #71 ) ;
ENDSEC;
END-ISO-10303-21;
