ISO-10303-21;
HEADER;
FILE_DESCRIPTION (( 'STEP AP203' ),
    '1' );
FILE_NAME ('3D_GR1432_60.3_188742180.STEP',
    '2024-10-23T09:13:57',
    ( '' ),
    ( '' ),
    'SwSTEP 2.0',
    'SolidWorks 2023',
    '' );
FILE_SCHEMA (( 'CONFIG_CONTROL_DESIGN' ));
ENDSEC;

DATA;
#1 = SECURITY_CLASSIFICATION_LEVEL ( 'unclassified' ) ;
#2 = PERSON_AND_ORGANIZATION ( #21, #131 ) ;
#3 = ADVANCED_FACE ( 'NONE', ( #13 ), #261, .T. ) ;
#4 = VERTEX_POINT ( 'NONE', #125 ) ;
#5 = SHAPE_DEFINITION_REPRESENTATION ( #101, #203 ) ;
#6 = PERSON_AND_ORGANIZATION ( #21, #131 ) ;
#7 = EDGE_CURVE ( 'NONE', #137, #4, #61, .T. ) ;
#8 = APPLICATION_CONTEXT ( 'configuration controlled 3d designs of mechanical parts and assemblies' ) ;
#9 = EDGE_LOOP ( 'NONE', ( #123, #74, #120, #35 ) ) ;
#10 = CC_DESIGN_PERSON_AND_ORGANIZATION_ASSIGNMENT ( #159, #250, ( #185 ) ) ;
#11 = DIRECTION ( 'NONE',  ( -0.000000000000000000, -1.000000000000000000, -0.000000000000000000 ) ) ;
#12 = CIRCLE ( 'NONE', #161, 68.97166193552297386 ) ;
#13 = FACE_OUTER_BOUND ( 'NONE', #55, .T. ) ;
#14 = CARTESIAN_POINT ( 'NONE',  ( -15.49546971225795566, 2.231616018503621124, 0.000000000000000000 ) ) ;
#15 = APPLICATION_CONTEXT ( 'configuration controlled 3d designs of mechanical parts and assemblies' ) ;
#16 = ORIENTED_EDGE ( 'NONE', *, *, #7, .T. ) ;
#17 = CIRCLE ( 'NONE', #235, 30.14999999999999503 ) ;
#18 = AXIS2_PLACEMENT_3D ( 'NONE', #14, #240, #106 ) ;
#19 = EDGE_CURVE ( 'NONE', #143, #239, #221, .T. ) ;
#20 = LOCAL_TIME ( 11, 13, 57.00000000000000000, #53 ) ;
#21 = PERSON ( 'UNSPECIFIED', 'UNSPECIFIED', 'UNSPECIFIED', ('UNSPECIFIED'), ('UNSPECIFIED'), ('UNSPECIFIED') ) ;
#22 = LINE ( 'NONE', #153, #248 ) ;
#23 = DIRECTION ( 'NONE',  ( 0.000000000000000000, 0.000000000000000000, 1.000000000000000000 ) ) ;
#24 = CLOSED_SHELL ( 'NONE', ( #130, #117, #3, #43, #152, #62 ) ) ;
#25 = DIRECTION ( 'NONE',  ( 0.000000000000000000, 0.000000000000000000, -1.000000000000000000 ) ) ;
#26 = CARTESIAN_POINT ( 'NONE',  ( -15.49546971225795566, 2.231616018503621124, 0.000000000000000000 ) ) ;
#27 = CIRCLE ( 'NONE', #183, 66.97166193552294544 ) ;
#28 = MECHANICAL_CONTEXT ( 'NONE', #15, 'mechanical' ) ;
#29 = APPROVAL_ROLE ( '' ) ;
#30 = ORIENTED_EDGE ( 'NONE', *, *, #230, .T. ) ;
#31 = EDGE_CURVE ( 'NONE', #181, #236, #144, .T. ) ;
#32 = ORIENTED_EDGE ( 'NONE', *, *, #247, .F. ) ;
#33 = DIRECTION ( 'NONE',  ( 0.000000000000000000, 0.000000000000000000, -1.000000000000000000 ) ) ;
#34 = CARTESIAN_POINT ( 'NONE',  ( -15.49546971225795566, 2.231616018503621124, 0.000000000000000000 ) ) ;
#35 = ORIENTED_EDGE ( 'NONE', *, *, #198, .T. ) ;
#36 = AXIS2_PLACEMENT_3D ( 'NONE', #212, #23, #47 ) ;
#37 = DIRECTION ( 'NONE',  ( 1.000000000000000000, 0.000000000000000000, -1.224646799147353207E-16 ) ) ;
#38 = EDGE_LOOP ( 'NONE', ( #214, #122, #251, #255 ) ) ;
#39 = DIRECTION ( 'NONE',  ( -0.000000000000000000, -1.000000000000000000, -0.000000000000000000 ) ) ;
#40 =( GEOMETRIC_REPRESENTATION_CONTEXT ( 3 ) GLOBAL_UNCERTAINTY_ASSIGNED_CONTEXT ( ( #158 ) ) GLOBAL_UNIT_ASSIGNED_CONTEXT ( ( #114, #209, #154 ) ) REPRESENTATION_CONTEXT ( 'NONE', 'WORKASPACE' ) );
#41 = LOCAL_TIME ( 11, 13, 57.00000000000000000, #162 ) ;
#42 = LINE ( 'NONE', #88, #93 ) ;
#43 = ADVANCED_FACE ( 'NONE', ( #256 ), #56, .T. ) ;
#44 = FACE_OUTER_BOUND ( 'NONE', #38, .T. ) ;
#45 = CARTESIAN_POINT ( 'NONE',  ( -15.49546971225795566, -4.477530757417087039E-15, -30.14999999999999858 ) ) ;
#46 = AXIS2_PLACEMENT_3D ( 'NONE', #171, #166, #33 ) ;
#47 = DIRECTION ( 'NONE',  ( 1.000000000000000000, 0.000000000000000000, 0.000000000000000000 ) ) ;
#48 = PERSON_AND_ORGANIZATION ( #21, #131 ) ;
#49 = EDGE_CURVE ( 'NONE', #239, #181, #149, .T. ) ;
#50 = APPROVAL_ROLE ( '' ) ;
#51 = AXIS2_PLACEMENT_3D ( 'NONE', #105, #223, #189 ) ;
#52 = PERSON_AND_ORGANIZATION_ROLE ( 'creator' ) ;
#53 = COORDINATED_UNIVERSAL_TIME_OFFSET ( 1, 0, .AHEAD. ) ;
#54 = EDGE_CURVE ( 'NONE', #202, #100, #27, .T. ) ;
#55 = EDGE_LOOP ( 'NONE', ( #142, #145, #207, #237, #186, #32 ) ) ;
#56 = CYLINDRICAL_SURFACE ( 'NONE', #80, 30.14999999999999503 ) ;
#57 = DIRECTION ( 'NONE',  ( 0.000000000000000000, 0.000000000000000000, -1.000000000000000000 ) ) ;
#58 = EDGE_LOOP ( 'NONE', ( #163, #126, #30, #16 ) ) ;
#59 = DIRECTION ( 'NONE',  ( -0.000000000000000000, -1.000000000000000000, -0.000000000000000000 ) ) ;
#60 = AXIS2_PLACEMENT_3D ( 'NONE', #90, #128, #173 ) ;
#61 = CIRCLE ( 'NONE', #77, 30.14999999999999858 ) ;
#62 = ADVANCED_FACE ( 'NONE', ( #242 ), #259, .F. ) ;
#63 = DIRECTION ( 'NONE',  ( 1.000000000000000000, 0.000000000000000000, 0.000000000000000000 ) ) ;
#64 = APPLICATION_PROTOCOL_DEFINITION ( 'international standard', 'config_control_design', 1994, #15 ) ;
#65 = AXIS2_PLACEMENT_3D ( 'NONE', #115, #172, #89 ) ;
#66 = PRODUCT_RELATED_PRODUCT_CATEGORY ( 'detail', '', ( #86 ) ) ;
#67 = CARTESIAN_POINT ( 'NONE',  ( -15.49546971225795566, -59.80117893826153619, 0.000000000000000000 ) ) ;
#68 = DIRECTION ( 'NONE',  ( 0.000000000000000000, 0.000000000000000000, -1.000000000000000000 ) ) ;
#69 = DIRECTION ( 'NONE',  ( -0.000000000000000000, -1.000000000000000000, -0.000000000000000000 ) ) ;
#70 = LOCAL_TIME ( 11, 13, 57.00000000000000000, #78 ) ;
#71 = APPROVAL_DATE_TIME ( #249, #188 ) ;
#72 = DATE_AND_TIME ( #175, #231 ) ;
#73 = APPROVAL_DATE_TIME ( #180, #218 ) ;
#74 = ORIENTED_EDGE ( 'NONE', *, *, #124, .T. ) ;
#75 = CC_DESIGN_DATE_AND_TIME_ASSIGNMENT ( #232, #252, ( #140 ) ) ;
#76 = CIRCLE ( 'NONE', #60, 30.14999999999999858 ) ;
#77 = AXIS2_PLACEMENT_3D ( 'NONE', #258, #187, #57 ) ;
#78 = COORDINATED_UNIVERSAL_TIME_OFFSET ( 1, 0, .AHEAD. ) ;
#79 = ORIENTED_EDGE ( 'NONE', *, *, #110, .F. ) ;
#80 = AXIS2_PLACEMENT_3D ( 'NONE', #102, #11, #168 ) ;
#81 = CARTESIAN_POINT ( 'NONE',  ( -15.49546971225795566, -59.80117893826153619, 0.000000000000000000 ) ) ;
#82 = DIRECTION ( 'NONE',  ( 0.000000000000000000, 0.000000000000000000, -1.000000000000000000 ) ) ;
#83 = DIRECTION ( 'NONE',  ( -0.000000000000000000, -1.000000000000000000, -0.000000000000000000 ) ) ;
#84 = EDGE_CURVE ( 'NONE', #165, #236, #228, .T. ) ;
#85 = CARTESIAN_POINT ( 'NONE',  ( -15.49546971225795566, -59.80117893826153619, 0.000000000000000000 ) ) ;
#86 = PRODUCT ( '3D_GR1432_60.3_188742180', '3D_GR1432_60.3_188742180', '', ( #28 ) ) ;
#87 = DIRECTION ( 'NONE',  ( -0.000000000000000000, -1.000000000000000000, -0.000000000000000000 ) ) ;
#88 = CARTESIAN_POINT ( 'NONE',  ( -15.49546971225795211, -3.335163360923971607E-15, 30.14999999999999503 ) ) ;
#89 = DIRECTION ( 'NONE',  ( -1.000000000000000000, 0.000000000000000000, 0.000000000000000000 ) ) ;
#90 = CARTESIAN_POINT ( 'NONE',  ( -15.49546971225795566, -4.477530757417087039E-15, 0.000000000000000000 ) ) ;
#91 = DIRECTION ( 'NONE',  ( 0.000000000000000000, 0.000000000000000000, -1.000000000000000000 ) ) ;
#92 = SPHERICAL_SURFACE ( 'NONE', #155, 68.97166193552297386 ) ;
#93 = VECTOR ( 'NONE', #132, 1000.000000000000000 ) ;
#94 = APPROVAL_ROLE ( '' ) ;
#95 = EDGE_CURVE ( 'NONE', #4, #127, #169, .T. ) ;
#96 = PERSON_AND_ORGANIZATION ( #21, #131 ) ;
#97 = CARTESIAN_POINT ( 'NONE',  ( 0.000000000000000000, 0.000000000000000000, 0.000000000000000000 ) ) ;
#98 = ORIENTED_EDGE ( 'NONE', *, *, #110, .T. ) ;
#99 = MANIFOLD_SOLID_BREP ( 'Rotation3', #24 ) ;
#100 = VERTEX_POINT ( 'NONE', #200 ) ;
#101 = PRODUCT_DEFINITION_SHAPE ( 'NONE', 'NONE',  #185 ) ;
#102 = CARTESIAN_POINT ( 'NONE',  ( -15.49546971225795566, -3.335163360923971607E-15, 0.000000000000000000 ) ) ;
#103 = PRODUCT_DEFINITION_FORMATION_WITH_SPECIFIED_SOURCE ( 'ANY', '', #86, .NOT_KNOWN. ) ;
#104 = CARTESIAN_POINT ( 'NONE',  ( -15.49546971225795566, 2.231616018503621124, 0.000000000000000000 ) ) ;
#105 = CARTESIAN_POINT ( 'NONE',  ( -15.49546971225795566, -59.80117893826153619, 0.000000000000000000 ) ) ;
#106 = DIRECTION ( 'NONE',  ( 0.000000000000000000, 0.000000000000000000, -1.000000000000000000 ) ) ;
#107 = AXIS2_PLACEMENT_3D ( 'NONE', #67, #129, #266 ) ;
#108 = APPROVAL_PERSON_ORGANIZATION ( #48, #262, #29 ) ;
#109 = CARTESIAN_POINT ( 'NONE',  ( 14.65453028774203759, 2.231616018503617571, 0.000000000000000000 ) ) ;
#110 = EDGE_CURVE ( 'NONE', #236, #143, #17, .T. ) ;
#111 = CARTESIAN_POINT ( 'NONE',  ( -15.49546971225795211, 9.170482997261434122, 0.000000000000000000 ) ) ;
#112 = AXIS2_PLACEMENT_3D ( 'NONE', #246, #147, #68 ) ;
#113 = AXIS2_PLACEMENT_3D ( 'NONE', #34, #83, #82 ) ;
#114 =( LENGTH_UNIT ( ) NAMED_UNIT ( * ) SI_UNIT ( .MILLI., .METRE. ) );
#115 = CARTESIAN_POINT ( 'NONE',  ( -15.49546971225795566, -59.80117893826153619, 0.000000000000000000 ) ) ;
#116 = PERSON_AND_ORGANIZATION ( #21, #131 ) ;
#117 = ADVANCED_FACE ( 'NONE', ( #44 ), #92, .T. ) ;
#118 = CALENDAR_DATE ( 2024, 23, 10 ) ;
#119 = CALENDAR_DATE ( 2024, 23, 10 ) ;
#120 = ORIENTED_EDGE ( 'NONE', *, *, #95, .T. ) ;
#121 = CC_DESIGN_APPROVAL ( #188, ( #103 ) ) ;
#122 = ORIENTED_EDGE ( 'NONE', *, *, #84, .T. ) ;
#123 = ORIENTED_EDGE ( 'NONE', *, *, #54, .F. ) ;
#124 = EDGE_CURVE ( 'NONE', #202, #4, #213, .T. ) ;
#125 = CARTESIAN_POINT ( 'NONE',  ( 14.65453028774204292, -5.708212330662157314E-15, 0.000000000000000000 ) ) ;
#126 = ORIENTED_EDGE ( 'NONE', *, *, #54, .T. ) ;
#127 = VERTEX_POINT ( 'NONE', #151 ) ;
#128 = DIRECTION ( 'NONE',  ( -0.000000000000000000, -1.000000000000000000, -0.000000000000000000 ) ) ;
#129 = DIRECTION ( 'NONE',  ( 0.000000000000000000, 0.000000000000000000, 1.000000000000000000 ) ) ;
#130 = ADVANCED_FACE ( 'NONE', ( #264 ), #227, .F. ) ;
#131 = ORGANIZATION ( 'UNSPECIFIED', 'UNSPECIFIED', '' ) ;
#132 = DIRECTION ( 'NONE',  ( -0.000000000000000000, -1.000000000000000000, -0.000000000000000000 ) ) ;
#133 = APPROVAL_DATE_TIME ( #197, #262 ) ;
#134 = PERSON_AND_ORGANIZATION ( #21, #131 ) ;
#135 = APPROVAL_STATUS ( 'not_yet_approved' ) ;
#136 = DIRECTION ( 'NONE',  ( 1.000000000000000000, 0.000000000000000000, 0.000000000000000000 ) ) ;
#137 = VERTEX_POINT ( 'NONE', #45 ) ;
#138 = CC_DESIGN_PERSON_AND_ORGANIZATION_ASSIGNMENT ( #134, #52, ( #103 ) ) ;
#139 = CC_DESIGN_APPROVAL ( #218, ( #185 ) ) ;
#140 = SECURITY_CLASSIFICATION ( '', '', #1 ) ;
#141 = CARTESIAN_POINT ( 'NONE',  ( -15.49546971225795566, -3.335163360923971607E-15, 0.000000000000000000 ) ) ;
#142 = ORIENTED_EDGE ( 'NONE', *, *, #19, .T. ) ;
#143 = VERTEX_POINT ( 'NONE', #192 ) ;
#144 = CIRCLE ( 'NONE', #208, 30.14999999999999503 ) ;
#145 = ORIENTED_EDGE ( 'NONE', *, *, #49, .T. ) ;
#146 = ORIENTED_EDGE ( 'NONE', *, *, #31, .T. ) ;
#147 = DIRECTION ( 'NONE',  ( -0.000000000000000000, -1.000000000000000000, -0.000000000000000000 ) ) ;
#148 = CC_DESIGN_PERSON_AND_ORGANIZATION_ASSIGNMENT ( #6, #254, ( #86 ) ) ;
#149 = CIRCLE ( 'NONE', #18, 30.14999999999999503 ) ;
#150 = AXIS2_PLACEMENT_3D ( 'NONE', #85, #170, #63 ) ;
#151 = CARTESIAN_POINT ( 'NONE',  ( -15.49546971225795211, -4.477530757417087039E-15, 30.15000000000000213 ) ) ;
#152 = ADVANCED_FACE ( 'NONE', ( #267 ), #191, .T. ) ;
#153 = CARTESIAN_POINT ( 'NONE',  ( -15.49546971225795566, -3.335163360923971607E-15, -30.14999999999999503 ) ) ;
#154 =( NAMED_UNIT ( * ) SI_UNIT ( $, .STERADIAN. ) SOLID_ANGLE_UNIT ( ) );
#155 = AXIS2_PLACEMENT_3D ( 'NONE', #245, #243, #263 ) ;
#156 = CC_DESIGN_APPROVAL ( #262, ( #140 ) ) ;
#157 = COORDINATED_UNIVERSAL_TIME_OFFSET ( 1, 0, .AHEAD. ) ;
#158 = UNCERTAINTY_MEASURE_WITH_UNIT (LENGTH_MEASURE( 1.000000000000000082E-05 ), #114, 'distance_accuracy_value', 'NONE');
#159 = PERSON_AND_ORGANIZATION ( #21, #131 ) ;
#160 = CIRCLE ( 'NONE', #112, 30.14999999999999858 ) ;
#161 = AXIS2_PLACEMENT_3D ( 'NONE', #211, #91, #244 ) ;
#162 = COORDINATED_UNIVERSAL_TIME_OFFSET ( 1, 0, .AHEAD. ) ;
#163 = ORIENTED_EDGE ( 'NONE', *, *, #124, .F. ) ;
#164 = EDGE_CURVE ( 'NONE', #181, #127, #42, .T. ) ;
#165 = VERTEX_POINT ( 'NONE', #111 ) ;
#166 = DIRECTION ( 'NONE',  ( -0.000000000000000000, -1.000000000000000000, -0.000000000000000000 ) ) ;
#167 = EDGE_LOOP ( 'NONE', ( #205, #182, #204, #79 ) ) ;
#168 = DIRECTION ( 'NONE',  ( 0.000000000000000000, 0.000000000000000000, -1.000000000000000000 ) ) ;
#169 = CIRCLE ( 'NONE', #46, 30.14999999999999858 ) ;
#170 = DIRECTION ( 'NONE',  ( 0.000000000000000000, 0.000000000000000000, 1.000000000000000000 ) ) ;
#171 = CARTESIAN_POINT ( 'NONE',  ( -15.49546971225795566, -4.477530757417087039E-15, 0.000000000000000000 ) ) ;
#172 = DIRECTION ( 'NONE',  ( 0.000000000000000000, 0.000000000000000000, -1.000000000000000000 ) ) ;
#173 = DIRECTION ( 'NONE',  ( 0.000000000000000000, 0.000000000000000000, -1.000000000000000000 ) ) ;
#174 = APPLICATION_PROTOCOL_DEFINITION ( 'international standard', 'config_control_design', 1994, #8 ) ;
#175 = CALENDAR_DATE ( 2024, 23, 10 ) ;
#176 = CC_DESIGN_PERSON_AND_ORGANIZATION_ASSIGNMENT ( #96, #215, ( #103 ) ) ;
#177 = ORIENTED_EDGE ( 'NONE', *, *, #164, .F. ) ;
#178 = CALENDAR_DATE ( 2024, 23, 10 ) ;
#179 = ORIENTED_EDGE ( 'NONE', *, *, #198, .F. ) ;
#180 = DATE_AND_TIME ( #253, #70 ) ;
#181 = VERTEX_POINT ( 'NONE', #265 ) ;
#182 = ORIENTED_EDGE ( 'NONE', *, *, #201, .T. ) ;
#183 = AXIS2_PLACEMENT_3D ( 'NONE', #81, #257, #37 ) ;
#184 = ORIENTED_EDGE ( 'NONE', *, *, #247, .T. ) ;
#185 = PRODUCT_DEFINITION ( 'UNKNOWN', '', #103, #193 ) ;
#186 = ORIENTED_EDGE ( 'NONE', *, *, #7, .F. ) ;
#187 = DIRECTION ( 'NONE',  ( -0.000000000000000000, -1.000000000000000000, -0.000000000000000000 ) ) ;
#188 = APPROVAL ( #216, 'UNSPECIFIED' ) ;
#189 = DIRECTION ( 'NONE',  ( 1.000000000000000000, 0.000000000000000000, -1.224646799147352961E-16 ) ) ;
#190 = CC_DESIGN_SECURITY_CLASSIFICATION ( #140, ( #103 ) ) ;
#191 = SPHERICAL_SURFACE ( 'NONE', #107, 68.97166193552297386 ) ;
#192 = CARTESIAN_POINT ( 'NONE',  ( -15.49546971225795566, 2.231616018503621124, -30.14999999999999503 ) ) ;
#193 = DESIGN_CONTEXT ( 'detailed design', #8, 'design' ) ;
#194 = CC_DESIGN_DATE_AND_TIME_ASSIGNMENT ( #72, #199, ( #185 ) ) ;
#195 = PERSON_AND_ORGANIZATION_ROLE ( 'classification_officer' ) ;
#196 = DIRECTION ( 'NONE',  ( 0.000000000000000000, 0.000000000000000000, 1.000000000000000000 ) ) ;
#197 = DATE_AND_TIME ( #118, #20 ) ;
#198 = EDGE_CURVE ( 'NONE', #127, #100, #76, .T. ) ;
#199 = DATE_TIME_ROLE ( 'creation_date' ) ;
#200 = CARTESIAN_POINT ( 'NONE',  ( -45.64546971225795602, -5.708212330662157314E-15, 3.692310099429270397E-15 ) ) ;
#201 = EDGE_CURVE ( 'NONE', #165, #239, #12, .T. ) ;
#202 = VERTEX_POINT ( 'NONE', #224 ) ;
#203 = ADVANCED_BREP_SHAPE_REPRESENTATION ( '3D_GR1432_60.3_188742180', ( #99, #229 ), #40 ) ;
#204 = ORIENTED_EDGE ( 'NONE', *, *, #19, .F. ) ;
#205 = ORIENTED_EDGE ( 'NONE', *, *, #84, .F. ) ;
#206 = CC_DESIGN_PERSON_AND_ORGANIZATION_ASSIGNMENT ( #116, #195, ( #140 ) ) ;
#207 = ORIENTED_EDGE ( 'NONE', *, *, #164, .T. ) ;
#208 = AXIS2_PLACEMENT_3D ( 'NONE', #104, #59, #222 ) ;
#209 =( NAMED_UNIT ( * ) PLANE_ANGLE_UNIT ( ) SI_UNIT ( $, .RADIAN. ) );
#210 = APPROVAL_PERSON_ORGANIZATION ( #2, #188, #94 ) ;
#211 = CARTESIAN_POINT ( 'NONE',  ( -15.49546971225795566, -59.80117893826153619, 0.000000000000000000 ) ) ;
#212 = CARTESIAN_POINT ( 'NONE',  ( -15.49546971225795566, -59.80117893826153619, 0.000000000000000000 ) ) ;
#213 = CIRCLE ( 'NONE', #65, 66.97166193552294544 ) ;
#214 = ORIENTED_EDGE ( 'NONE', *, *, #201, .F. ) ;
#215 = PERSON_AND_ORGANIZATION_ROLE ( 'design_supplier' ) ;
#216 = APPROVAL_STATUS ( 'not_yet_approved' ) ;
#217 = APPROVAL_STATUS ( 'not_yet_approved' ) ;
#218 = APPROVAL ( #217, 'UNSPECIFIED' ) ;
#219 = EDGE_LOOP ( 'NONE', ( #177, #146, #98, #184, #238, #179 ) ) ;
#220 = DIRECTION ( 'NONE',  ( 0.000000000000000000, 0.000000000000000000, -1.000000000000000000 ) ) ;
#221 = CIRCLE ( 'NONE', #113, 30.14999999999999503 ) ;
#222 = DIRECTION ( 'NONE',  ( 0.000000000000000000, 0.000000000000000000, -1.000000000000000000 ) ) ;
#223 = DIRECTION ( 'NONE',  ( 1.224646799147353207E-16, -0.000000000000000000, 1.000000000000000000 ) ) ;
#224 = CARTESIAN_POINT ( 'NONE',  ( -15.49546971225795211, 7.170482997261418134, 0.000000000000000000 ) ) ;
#225 = CARTESIAN_POINT ( 'NONE',  ( -45.64546971225794891, 2.231616018503617571, 3.692310099429268819E-15 ) ) ;
#226 = LOCAL_TIME ( 11, 13, 57.00000000000000000, #157 ) ;
#227 = SPHERICAL_SURFACE ( 'NONE', #36, 66.97166193552294544 ) ;
#228 = CIRCLE ( 'NONE', #51, 68.97166193552297386 ) ;
#229 = AXIS2_PLACEMENT_3D ( 'NONE', #97, #196, #136 ) ;
#230 = EDGE_CURVE ( 'NONE', #100, #137, #160, .T. ) ;
#231 = LOCAL_TIME ( 11, 13, 57.00000000000000000, #234 ) ;
#232 = DATE_AND_TIME ( #178, #226 ) ;
#233 = PERSON_AND_ORGANIZATION ( #21, #131 ) ;
#234 = COORDINATED_UNIVERSAL_TIME_OFFSET ( 1, 0, .AHEAD. ) ;
#235 = AXIS2_PLACEMENT_3D ( 'NONE', #26, #69, #25 ) ;
#236 = VERTEX_POINT ( 'NONE', #225 ) ;
#237 = ORIENTED_EDGE ( 'NONE', *, *, #95, .F. ) ;
#238 = ORIENTED_EDGE ( 'NONE', *, *, #230, .F. ) ;
#239 = VERTEX_POINT ( 'NONE', #109 ) ;
#240 = DIRECTION ( 'NONE',  ( -0.000000000000000000, -1.000000000000000000, -0.000000000000000000 ) ) ;
#241 = AXIS2_PLACEMENT_3D ( 'NONE', #141, #87, #220 ) ;
#242 = FACE_OUTER_BOUND ( 'NONE', #9, .T. ) ;
#243 = DIRECTION ( 'NONE',  ( 0.000000000000000000, 0.000000000000000000, 1.000000000000000000 ) ) ;
#244 = DIRECTION ( 'NONE',  ( -1.000000000000000000, 0.000000000000000000, 0.000000000000000000 ) ) ;
#245 = CARTESIAN_POINT ( 'NONE',  ( -15.49546971225795566, -59.80117893826153619, 0.000000000000000000 ) ) ;
#246 = CARTESIAN_POINT ( 'NONE',  ( -15.49546971225795566, -4.477530757417087039E-15, 0.000000000000000000 ) ) ;
#247 = EDGE_CURVE ( 'NONE', #143, #137, #22, .T. ) ;
#248 = VECTOR ( 'NONE', #39, 1000.000000000000000 ) ;
#249 = DATE_AND_TIME ( #119, #41 ) ;
#250 = PERSON_AND_ORGANIZATION_ROLE ( 'creator' ) ;
#251 = ORIENTED_EDGE ( 'NONE', *, *, #31, .F. ) ;
#252 = DATE_TIME_ROLE ( 'classification_date' ) ;
#253 = CALENDAR_DATE ( 2024, 23, 10 ) ;
#254 = PERSON_AND_ORGANIZATION_ROLE ( 'design_owner' ) ;
#255 = ORIENTED_EDGE ( 'NONE', *, *, #49, .F. ) ;
#256 = FACE_OUTER_BOUND ( 'NONE', #219, .T. ) ;
#257 = DIRECTION ( 'NONE',  ( 1.224646799147353207E-16, -0.000000000000000000, 1.000000000000000000 ) ) ;
#258 = CARTESIAN_POINT ( 'NONE',  ( -15.49546971225795566, -4.477530757417087039E-15, 0.000000000000000000 ) ) ;
#259 = SPHERICAL_SURFACE ( 'NONE', #150, 66.97166193552294544 ) ;
#260 = APPROVAL_PERSON_ORGANIZATION ( #233, #218, #50 ) ;
#261 = CYLINDRICAL_SURFACE ( 'NONE', #241, 30.14999999999999503 ) ;
#262 = APPROVAL ( #135, 'UNSPECIFIED' ) ;
#263 = DIRECTION ( 'NONE',  ( 1.000000000000000000, 0.000000000000000000, 0.000000000000000000 ) ) ;
#264 = FACE_OUTER_BOUND ( 'NONE', #58, .T. ) ;
#265 = CARTESIAN_POINT ( 'NONE',  ( -15.49546971225795211, 2.231616018503621124, 30.14999999999999503 ) ) ;
#266 = DIRECTION ( 'NONE',  ( 1.000000000000000000, 0.000000000000000000, 0.000000000000000000 ) ) ;
#267 = FACE_OUTER_BOUND ( 'NONE', #167, .T. ) ;
ENDSEC;
END-ISO-10303-21;
