ISO-10303-21;
HEADER;
FILE_DESCRIPTION (( 'STEP AP203' ),
    '1' );
FILE_NAME ('3D_GR1184_48.3x2_183802876.STEP',
    '2024-09-23T06:26:04',
    ( '' ),
    ( '' ),
    'SwSTEP 2.0',
    'SolidWorks 2024',
    '' );
FILE_SCHEMA (( 'CONFIG_CONTROL_DESIGN' ));
ENDSEC;

DATA;
#1 = DIRECTION ( 'NONE',  ( -1.000000000000000000, -0.000000000000000000, -0.000000000000000000 ) ) ;
#2 = CARTESIAN_POINT ( 'NONE',  ( 23.44592105263154735, 0.000000000000000000, 0.000000000000000000 ) ) ;
#3 = ORIENTED_EDGE ( 'NONE', *, *, #260, .T. ) ;
#4 = EDGE_CURVE ( 'NONE', #144, #78, #348, .T. ) ;
#5 = DIRECTION ( 'NONE',  ( 0.000000000000000000, 1.000000000000000000, 1.224646799147353207E-16 ) ) ;
#6 = ORIENTED_EDGE ( 'NONE', *, *, #60, .F. ) ;
#7 = DIRECTION ( 'NONE',  ( -1.000000000000000000, -0.000000000000000000, -0.000000000000000000 ) ) ;
#8 = DIRECTION ( 'NONE',  ( 0.000000000000000000, 0.000000000000000000, 1.000000000000000000 ) ) ;
#9 = ORIENTED_EDGE ( 'NONE', *, *, #246, .F. ) ;
#10 = COORDINATED_UNIVERSAL_TIME_OFFSET ( 1, 0, .AHEAD. ) ;
#11 = CARTESIAN_POINT ( 'NONE',  ( -154.8395502972293230, 0.000000000000000000, 0.000000000000000000 ) ) ;
#12 = PERSON_AND_ORGANIZATION_ROLE ( 'design_owner' ) ;
#13 = VERTEX_POINT ( 'NONE', #166 ) ;
#14 = ADVANCED_FACE ( 'NONE', ( #289 ), #355, .T. ) ;
#15 = VERTEX_POINT ( 'NONE', #384 ) ;
#16 = AXIS2_PLACEMENT_3D ( 'NONE', #210, #1, #122 ) ;
#17 = DIRECTION ( 'NONE',  ( 0.000000000000000000, -1.224646799147353454E-16, 1.000000000000000000 ) ) ;
#18 = ORIENTED_EDGE ( 'NONE', *, *, #351, .F. ) ;
#19 = PERSON_AND_ORGANIZATION ( #135, #371 ) ;
#20 = ORIENTED_EDGE ( 'NONE', *, *, #27, .F. ) ;
#21 = APPROVAL_DATE_TIME ( #94, #255 ) ;
#22 = DIRECTION ( 'NONE',  ( 0.000000000000000000, 0.000000000000000000, 1.000000000000000000 ) ) ;
#23 = CIRCLE ( 'NONE', #249, 23.82206796313063180 ) ;
#24 = COORDINATED_UNIVERSAL_TIME_OFFSET ( 1, 0, .AHEAD. ) ;
#25 = CARTESIAN_POINT ( 'NONE',  ( 7.999999999999979572, 0.000000000000000000, 0.000000000000000000 ) ) ;
#26 = CARTESIAN_POINT ( 'NONE',  ( -2.775557561562891351E-14, 0.000000000000000000, 0.000000000000000000 ) ) ;
#27 = EDGE_CURVE ( 'NONE', #176, #313, #153, .T. ) ;
#28 = FACE_OUTER_BOUND ( 'NONE', #201, .T. ) ;
#29 = CONICAL_SURFACE ( 'NONE', #131, 21.15000000000001990, 0.7853981633974500554 ) ;
#30 = DIRECTION ( 'NONE',  ( -0.000000000000000000, 0.000000000000000000, -1.000000000000000000 ) ) ;
#31 = FACE_BOUND ( 'NONE', #124, .T. ) ;
#32 = EDGE_CURVE ( 'NONE', #333, #297, #400, .T. ) ;
#33 = ORIENTED_EDGE ( 'NONE', *, *, #330, .F. ) ;
#34 = DIRECTION ( 'NONE',  ( 0.000000000000000000, 1.000000000000000000, 0.000000000000000000 ) ) ;
#35 = ORIENTED_EDGE ( 'NONE', *, *, #378, .F. ) ;
#36 = DIRECTION ( 'NONE',  ( -1.000000000000000000, -0.000000000000000000, -0.000000000000000000 ) ) ;
#37 = CIRCLE ( 'NONE', #89, 24.15000000000001990 ) ;
#38 = CC_DESIGN_APPROVAL ( #255, ( #127 ) ) ;
#39 = DIRECTION ( 'NONE',  ( -1.000000000000000000, -0.000000000000000000, -0.000000000000000000 ) ) ;
#40 = ADVANCED_FACE ( 'NONE', ( #85 ), #306, .T. ) ;
#41 = DIRECTION ( 'NONE',  ( 0.000000000000000000, 0.000000000000000000, 1.000000000000000000 ) ) ;
#42 = SECURITY_CLASSIFICATION_LEVEL ( 'unclassified' ) ;
#43 = DIRECTION ( 'NONE',  ( 0.000000000000000000, 0.000000000000000000, 1.000000000000000000 ) ) ;
#44 = CIRCLE ( 'NONE', #270, 35.44592105263156867 ) ;
#45 =( LENGTH_UNIT ( ) NAMED_UNIT ( * ) SI_UNIT ( .MILLI., .METRE. ) );
#46 = ORIENTED_EDGE ( 'NONE', *, *, #133, .F. ) ;
#47 = ADVANCED_FACE ( 'NONE', ( #57 ), #214, .T. ) ;
#48 = APPLICATION_PROTOCOL_DEFINITION ( 'international standard', 'config_control_design', 1994, #134 ) ;
#49 = ORIENTED_EDGE ( 'NONE', *, *, #207, .T. ) ;
#50 = CARTESIAN_POINT ( 'NONE',  ( 8.999999999999980460, 0.000000000000000000, 0.000000000000000000 ) ) ;
#51 = VERTEX_POINT ( 'NONE', #56 ) ;
#52 = AXIS2_PLACEMENT_3D ( 'NONE', #307, #242, #340 ) ;
#53 = LOCAL_TIME ( 8, 26, 4.000000000000000000, #10 ) ;
#54 = DIRECTION ( 'NONE',  ( 1.000000000000000000, 0.000000000000000000, 0.000000000000000000 ) ) ;
#55 = ORIENTED_EDGE ( 'NONE', *, *, #351, .T. ) ;
#56 = CARTESIAN_POINT ( 'NONE',  ( 8.999999999999980460, 2.651360320154022032E-15, -21.15000000000001990 ) ) ;
#57 = FACE_OUTER_BOUND ( 'NONE', #265, .T. ) ;
#58 = AXIS2_PLACEMENT_3D ( 'NONE', #253, #188, #312 ) ;
#59 = DIRECTION ( 'NONE',  ( -1.000000000000000000, -0.000000000000000000, -0.000000000000000000 ) ) ;
#60 = EDGE_CURVE ( 'NONE', #106, #297, #212, .T. ) ;
#61 = MANIFOLD_SOLID_BREP ( 'Rotation1', #243 ) ;
#62 = DIRECTION ( 'NONE',  ( -1.000000000000000000, -0.000000000000000000, -0.000000000000000000 ) ) ;
#63 = EDGE_CURVE ( 'NONE', #238, #382, #398, .T. ) ;
#64 = CIRCLE ( 'NONE', #288, 21.15000000000001990 ) ;
#65 = CARTESIAN_POINT ( 'NONE',  ( 7.999999999999979572, 0.000000000000000000, 0.000000000000000000 ) ) ;
#66 = CYLINDRICAL_SURFACE ( 'NONE', #58, 22.15000000000001990 ) ;
#67 = DIRECTION ( 'NONE',  ( 0.000000000000000000, 0.000000000000000000, 1.000000000000000000 ) ) ;
#68 = CARTESIAN_POINT ( 'NONE',  ( -2.060920719021114067, 0.000000000000000000, 24.15000000000001990 ) ) ;
#69 = TOROIDAL_SURFACE ( 'NONE', #376, 23.15000000000001634, 1.000000000000001554 ) ;
#70 = ADVANCED_FACE ( 'NONE', ( #28 ), #69, .T. ) ;
#71 = DIRECTION ( 'NONE',  ( -1.000000000000000000, -0.000000000000000000, -0.000000000000000000 ) ) ;
#72 = ORIENTED_EDGE ( 'NONE', *, *, #4, .F. ) ;
#73 = PERSON_AND_ORGANIZATION_ROLE ( 'creator' ) ;
#74 = CALENDAR_DATE ( 2024, 23, 9 ) ;
#75 = APPROVAL ( #360, 'UNSPECIFIED' ) ;
#76 = ORIENTED_EDGE ( 'NONE', *, *, #260, .F. ) ;
#77 = CIRCLE ( 'NONE', #283, 21.15000000000001990 ) ;
#78 = VERTEX_POINT ( 'NONE', #241 ) ;
#79 = PERSON_AND_ORGANIZATION ( #135, #371 ) ;
#80 = VERTEX_POINT ( 'NONE', #118 ) ;
#81 =( NAMED_UNIT ( * ) PLANE_ANGLE_UNIT ( ) SI_UNIT ( $, .RADIAN. ) );
#82 = ORIENTED_EDGE ( 'NONE', *, *, #279, .T. ) ;
#83 = AXIS2_PLACEMENT_3D ( 'NONE', #25, #271, #67 ) ;
#84 = LINE ( 'NONE', #208, #159 ) ;
#85 = FACE_OUTER_BOUND ( 'NONE', #363, .T. ) ;
#86 = DIRECTION ( 'NONE',  ( -1.000000000000000000, -0.000000000000000000, -0.000000000000000000 ) ) ;
#87 = EDGE_CURVE ( 'NONE', #382, #313, #296, .T. ) ;
#88 = DESIGN_CONTEXT ( 'detailed design', #134, 'design' ) ;
#89 = AXIS2_PLACEMENT_3D ( 'NONE', #223, #7, #194 ) ;
#90 = CARTESIAN_POINT ( 'NONE',  ( 8.999999999999980460, 0.000000000000000000, 0.000000000000000000 ) ) ;
#91 = PLANE ( 'NONE',  #356 ) ;
#92 = AXIS2_PLACEMENT_3D ( 'NONE', #162, #39, #381 ) ;
#93 = CARTESIAN_POINT ( 'NONE',  ( 8.999999999999982236, -2.044934454884403791E-16, 0.000000000000000000 ) ) ;
#94 = DATE_AND_TIME ( #181, #277 ) ;
#95 = DIRECTION ( 'NONE',  ( -1.000000000000000000, 0.000000000000000000, -0.000000000000000000 ) ) ;
#96 = LINE ( 'NONE', #315, #211 ) ;
#97 = CC_DESIGN_PERSON_AND_ORGANIZATION_ASSIGNMENT ( #258, #354, ( #127 ) ) ;
#98 = DIRECTION ( 'NONE',  ( -0.000000000000000000, 0.000000000000000000, -1.000000000000000000 ) ) ;
#99 = VECTOR ( 'NONE', #183, 1000.000000000000000 ) ;
#100 = CIRCLE ( 'NONE', #186, 35.44592105263156867 ) ;
#101 = APPROVAL_STATUS ( 'not_yet_approved' ) ;
#102 = ORIENTED_EDGE ( 'NONE', *, *, #133, .T. ) ;
#103 = EDGE_CURVE ( 'NONE', #313, #144, #224, .T. ) ;
#104 = EDGE_LOOP ( 'NONE', ( #364, #204, #33, #20 ) ) ;
#105 = CALENDAR_DATE ( 2024, 23, 9 ) ;
#106 = VERTEX_POINT ( 'NONE', #368 ) ;
#107 = AXIS2_PLACEMENT_3D ( 'NONE', #196, #325, #17 ) ;
#108 =( GEOMETRIC_REPRESENTATION_CONTEXT ( 3 ) GLOBAL_UNCERTAINTY_ASSIGNED_CONTEXT ( ( #295 ) ) GLOBAL_UNIT_ASSIGNED_CONTEXT ( ( #45, #81, #322 ) ) REPRESENTATION_CONTEXT ( 'NONE', 'WORKASPACE' ) );
#109 = PERSON_AND_ORGANIZATION_ROLE ( 'creator' ) ;
#110 = ORIENTED_EDGE ( 'NONE', *, *, #202, .F. ) ;
#111 = CARTESIAN_POINT ( 'NONE',  ( -2.060920719021114067, 2.957522019940860297E-15, -24.15000000000001990 ) ) ;
#112 = ORIENTED_EDGE ( 'NONE', *, *, #317, .T. ) ;
#113 = EDGE_CURVE ( 'NONE', #176, #238, #206, .T. ) ;
#114 = ORIENTED_EDGE ( 'NONE', *, *, #63, .F. ) ;
#115 = CIRCLE ( 'NONE', #92, 24.15000000000001990 ) ;
#116 = CARTESIAN_POINT ( 'NONE',  ( -2.060920719021114067, 0.000000000000000000, 0.000000000000000000 ) ) ;
#117 = ADVANCED_FACE ( 'NONE', ( #182 ), #316, .T. ) ;
#118 = CARTESIAN_POINT ( 'NONE',  ( -12.00000000000002487, 2.170436687996751655E-15, 0.000000000000000000 ) ) ;
#119 = CARTESIAN_POINT ( 'NONE',  ( -154.8395502972293230, 0.000000000000000000, 24.15000000000001990 ) ) ;
#120 = CC_DESIGN_SECURITY_CLASSIFICATION ( #127, ( #132 ) ) ;
#121 = DIRECTION ( 'NONE',  ( -1.000000000000000000, -0.000000000000000000, -0.000000000000000000 ) ) ;
#122 = DIRECTION ( 'NONE',  ( 0.000000000000000000, 0.000000000000000000, 1.000000000000000000 ) ) ;
#123 = CARTESIAN_POINT ( 'NONE',  ( 8.999999999999980460, 0.000000000000000000, 0.000000000000000000 ) ) ;
#124 = EDGE_LOOP ( 'NONE', ( #157, #268 ) ) ;
#125 = CIRCLE ( 'NONE', #357, 22.15000000000002345 ) ;
#126 = DIRECTION ( 'NONE',  ( -0.000000000000000000, 0.000000000000000000, 1.000000000000000000 ) ) ;
#127 = SECURITY_CLASSIFICATION ( '', '', #42 ) ;
#128 = DIRECTION ( 'NONE',  ( -1.000000000000000000, -0.000000000000000000, -0.000000000000000000 ) ) ;
#129 = FACE_OUTER_BOUND ( 'NONE', #321, .T. ) ;
#130 = CARTESIAN_POINT ( 'NONE',  ( 23.44592105263154735, 0.000000000000000000, 0.000000000000000000 ) ) ;
#131 = AXIS2_PLACEMENT_3D ( 'NONE', #123, #128, #284 ) ;
#132 = PRODUCT_DEFINITION_FORMATION_WITH_SPECIFIED_SOURCE ( 'ANY', '', #301, .NOT_KNOWN. ) ;
#133 = EDGE_CURVE ( 'NONE', #15, #200, #199, .T. ) ;
#134 = APPLICATION_CONTEXT ( 'configuration controlled 3d designs of mechanical parts and assemblies' ) ;
#135 = PERSON ( 'UNSPECIFIED', 'UNSPECIFIED', 'UNSPECIFIED', ('UNSPECIFIED'), ('UNSPECIFIED'), ('UNSPECIFIED') ) ;
#136 = DIRECTION ( 'NONE',  ( 0.000000000000000000, 0.000000000000000000, 1.000000000000000000 ) ) ;
#137 = DIRECTION ( 'NONE',  ( -1.000000000000000000, -0.000000000000000000, -0.000000000000000000 ) ) ;
#138 = PERSON_AND_ORGANIZATION ( #135, #371 ) ;
#139 = EDGE_LOOP ( 'NONE', ( #114, #392, #383, #294 ) ) ;
#140 = APPROVAL_DATE_TIME ( #228, #75 ) ;
#141 = ORIENTED_EDGE ( 'NONE', *, *, #402, .T. ) ;
#142 = AXIS2_PLACEMENT_3D ( 'NONE', #90, #86, #341 ) ;
#143 = CC_DESIGN_DATE_AND_TIME_ASSIGNMENT ( #248, #377, ( #127 ) ) ;
#144 = VERTEX_POINT ( 'NONE', #278 ) ;
#145 = ORIENTED_EDGE ( 'NONE', *, *, #158, .F. ) ;
#146 = DIRECTION ( 'NONE',  ( -1.000000000000000000, -0.000000000000000000, -0.000000000000000000 ) ) ;
#147 = CC_DESIGN_PERSON_AND_ORGANIZATION_ASSIGNMENT ( #138, #109, ( #365 ) ) ;
#148 = CIRCLE ( 'NONE', #303, 22.15000000000001634 ) ;
#149 = CARTESIAN_POINT ( 'NONE',  ( 23.44592105263154735, 0.000000000000000000, 0.000000000000000000 ) ) ;
#150 = DIRECTION ( 'NONE',  ( 0.000000000000000000, 1.000000000000000000, 0.000000000000000000 ) ) ;
#151 = CARTESIAN_POINT ( 'NONE',  ( -2.060920719021125613, 0.000000000000000000, 23.15000000000001634 ) ) ;
#152 = CIRCLE ( 'NONE', #83, 22.15000000000002345 ) ;
#153 = LINE ( 'NONE', #119, #99 ) ;
#154 = DIRECTION ( 'NONE',  ( -1.000000000000000000, -0.000000000000000000, -0.000000000000000000 ) ) ;
#155 = ORIENTED_EDGE ( 'NONE', *, *, #202, .T. ) ;
#156 = DIRECTION ( 'NONE',  ( -1.000000000000000000, -0.000000000000000000, -0.000000000000000000 ) ) ;
#157 = ORIENTED_EDGE ( 'NONE', *, *, #32, .T. ) ;
#158 = EDGE_CURVE ( 'NONE', #200, #144, #239, .T. ) ;
#159 = VECTOR ( 'NONE', #302, 1000.000000000000000 ) ;
#160 = APPROVAL_PERSON_ORGANIZATION ( #314, #255, #394 ) ;
#161 = CARTESIAN_POINT ( 'NONE',  ( 7.999999999999979572, 0.000000000000000000, 22.15000000000002345 ) ) ;
#162 = CARTESIAN_POINT ( 'NONE',  ( -2.060920719021114067, 0.000000000000000000, 0.000000000000000000 ) ) ;
#163 = CARTESIAN_POINT ( 'NONE',  ( -154.8395502972293230, 0.000000000000000000, 0.000000000000000000 ) ) ;
#164 = COORDINATED_UNIVERSAL_TIME_OFFSET ( 1, 0, .AHEAD. ) ;
#165 = AXIS2_PLACEMENT_3D ( 'NONE', #338, #273, #184 ) ;
#166 = CARTESIAN_POINT ( 'NONE',  ( 8.999999999999980460, 0.000000000000000000, 21.15000000000001990 ) ) ;
#167 = APPROVAL_ROLE ( '' ) ;
#168 = ORIENTED_EDGE ( 'NONE', *, *, #60, .T. ) ;
#169 = PRODUCT_RELATED_PRODUCT_CATEGORY ( 'detail', '', ( #301 ) ) ;
#170 = APPROVAL_ROLE ( '' ) ;
#171 = ORIENTED_EDGE ( 'NONE', *, *, #388, .F. ) ;
#172 = APPROVAL ( #101, 'UNSPECIFIED' ) ;
#173 = EDGE_LOOP ( 'NONE', ( #359, #112, #49, #110 ) ) ;
#174 = AXIS2_PLACEMENT_3D ( 'NONE', #197, #324, #43 ) ;
#175 = AXIS2_PLACEMENT_3D ( 'NONE', #257, #261, #54 ) ;
#176 = VERTEX_POINT ( 'NONE', #178 ) ;
#177 = EDGE_CURVE ( 'NONE', #51, #106, #84, .T. ) ;
#178 = CARTESIAN_POINT ( 'NONE',  ( 0.000000000000000000, 0.000000000000000000, 24.15000000000001990 ) ) ;
#179 = VECTOR ( 'NONE', #59, 1000.000000000000000 ) ;
#180 = VECTOR ( 'NONE', #291, 1000.000000000000000 ) ;
#181 = CALENDAR_DATE ( 2024, 23, 9 ) ;
#182 = FACE_OUTER_BOUND ( 'NONE', #237, .T. ) ;
#183 = DIRECTION ( 'NONE',  ( -1.000000000000000000, -0.000000000000000000, -0.000000000000000000 ) ) ;
#184 = DIRECTION ( 'NONE',  ( 0.000000000000000000, 0.000000000000000000, 1.000000000000000000 ) ) ;
#185 = AXIS2_PLACEMENT_3D ( 'NONE', #26, #269, #244 ) ;
#186 = AXIS2_PLACEMENT_3D ( 'NONE', #236, #328, #198 ) ;
#187 = DIRECTION ( 'NONE',  ( 0.000000000000000000, 0.000000000000000000, 1.000000000000000000 ) ) ;
#188 = DIRECTION ( 'NONE',  ( -1.000000000000000000, -0.000000000000000000, -0.000000000000000000 ) ) ;
#189 = ADVANCED_FACE ( 'NONE', ( #334 ), #263, .T. ) ;
#190 = ORIENTED_EDGE ( 'NONE', *, *, #373, .F. ) ;
#191 = CARTESIAN_POINT ( 'NONE',  ( -154.8395502972293230, 0.000000000000000000, 22.15000000000001990 ) ) ;
#192 = AXIS2_PLACEMENT_3D ( 'NONE', #93, #375, #126 ) ;
#193 = CYLINDRICAL_SURFACE ( 'NONE', #343, 24.15000000000001990 ) ;
#194 = DIRECTION ( 'NONE',  ( 0.000000000000000000, 0.000000000000000000, 1.000000000000000000 ) ) ;
#195 = ORIENTED_EDGE ( 'NONE', *, *, #330, .T. ) ;
#196 = CARTESIAN_POINT ( 'NONE',  ( -2.060920719021125613, 2.835057340026124754E-15, -23.15000000000001634 ) ) ;
#197 = CARTESIAN_POINT ( 'NONE',  ( -2.801410187503599936, 0.000000000000000000, 0.000000000000000000 ) ) ;
#198 = DIRECTION ( 'NONE',  ( 1.000000000000000000, 0.000000000000000000, 0.000000000000000000 ) ) ;
#199 = CIRCLE ( 'NONE', #165, 23.82206796313063180 ) ;
#200 = VERTEX_POINT ( 'NONE', #395 ) ;
#201 = EDGE_LOOP ( 'NONE', ( #35, #326, #311, #145, #46 ) ) ;
#202 = EDGE_CURVE ( 'NONE', #106, #329, #152, .T. ) ;
#203 = PERSON_AND_ORGANIZATION ( #135, #371 ) ;
#204 = ORIENTED_EDGE ( 'NONE', *, *, #63, .T. ) ;
#205 = ORIENTED_EDGE ( 'NONE', *, *, #103, .F. ) ;
#206 = CIRCLE ( 'NONE', #309, 24.15000000000001990 ) ;
#207 = EDGE_CURVE ( 'NONE', #13, #329, #96, .T. ) ;
#208 = CARTESIAN_POINT ( 'NONE',  ( 8.999999999999980460, 2.590127980196654063E-15, -21.15000000000001990 ) ) ;
#209 = DIRECTION ( 'NONE',  ( -1.000000000000000000, -0.000000000000000000, -0.000000000000000000 ) ) ;
#210 = CARTESIAN_POINT ( 'NONE',  ( -2.801410187503599936, 0.000000000000000000, 0.000000000000000000 ) ) ;
#211 = VECTOR ( 'NONE', #380, 1000.000000000000000 ) ;
#212 = LINE ( 'NONE', #308, #369 ) ;
#213 = CC_DESIGN_PERSON_AND_ORGANIZATION_ASSIGNMENT ( #79, #73, ( #132 ) ) ;
#214 = SPHERICAL_SURFACE ( 'NONE', #217, 35.44592105263156867 ) ;
#215 = CARTESIAN_POINT ( 'NONE',  ( -2.775557561562891351E-14, 0.000000000000000000, 22.15000000000001634 ) ) ;
#216 = COORDINATED_UNIVERSAL_TIME_OFFSET ( 1, 0, .AHEAD. ) ;
#217 = AXIS2_PLACEMENT_3D ( 'NONE', #149, #30, #150 ) ;
#218 = LOCAL_TIME ( 8, 26, 4.000000000000000000, #352 ) ;
#219 = CC_DESIGN_PERSON_AND_ORGANIZATION_ASSIGNMENT ( #266, #12, ( #301 ) ) ;
#220 = CARTESIAN_POINT ( 'NONE',  ( -2.775557561562891351E-14, 2.712592660111389606E-15, -22.15000000000001634 ) ) ;
#221 = SHAPE_DEFINITION_REPRESENTATION ( #396, #252 ) ;
#222 = DIRECTION ( 'NONE',  ( -0.000000000000000000, 0.000000000000000000, 1.000000000000000000 ) ) ;
#223 = CARTESIAN_POINT ( 'NONE',  ( 0.000000000000000000, 0.000000000000000000, 0.000000000000000000 ) ) ;
#224 = CIRCLE ( 'NONE', #230, 1.000000000000000888 ) ;
#225 = FACE_OUTER_BOUND ( 'NONE', #350, .T. ) ;
#226 = ORIENTED_EDGE ( 'NONE', *, *, #32, .F. ) ;
#227 = DATE_TIME_ROLE ( 'creation_date' ) ;
#228 = DATE_AND_TIME ( #105, #218 ) ;
#229 = ORIENTED_EDGE ( 'NONE', *, *, #113, .F. ) ;
#230 = AXIS2_PLACEMENT_3D ( 'NONE', #151, #275, #401 ) ;
#231 = ADVANCED_FACE ( 'NONE', ( #129 ), #319, .T. ) ;
#232 = ORIENTED_EDGE ( 'NONE', *, *, #402, .F. ) ;
#233 = APPROVAL_PERSON_ORGANIZATION ( #234, #75, #170 ) ;
#234 = PERSON_AND_ORGANIZATION ( #135, #371 ) ;
#235 = ORIENTED_EDGE ( 'NONE', *, *, #388, .T. ) ;
#236 = CARTESIAN_POINT ( 'NONE',  ( 23.44592105263154735, 0.000000000000000000, 0.000000000000000000 ) ) ;
#237 = EDGE_LOOP ( 'NONE', ( #141, #251, #18, #361 ) ) ;
#238 = VERTEX_POINT ( 'NONE', #346 ) ;
#239 = CIRCLE ( 'NONE', #16, 23.82206796313063180 ) ;
#240 = DIRECTION ( 'NONE',  ( -1.000000000000000000, -0.000000000000000000, -0.000000000000000000 ) ) ;
#241 = CARTESIAN_POINT ( 'NONE',  ( -2.801410187503598603, 23.82206796313063890, 0.000000000000000000 ) ) ;
#242 = DIRECTION ( 'NONE',  ( -1.000000000000000000, -0.000000000000000000, -0.000000000000000000 ) ) ;
#243 = CLOSED_SHELL ( 'NONE', ( #117, #40, #323, #189, #47, #231, #70, #14, #305, #362, #290, #272 ) ) ;
#244 = DIRECTION ( 'NONE',  ( 0.000000000000000000, 0.000000000000000000, 1.000000000000000000 ) ) ;
#245 = CARTESIAN_POINT ( 'NONE',  ( 0.000000000000000000, 0.000000000000000000, 0.000000000000000000 ) ) ;
#246 = EDGE_CURVE ( 'NONE', #238, #176, #37, .T. ) ;
#247 = PLANE ( 'NONE',  #192 ) ;
#248 = DATE_AND_TIME ( #397, #304 ) ;
#249 = AXIS2_PLACEMENT_3D ( 'NONE', #349, #36, #374 ) ;
#250 = DIRECTION ( 'NONE',  ( 0.000000000000000000, 1.224646799147353207E-16, -1.000000000000000000 ) ) ;
#251 = ORIENTED_EDGE ( 'NONE', *, *, #177, .T. ) ;
#252 = ADVANCED_BREP_SHAPE_REPRESENTATION ( '3D_GR1184_48.3x2_183802876', ( #61, #175 ), #108 ) ;
#253 = CARTESIAN_POINT ( 'NONE',  ( -154.8395502972293230, 0.000000000000000000, 0.000000000000000000 ) ) ;
#254 = FACE_OUTER_BOUND ( 'NONE', #173, .T. ) ;
#255 = APPROVAL ( #367, 'UNSPECIFIED' ) ;
#256 = ORIENTED_EDGE ( 'NONE', *, *, #317, .F. ) ;
#257 = CARTESIAN_POINT ( 'NONE',  ( 0.000000000000000000, 0.000000000000000000, 0.000000000000000000 ) ) ;
#258 = PERSON_AND_ORGANIZATION ( #135, #371 ) ;
#259 = DIRECTION ( 'NONE',  ( 0.000000000000000000, 0.000000000000000000, 1.000000000000000000 ) ) ;
#260 = EDGE_CURVE ( 'NONE', #200, #80, #44, .T. ) ;
#261 = DIRECTION ( 'NONE',  ( 0.000000000000000000, 0.000000000000000000, 1.000000000000000000 ) ) ;
#262 = ORIENTED_EDGE ( 'NONE', *, *, #378, .T. ) ;
#263 = TOROIDAL_SURFACE ( 'NONE', #331, 23.15000000000001634, 1.000000000000001554 ) ;
#264 = APPROVAL_DATE_TIME ( #293, #172 ) ;
#265 = EDGE_LOOP ( 'NONE', ( #82, #102, #3, #171 ) ) ;
#266 = PERSON_AND_ORGANIZATION ( #135, #371 ) ;
#267 = EDGE_LOOP ( 'NONE', ( #6, #155, #353, #327 ) ) ;
#268 = ORIENTED_EDGE ( 'NONE', *, *, #347, .T. ) ;
#269 = DIRECTION ( 'NONE',  ( -1.000000000000000000, -0.000000000000000000, -0.000000000000000000 ) ) ;
#270 = AXIS2_PLACEMENT_3D ( 'NONE', #130, #250, #5 ) ;
#271 = DIRECTION ( 'NONE',  ( -1.000000000000000000, -0.000000000000000000, -0.000000000000000000 ) ) ;
#272 = ADVANCED_FACE ( 'NONE', ( #225 ), #247, .F. ) ;
#273 = DIRECTION ( 'NONE',  ( -1.000000000000000000, -0.000000000000000000, -0.000000000000000000 ) ) ;
#274 = APPLICATION_CONTEXT ( 'configuration controlled 3d designs of mechanical parts and assemblies' ) ;
#275 = DIRECTION ( 'NONE',  ( 0.000000000000000000, -1.000000000000000000, 0.000000000000000000 ) ) ;
#276 = AXIS2_PLACEMENT_3D ( 'NONE', #116, #62, #399 ) ;
#277 = LOCAL_TIME ( 8, 26, 4.000000000000000000, #216 ) ;
#278 = CARTESIAN_POINT ( 'NONE',  ( -2.801410187503599936, 0.000000000000000000, 23.82206796313063180 ) ) ;
#279 = EDGE_CURVE ( 'NONE', #78, #15, #23, .T. ) ;
#280 = FACE_OUTER_BOUND ( 'NONE', #267, .T. ) ;
#281 = LINE ( 'NONE', #191, #180 ) ;
#282 = CIRCLE ( 'NONE', #107, 1.000000000000000888 ) ;
#283 = AXIS2_PLACEMENT_3D ( 'NONE', #50, #387, #136 ) ;
#284 = DIRECTION ( 'NONE',  ( 0.000000000000000000, 0.000000000000000000, 1.000000000000000000 ) ) ;
#285 = CC_DESIGN_DATE_AND_TIME_ASSIGNMENT ( #385, #227, ( #365 ) ) ;
#286 = FACE_OUTER_BOUND ( 'NONE', #104, .T. ) ;
#287 = CARTESIAN_POINT ( 'NONE',  ( -2.775557561562891351E-14, 0.000000000000000000, 0.000000000000000000 ) ) ;
#288 = AXIS2_PLACEMENT_3D ( 'NONE', #320, #71, #41 ) ;
#289 = FACE_OUTER_BOUND ( 'NONE', #139, .T. ) ;
#290 = ADVANCED_FACE ( 'NONE', ( #254 ), #29, .T. ) ;
#291 = DIRECTION ( 'NONE',  ( -1.000000000000000000, -0.000000000000000000, -0.000000000000000000 ) ) ;
#292 = ORIENTED_EDGE ( 'NONE', *, *, #4, .T. ) ;
#293 = DATE_AND_TIME ( #74, #53 ) ;
#294 = ORIENTED_EDGE ( 'NONE', *, *, #87, .F. ) ;
#295 = UNCERTAINTY_MEASURE_WITH_UNIT (LENGTH_MEASURE( 1.000000000000000082E-05 ), #45, 'distance_accuracy_value', 'NONE');
#296 = CIRCLE ( 'NONE', #276, 24.15000000000001990 ) ;
#297 = VERTEX_POINT ( 'NONE', #220 ) ;
#298 = MECHANICAL_CONTEXT ( 'NONE', #274, 'mechanical' ) ;
#299 = ORIENTED_EDGE ( 'NONE', *, *, #158, .T. ) ;
#300 = CARTESIAN_POINT ( 'NONE',  ( -2.060920719021125613, 0.000000000000000000, 0.000000000000000000 ) ) ;
#301 = PRODUCT ( '3D_GR1184_48.3x2_183802876', '3D_GR1184_48.3x2_183802876', '', ( #298 ) ) ;
#302 = DIRECTION ( 'NONE',  ( -0.7071067811865463515, 8.659560562354948882E-17, -0.7071067811865487940 ) ) ;
#303 = AXIS2_PLACEMENT_3D ( 'NONE', #287, #342, #8 ) ;
#304 = LOCAL_TIME ( 8, 26, 4.000000000000000000, #24 ) ;
#305 = ADVANCED_FACE ( 'NONE', ( #310, #31 ), #91, .F. ) ;
#306 = CYLINDRICAL_SURFACE ( 'NONE', #52, 22.15000000000001990 ) ;
#307 = CARTESIAN_POINT ( 'NONE',  ( -154.8395502972293230, 0.000000000000000000, 0.000000000000000000 ) ) ;
#308 = CARTESIAN_POINT ( 'NONE',  ( -154.8395502972293230, 2.712592660111389606E-15, -22.15000000000001990 ) ) ;
#309 = AXIS2_PLACEMENT_3D ( 'NONE', #245, #121, #22 ) ;
#310 = FACE_OUTER_BOUND ( 'NONE', #386, .T. ) ;
#311 = ORIENTED_EDGE ( 'NONE', *, *, #103, .T. ) ;
#312 = DIRECTION ( 'NONE',  ( 0.000000000000000000, 0.000000000000000000, 1.000000000000000000 ) ) ;
#313 = VERTEX_POINT ( 'NONE', #68 ) ;
#314 = PERSON_AND_ORGANIZATION ( #135, #371 ) ;
#315 = CARTESIAN_POINT ( 'NONE',  ( 8.999999999999980460, 0.000000000000000000, 21.15000000000001990 ) ) ;
#316 = CONICAL_SURFACE ( 'NONE', #142, 21.15000000000001990, 0.7853981633974500554 ) ;
#317 = EDGE_CURVE ( 'NONE', #51, #13, #64, .T. ) ;
#318 = LOCAL_TIME ( 8, 26, 4.000000000000000000, #164 ) ;
#319 = SPHERICAL_SURFACE ( 'NONE', #393, 35.44592105263156867 ) ;
#320 = CARTESIAN_POINT ( 'NONE',  ( 8.999999999999980460, 0.000000000000000000, 0.000000000000000000 ) ) ;
#321 = EDGE_LOOP ( 'NONE', ( #76, #299, #292, #235 ) ) ;
#322 =( NAMED_UNIT ( * ) SI_UNIT ( $, .STERADIAN. ) SOLID_ANGLE_UNIT ( ) );
#323 = ADVANCED_FACE ( 'NONE', ( #286 ), #193, .T. ) ;
#324 = DIRECTION ( 'NONE',  ( -1.000000000000000000, -0.000000000000000000, -0.000000000000000000 ) ) ;
#325 = DIRECTION ( 'NONE',  ( -0.000000000000000000, 1.000000000000000000, 1.224646799147353207E-16 ) ) ;
#326 = ORIENTED_EDGE ( 'NONE', *, *, #87, .T. ) ;
#327 = ORIENTED_EDGE ( 'NONE', *, *, #347, .F. ) ;
#328 = DIRECTION ( 'NONE',  ( -0.000000000000000000, 0.000000000000000000, 1.000000000000000000 ) ) ;
#329 = VERTEX_POINT ( 'NONE', #161 ) ;
#330 = EDGE_CURVE ( 'NONE', #313, #382, #115, .T. ) ;
#331 = AXIS2_PLACEMENT_3D ( 'NONE', #300, #146, #366 ) ;
#332 = APPLICATION_PROTOCOL_DEFINITION ( 'international standard', 'config_control_design', 1994, #274 ) ;
#333 = VERTEX_POINT ( 'NONE', #215 ) ;
#334 = FACE_OUTER_BOUND ( 'NONE', #389, .T. ) ;
#335 = DIRECTION ( 'NONE',  ( 0.000000000000000000, 0.000000000000000000, 1.000000000000000000 ) ) ;
#336 = CC_DESIGN_PERSON_AND_ORGANIZATION_ASSIGNMENT ( #203, #390, ( #132 ) ) ;
#337 = AXIS2_PLACEMENT_3D ( 'NONE', #11, #137, #259 ) ;
#338 = CARTESIAN_POINT ( 'NONE',  ( -2.801410187503599936, 0.000000000000000000, 0.000000000000000000 ) ) ;
#339 = CC_DESIGN_APPROVAL ( #172, ( #365 ) ) ;
#340 = DIRECTION ( 'NONE',  ( 0.000000000000000000, 0.000000000000000000, 1.000000000000000000 ) ) ;
#341 = DIRECTION ( 'NONE',  ( 0.000000000000000000, 0.000000000000000000, 1.000000000000000000 ) ) ;
#342 = DIRECTION ( 'NONE',  ( -1.000000000000000000, -0.000000000000000000, -0.000000000000000000 ) ) ;
#343 = AXIS2_PLACEMENT_3D ( 'NONE', #163, #156, #345 ) ;
#344 = CC_DESIGN_APPROVAL ( #75, ( #132 ) ) ;
#345 = DIRECTION ( 'NONE',  ( 0.000000000000000000, 0.000000000000000000, 1.000000000000000000 ) ) ;
#346 = CARTESIAN_POINT ( 'NONE',  ( 0.000000000000000000, 2.957522019940860297E-15, -24.15000000000001990 ) ) ;
#347 = EDGE_CURVE ( 'NONE', #297, #333, #148, .T. ) ;
#348 = CIRCLE ( 'NONE', #174, 23.82206796313063180 ) ;
#349 = CARTESIAN_POINT ( 'NONE',  ( -2.801410187503599936, 0.000000000000000000, 0.000000000000000000 ) ) ;
#350 = EDGE_LOOP ( 'NONE', ( #232, #256 ) ) ;
#351 = EDGE_CURVE ( 'NONE', #329, #106, #125, .T. ) ;
#352 = COORDINATED_UNIVERSAL_TIME_OFFSET ( 1, 0, .AHEAD. ) ;
#353 = ORIENTED_EDGE ( 'NONE', *, *, #373, .T. ) ;
#354 = PERSON_AND_ORGANIZATION_ROLE ( 'classification_officer' ) ;
#355 = CYLINDRICAL_SURFACE ( 'NONE', #337, 24.15000000000001990 ) ;
#356 = AXIS2_PLACEMENT_3D ( 'NONE', #379, #95, #222 ) ;
#357 = AXIS2_PLACEMENT_3D ( 'NONE', #65, #154, #187 ) ;
#358 = CALENDAR_DATE ( 2024, 23, 9 ) ;
#359 = ORIENTED_EDGE ( 'NONE', *, *, #177, .F. ) ;
#360 = APPROVAL_STATUS ( 'not_yet_approved' ) ;
#361 = ORIENTED_EDGE ( 'NONE', *, *, #207, .F. ) ;
#362 = ADVANCED_FACE ( 'NONE', ( #280 ), #66, .T. ) ;
#363 = EDGE_LOOP ( 'NONE', ( #55, #168, #226, #190 ) ) ;
#364 = ORIENTED_EDGE ( 'NONE', *, *, #113, .T. ) ;
#365 = PRODUCT_DEFINITION ( 'UNKNOWN', '', #132, #88 ) ;
#366 = DIRECTION ( 'NONE',  ( 0.000000000000000000, 0.000000000000000000, 1.000000000000000000 ) ) ;
#367 = APPROVAL_STATUS ( 'not_yet_approved' ) ;
#368 = CARTESIAN_POINT ( 'NONE',  ( 7.999999999999979572, 2.712592660111390395E-15, -22.15000000000002345 ) ) ;
#369 = VECTOR ( 'NONE', #209, 1000.000000000000000 ) ;
#370 = CARTESIAN_POINT ( 'NONE',  ( -154.8395502972293230, 2.957522019940860297E-15, -24.15000000000001990 ) ) ;
#371 = ORGANIZATION ( 'UNSPECIFIED', 'UNSPECIFIED', '' ) ;
#372 = CARTESIAN_POINT ( 'NONE',  ( -2.060920719021125613, 0.000000000000000000, 0.000000000000000000 ) ) ;
#373 = EDGE_CURVE ( 'NONE', #329, #333, #281, .T. ) ;
#374 = DIRECTION ( 'NONE',  ( 0.000000000000000000, 0.000000000000000000, 1.000000000000000000 ) ) ;
#375 = DIRECTION ( 'NONE',  ( -1.000000000000000000, 0.000000000000000000, -0.000000000000000000 ) ) ;
#376 = AXIS2_PLACEMENT_3D ( 'NONE', #372, #240, #335 ) ;
#377 = DATE_TIME_ROLE ( 'classification_date' ) ;
#378 = EDGE_CURVE ( 'NONE', #382, #15, #282, .T. ) ;
#379 = CARTESIAN_POINT ( 'NONE',  ( -7.362755078324381194E-15, 22.15000000000001634, 0.000000000000000000 ) ) ;
#380 = DIRECTION ( 'NONE',  ( -0.7071067811865463515, 0.000000000000000000, 0.7071067811865487940 ) ) ;
#381 = DIRECTION ( 'NONE',  ( 0.000000000000000000, 0.000000000000000000, 1.000000000000000000 ) ) ;
#382 = VERTEX_POINT ( 'NONE', #111 ) ;
#383 = ORIENTED_EDGE ( 'NONE', *, *, #27, .T. ) ;
#384 = CARTESIAN_POINT ( 'NONE',  ( -2.801410187503599936, 2.937441973976362159E-15, -23.82206796313063180 ) ) ;
#385 = DATE_AND_TIME ( #358, #318 ) ;
#386 = EDGE_LOOP ( 'NONE', ( #229, #9 ) ) ;
#387 = DIRECTION ( 'NONE',  ( -1.000000000000000000, -0.000000000000000000, -0.000000000000000000 ) ) ;
#388 = EDGE_CURVE ( 'NONE', #78, #80, #100, .T. ) ;
#389 = EDGE_LOOP ( 'NONE', ( #195, #262, #391, #72, #205 ) ) ;
#390 = PERSON_AND_ORGANIZATION_ROLE ( 'design_supplier' ) ;
#391 = ORIENTED_EDGE ( 'NONE', *, *, #279, .F. ) ;
#392 = ORIENTED_EDGE ( 'NONE', *, *, #246, .T. ) ;
#393 = AXIS2_PLACEMENT_3D ( 'NONE', #2, #98, #34 ) ;
#394 = APPROVAL_ROLE ( '' ) ;
#395 = CARTESIAN_POINT ( 'NONE',  ( -2.801410187503598603, -23.82206796313063890, -2.917361928011864810E-15 ) ) ;
#396 = PRODUCT_DEFINITION_SHAPE ( 'NONE', 'NONE',  #365 ) ;
#397 = CALENDAR_DATE ( 2024, 23, 9 ) ;
#398 = LINE ( 'NONE', #370, #179 ) ;
#399 = DIRECTION ( 'NONE',  ( 0.000000000000000000, 0.000000000000000000, 1.000000000000000000 ) ) ;
#400 = CIRCLE ( 'NONE', #185, 22.15000000000001634 ) ;
#401 = DIRECTION ( 'NONE',  ( 0.000000000000000000, 0.000000000000000000, -1.000000000000000000 ) ) ;
#402 = EDGE_CURVE ( 'NONE', #13, #51, #77, .T. ) ;
#403 = APPROVAL_PERSON_ORGANIZATION ( #19, #172, #167 ) ;
ENDSEC;
END-ISO-10303-21;
